  0
SECTION
  2
HEADER
  9
$ACADVER
  1
AC1009
  9
$INSBASE
 10
0.0
 20
0.0
 30
0.0
  9
$EXTMIN
 10
-10.023791
 20
-3.392963
 30
0.0
  9
$EXTMAX
 10
194.489449
 20
132.713471
 30
0.0
  9
$LIMMIN
 10
0.0
 20
0.0
  9
$LIMMAX
 10
48.0
 20
36.0
  9
$ORTHOMODE
 70
     1
  9
$REGENMODE
 70
     1
  9
$FILLMODE
 70
     1
  9
$QTEXTMODE
 70
     0
  9
$MIRRTEXT
 70
     1
  9
$DRAGMODE
 70
     2
  9
$LTSCALE
 40
1.0
  9
$OSMODE
 70
     0
  9
$ATTMODE
 70
     1
  9
$TEXTSIZE
 40
0.5
  9
$TRACEWID
 40
0.05
  9
$TEXTSTYLE
  7
ROMAND
  9
$CLAYER
  8
0
  9
$CELTYPE
  6
BYLAYER
  9
$CECOLOR
 62
   256
  9
$DIMSCALE
 40
1.0
  9
$DIMASZ
 40
1.0
  9
$DIMEXO
 40
0.38
  9
$DIMDLI
 40
2.0
  9
$DIMRND
 40
0.0
  9
$DIMDLE
 40
0.0
  9
$DIMEXE
 40
1.0
  9
$DIMTP
 40
0.0
  9
$DIMTM
 40
0.0
  9
$DIMTXT
 40
1.0
  9
$DIMCEN
 40
0.5
  9
$DIMTSZ
 40
0.0
  9
$DIMTOL
 70
     0
  9
$DIMLIM
 70
     0
  9
$DIMTIH
 70
     1
  9
$DIMTOH
 70
     1
  9
$DIMSE1
 70
     0
  9
$DIMSE2
 70
     0
  9
$DIMTAD
 70
     0
  9
$DIMZIN
 70
     0
  9
$DIMBLK
  1

  9
$DIMASO
 70
     1
  9
$DIMSHO
 70
     1
  9
$DIMPOST
  1

  9
$DIMAPOST
  1

  9
$DIMALT
 70
     0
  9
$DIMALTD
 70
     2
  9
$DIMALTF
 40
25.4
  9
$DIMLFAC
 40
1.0
  9
$DIMTOFL
 70
     0
  9
$DIMTVP
 40
0.0
  9
$DIMTIX
 70
     0
  9
$DIMSOXD
 70
     0
  9
$DIMSAH
 70
     0
  9
$DIMBLK1
  1

  9
$DIMBLK2
  1

  9
$DIMSTYLE
  2
*UNNAMED
  9
$DIMCLRD
 70
     0
  9
$DIMCLRE
 70
     0
  9
$DIMCLRT
 70
     0
  9
$DIMTFAC
 40
1.0
  9
$DIMGAP
 40
0.5
  9
$LUNITS
 70
     2
  9
$LUPREC
 70
     2
  9
$SKETCHINC
 40
0.1
  9
$FILLETRAD
 40
0.06
  9
$AUNITS
 70
     0
  9
$AUPREC
 70
     0
  9
$MENU
  1
C:\ACADWIN\SUPPORT\ACAD
  9
$ELEVATION
 40
0.0
  9
$PELEVATION
 40
0.0
  9
$THICKNESS
 40
0.0
  9
$LIMCHECK
 70
     0
  9
$BLIPMODE
 70
     1
  9
$CHAMFERA
 40
0.0
  9
$CHAMFERB
 40
0.0
  9
$SKPOLY
 70
     0
  9
$TDCREATE
 40
2451400.438835532
  9
$TDUPDATE
 40
2451400.549840972
  9
$TDINDWG
 40
0.0234138889
  9
$TDUSRTIMER
 40
0.0234138889
  9
$USRTIMER
 70
     1
  9
$ANGBASE
 50
0.0
  9
$ANGDIR
 70
     0
  9
$PDMODE
 70
     0
  9
$PDSIZE
 40
0.0
  9
$PLINEWID
 40
0.0
  9
$COORDS
 70
     1
  9
$SPLFRAME
 70
     0
  9
$SPLINETYPE
 70
     6
  9
$SPLINESEGS
 70
     8
  9
$ATTDIA
 70
     0
  9
$ATTREQ
 70
     1
  9
$HANDLING
 70
     0
  9
$HANDSEED
  5
0
  9
$SURFTAB1
 70
     6
  9
$SURFTAB2
 70
     6
  9
$SURFTYPE
 70
     6
  9
$SURFU
 70
     6
  9
$SURFV
 70
     6
  9
$UCSNAME
  2

  9
$UCSORG
 10
0.0
 20
0.0
 30
0.0
  9
$UCSXDIR
 10
1.0
 20
0.0
 30
0.0
  9
$UCSYDIR
 10
0.0
 20
1.0
 30
0.0
  9
$PUCSNAME
  2

  9
$PUCSORG
 10
0.0
 20
0.0
 30
0.0
  9
$PUCSXDIR
 10
1.0
 20
0.0
 30
0.0
  9
$PUCSYDIR
 10
0.0
 20
1.0
 30
0.0
  9
$USERI1
 70
     0
  9
$USERI2
 70
     0
  9
$USERI3
 70
     0
  9
$USERI4
 70
     0
  9
$USERI5
 70
     0
  9
$USERR1
 40
0.0
  9
$USERR2
 40
0.0
  9
$USERR3
 40
0.0
  9
$USERR4
 40
0.0
  9
$USERR5
 40
0.0
  9
$WORLDVIEW
 70
     1
  9
$SHADEDGE
 70
     3
  9
$SHADEDIF
 70
    70
  9
$TILEMODE
 70
     1
  9
$MAXACTVP
 70
    16
  9
$PINSBASE
 10
0.0
 20
0.0
 30
1.076194E+26
  9
$PLIMCHECK
 70
     0
  9
$PEXTMIN
 10
1.000000E+20
 20
1.000000E+20
 30
1.000000E+20
  9
$PEXTMAX
 10
-1.000000E+20
 20
-1.000000E+20
 30
-1.000000E+20
  9
$PLIMMIN
 10
0.0
 20
0.0
  9
$PLIMMAX
 10
12.0
 20
9.0
  9
$UNITMODE
 70
     0
  9
$VISRETAIN
 70
     0
  9
$PLINEGEN
 70
     0
  9
$PSLTSCALE
 70
     1
  9
$TREEDEPTH
 70
  3020
  9
$DWGCODEPAGE
  3
iso8859-1
  0
ENDSEC
  0
SECTION
  2
TABLES
  0
TABLE
  2
VPORT
 70
     2
  0
VPORT
  2
*ACTIVE
 70
     0
 10
0.0
 20
0.0
 11
1.0
 21
1.0
 12
10.160296
 22
9.524002
 13
0.0
 23
0.0
 14
1.0
 24
1.0
 15
0.0
 25
0.0
 16
0.0
 26
0.0
 36
1.0
 17
0.0
 27
0.0
 37
0.0
 40
26.644111
 41
1.379728
 42
50.0
 43
0.0
 44
0.0
 50
0.0
 51
0.0
 71
     0
 72
   100
 73
     1
 74
     0
 75
     0
 76
     0
 77
     0
 78
     0
  0
ENDTAB
  0
TABLE
  2
LTYPE
 70
     3
  0
LTYPE
  2
CONTINUOUS
 70
    64
  3
Solid line
 72
    65
 73
     0
 40
0.0
  0
LTYPE
  2
CENTER2
 70
    64
  3
CENTER2 _._._._._
 72
    65
 73
     4
 40
0.15
 49
0.1
 49
-0.025
 49
0.0
 49
-0.025
  0
LTYPE
  2
HIDDEN2
 70
    64
  3
_ _ _ _ _ _ _ _ _ _ _ _ _ _ _ _ _ _ _ _ _ _ _ _
 72
    65
 73
     2
 40
0.1875
 49
0.125
 49
-0.0625
  0
ENDTAB
  0
TABLE
  2
LAYER
 70
     3
  0
LAYER
  2
0
 70
    64
 62
     7
  6
CONTINUOUS
  0
LAYER
  2
OBJ
 70
    64
 62
     7
  6
CONTINUOUS
  0
LAYER
  2
DEFPOINTS
 70
    64
 62
     7
  6
CONTINUOUS
  0
ENDTAB
  0
TABLE
  2
STYLE
 70
     2
  0
STYLE
  2
STANDARD
 70
     0
 40
0.0
 41
1.0
 50
0.0
 71
     0
 42
0.2
  3
txt
  4

  0
STYLE
  2
ROMAND
 70
    64
 40
0.5
 41
1.0
 50
0.0
 71
     0
 42
0.5
  3
romand
  4

  0
ENDTAB
  0
TABLE
  2
VIEW
 70
     0
  0
ENDTAB
  0
TABLE
  2
UCS
 70
     0
  0
ENDTAB
  0
TABLE
  2
APPID
 70
     1
  0
APPID
  2
ACAD
 70
    64
  0
ENDTAB
  0
TABLE
  2
DIMSTYLE
 70
     0
  0
ENDTAB
  0
ENDSEC
  0
SECTION
  2
BLOCKS
  0
BLOCK
  8
0
  2
100HST
 70
    64
 10
0.0
 20
0.0
 30
0.0
  3
100HST
  0
CIRCLE
  8
0
 10
0.0
 20
0.0
 30
0.0
 40
8.0
  0
CIRCLE
  8
0
 10
0.0
 20
0.0
 30
0.0
 40
7.0
  0
LINE
  8
0
 10
4.0
 20
-2.3094
 30
0.0
 11
4.0
 21
2.3094
 31
0.0
  0
LINE
  8
0
 10
4.0
 20
2.3094
 30
0.0
 11
0.0
 21
4.6188
 31
0.0
  0
LINE
  8
0
 10
0.0
 20
4.6188
 30
0.0
 11
-4.0
 21
2.3094
 31
0.0
  0
LINE
  8
0
 10
-4.0
 20
2.3094
 30
0.0
 11
-4.0
 21
-2.3094
 31
0.0
  0
LINE
  8
0
 10
-4.0
 20
-2.3094
 30
0.0
 11
0.0
 21
-4.6188
 31
0.0
  0
LINE
  8
0
 10
0.0
 20
-4.6188
 30
0.0
 11
4.0
 21
-2.3094
 31
0.0
  0
ENDBLK
  8
0
  0
BLOCK
  8
0
  2
CVRSCR
 70
    64
 10
0.0
 20
0.0
 30
0.0
  3
CVRSCR
  0
POLYLINE
  8
0
 66
     1
 10
0.0
 20
0.0
 30
0.0
 70
     1
  0
VERTEX
  8
0
 10
-0.219375
 20
0.0
 30
0.0
  0
VERTEX
  8
0
 10
-0.109687
 20
0.189984
 30
0.0
  0
VERTEX
  8
0
 10
0.109687
 20
0.189984
 30
0.0
  0
VERTEX
  8
0
 10
0.219375
 20
0.0
 30
0.0
  0
VERTEX
  8
0
 10
0.109687
 20
-0.189984
 30
0.0
  0
VERTEX
  8
0
 10
-0.109687
 20
-0.189984
 30
0.0
  0
SEQEND
  8
0
  0
CIRCLE
  8
0
 10
0.0
 20
0.0
 30
0.0
 40
0.186787
  0
CIRCLE
  8
OBJ
 10
0.0
 20
0.0
 30
0.0
 40
0.16065
  0
ARC
  8
0
 10
0.0
 20
0.0
 30
0.0
 40
0.193285
 50
79.395522
 51
100.604478
  0
LINE
  8
OBJ
 10
0.1071
 20
0.0357
 30
0.0
 11
0.0357
 21
0.0357
 31
0.0
  0
LINE
  8
OBJ
 10
0.1071
 20
-0.0357
 30
0.0
 11
0.0357
 21
-0.0357
 31
0.0
  0
LINE
  8
OBJ
 10
0.1071
 20
-0.0357
 30
0.0
 11
0.1071
 21
0.0357
 31
0.0
  0
LINE
  8
OBJ
 10
0.0357
 20
0.0357
 30
0.0
 11
0.0357
 21
0.1071
 31
0.0
  0
LINE
  8
OBJ
 10
-0.0357
 20
0.0357
 30
0.0
 11
-0.0357
 21
0.1071
 31
0.0
  0
LINE
  8
0
 10
0.0357
 20
-0.0357
 30
0.0
 11
-0.0357
 21
0.0357
 31
0.0
  0
LINE
  8
0
 10
0.0357
 20
0.0357
 30
0.0
 11
-0.0357
 21
-0.0357
 31
0.0
  0
LINE
  8
OBJ
 10
-0.0357
 20
0.0357
 30
0.0
 11
-0.1071
 21
0.0357
 31
0.0
  0
LINE
  8
OBJ
 10
-0.1071
 20
0.0357
 30
0.0
 11
-0.1071
 21
-0.0357
 31
0.0
  0
LINE
  8
OBJ
 10
-0.0357
 20
-0.0357
 30
0.0
 11
-0.1071
 21
-0.0357
 31
0.0
  0
LINE
  8
OBJ
 10
-0.0357
 20
-0.1071
 30
0.0
 11
-0.0357
 21
-0.0357
 31
0.0
  0
LINE
  8
OBJ
 10
-0.0357
 20
-0.1071
 30
0.0
 11
0.0357
 21
-0.1071
 31
0.0
  0
LINE
  8
OBJ
 10
0.0357
 20
-0.1071
 30
0.0
 11
0.0357
 21
-0.0357
 31
0.0
  0
LINE
  8
OBJ
 10
0.0357
 20
0.1071
 30
0.0
 11
-0.0357
 21
0.1071
 31
0.0
  0
ARC
  8
0
 10
0.0
 20
0.0
 30
0.0
 40
0.193285
 50
139.395522
 51
160.604478
  0
ARC
  8
0
 10
0.0
 20
0.0
 30
0.0
 40
0.193285
 50
199.395522
 51
220.604478
  0
ARC
  8
0
 10
0.0
 20
0.0
 30
0.0
 40
0.193285
 50
259.395522
 51
280.604478
  0
ARC
  8
0
 10
0.0
 20
0.0
 30
0.0
 40
0.193285
 50
319.395522
 51
340.604478
  0
ARC
  8
0
 10
0.0
 20
0.0
 30
0.0
 40
0.193285
 50
19.395522
 51
40.604478
  0
ENDBLK
  8
0
  0
BLOCK
  8
0
  2
RAIL
 70
    64
 10
0.0
 20
0.0
 30
0.0
  3
RAIL
  0
LINE
  8
0
 10
-7.663995
 20
0.69
 30
0.0
 11
-5.517
 21
0.69
 31
0.0
  0
LINE
  8
OBJ
 10
-5.337
 20
0.91
 30
0.0
 11
-7.837
 21
0.91
 31
0.0
  0
LINE
  8
OBJ
 10
-5.337
 20
0.47
 30
0.0
 11
-7.837
 21
0.47
 31
0.0
  0
LINE
  8
OBJ
 10
-7.912
 20
1.2
 30
0.0
 11
0.038
 21
1.2
 31
0.0
  0
LINE
  8
OBJ
 10
0.788
 20
0.0
 30
0.0
 11
-8.662
 21
0.0
 31
0.0
  0
LINE
  8
OBJ
  6
HIDDEN2
 10
0.788
 20
0.12
 30
0.0
 11
-8.662
 21
0.12
 31
0.0
  0
ARC
  8
OBJ
 10
-7.912
 20
0.45
 30
0.0
 40
0.75
 50
90.0
 51
180.0
  0
LINE
  8
OBJ
 10
-8.662
 20
0.0
 30
0.0
 11
-8.662
 21
0.45
 31
0.0
  0
LINE
  8
OBJ
  6
CENTER2
 10
-8.084937
 20
0.0
 30
0.0
 11
-8.084937
 21
0.12
 31
0.0
  0
LINE
  8
OBJ
  6
CENTER2
 10
-7.663062
 20
0.0
 30
0.0
 11
-7.663062
 21
0.12
 31
0.0
  0
LINE
  8
OBJ
  6
CENTER2
 10
-7.874
 20
-0.125
 30
0.0
 11
-7.874
 21
0.245
 31
0.0
  0
LINE
  8
OBJ
  6
CENTER2
 10
-6.398
 20
-0.125
 30
0.0
 11
-6.398
 21
0.245
 31
0.0
  0
LINE
  8
OBJ
  6
CENTER2
 10
-6.608937
 20
0.0
 30
0.0
 11
-6.608937
 21
0.12
 31
0.0
  0
LINE
  8
OBJ
 10
-7.837
 20
0.6
 30
0.0
 11
-7.837
 21
0.78
 31
0.0
  0
LINE
  8
OBJ
 10
-7.837
 20
0.863005
 30
0.0
 11
-7.837
 21
0.993005
 31
0.0
  0
LINE
  8
OBJ
 10
-7.747
 20
0.69
 30
0.0
 11
-7.927
 21
0.69
 31
0.0
  0
LINE
  8
OBJ
 10
-8.017
 20
0.69
 30
0.0
 11
-8.147
 21
0.69
 31
0.0
  0
LINE
  8
OBJ
 10
-7.837
 20
0.51
 30
0.0
 11
-7.837
 21
0.38
 31
0.0
  0
ARC
  8
OBJ
 10
-7.837
 20
0.69
 30
0.0
 40
0.22
 50
90.0
 51
270.0
  0
ARC
  8
OBJ
 10
0.038
 20
0.45
 30
0.0
 40
0.75
 50
0.0
 51
90.0
  0
LINE
  8
OBJ
 10
-2.627
 20
0.69
 30
0.0
 11
-2.447
 21
0.69
 31
0.0
  0
LINE
  8
OBJ
 10
-2.537
 20
0.91
 30
0.0
 11
-0.037
 21
0.91
 31
0.0
  0
LINE
  8
OBJ
 10
-2.537
 20
0.47
 30
0.0
 11
-0.037
 21
0.47
 31
0.0
  0
LINE
  8
OBJ
  6
CENTER2
 10
-6.187062
 20
0.0
 30
0.0
 11
-6.187062
 21
0.12
 31
0.0
  0
LINE
  8
OBJ
  6
CENTER2
 10
-5.624938
 20
0.0
 30
0.0
 11
-5.624938
 21
0.12
 31
0.0
  0
LINE
  8
OBJ
  6
CENTER2
 10
-5.414
 20
-0.125
 30
0.0
 11
-5.414
 21
0.245
 31
0.0
  0
LINE
  8
OBJ
  6
CENTER2
 10
-4.711062
 20
0.0
 30
0.0
 11
-4.711062
 21
0.12
 31
0.0
  0
LINE
  8
OBJ
  6
CENTER2
 10
-4.922
 20
-0.125
 30
0.0
 11
-4.922
 21
0.245
 31
0.0
  0
ARC
  8
OBJ
 10
-5.337
 20
0.69
 30
0.0
 40
0.22
 50
270.0
 51
90.0
  0
LINE
  8
OBJ
 10
-5.337
 20
0.6
 30
0.0
 11
-5.337
 21
0.78
 31
0.0
  0
LINE
  8
OBJ
 10
-5.337
 20
0.87
 30
0.0
 11
-5.337
 21
1.0
 31
0.0
  0
LINE
  8
OBJ
 10
-5.247
 20
0.69
 30
0.0
 11
-5.427
 21
0.69
 31
0.0
  0
LINE
  8
OBJ
 10
-5.157
 20
0.69
 30
0.0
 11
-5.027
 21
0.69
 31
0.0
  0
LINE
  8
OBJ
 10
-5.337
 20
0.51
 30
0.0
 11
-5.337
 21
0.38
 31
0.0
  0
ARC
  8
OBJ
 10
-2.537
 20
0.69
 30
0.0
 40
0.22
 50
90.0
 51
270.0
  0
LINE
  8
OBJ
 10
-2.537
 20
0.6
 30
0.0
 11
-2.537
 21
0.78
 31
0.0
  0
LINE
  8
OBJ
 10
-2.537
 20
0.87
 30
0.0
 11
-2.537
 21
1.0
 31
0.0
  0
LINE
  8
OBJ
 10
-2.717
 20
0.69
 30
0.0
 11
-2.847
 21
0.69
 31
0.0
  0
LINE
  8
OBJ
 10
-2.537
 20
0.51
 30
0.0
 11
-2.537
 21
0.38
 31
0.0
  0
LINE
  8
OBJ
  6
CENTER2
 10
-2.952
 20
-0.125
 30
0.0
 11
-2.952
 21
0.245
 31
0.0
  0
LINE
  8
OBJ
  6
CENTER2
 10
-3.162937
 20
0.0
 30
0.0
 11
-3.162937
 21
0.12
 31
0.0
  0
LINE
  8
OBJ
  6
CENTER2
 10
-3.937
 20
-0.125
 30
0.0
 11
-3.937
 21
0.245
 31
0.0
  0
LINE
  8
OBJ
  6
CENTER2
 10
-4.147937
 20
0.0
 30
0.0
 11
-4.147937
 21
0.12
 31
0.0
  0
LINE
  8
OBJ
  6
CENTER2
 10
-3.726062
 20
0.0
 30
0.0
 11
-3.726062
 21
0.12
 31
0.0
  0
LINE
  8
0
 10
-0.210005
 20
0.69
 30
0.0
 11
-2.357
 21
0.69
 31
0.0
  0
LINE
  8
OBJ
  6
CENTER2
 10
-2.46
 20
-0.125
 30
0.0
 11
-2.46
 21
0.245
 31
0.0
  0
LINE
  8
OBJ
  6
CENTER2
 10
-2.249062
 20
0.0
 30
0.0
 11
-2.249062
 21
0.12
 31
0.0
  0
LINE
  8
OBJ
  6
CENTER2
 10
-1.265063
 20
0.0
 30
0.0
 11
-1.265063
 21
0.12
 31
0.0
  0
LINE
  8
OBJ
  6
CENTER2
 10
-1.686938
 20
0.0
 30
0.0
 11
-1.686938
 21
0.12
 31
0.0
  0
LINE
  8
OBJ
  6
CENTER2
 10
-1.476
 20
-0.125
 30
0.0
 11
-1.476
 21
0.245
 31
0.0
  0
ARC
  8
OBJ
 10
-0.037
 20
0.69
 30
0.0
 40
0.22
 50
270.0
 51
90.0
  0
LINE
  8
OBJ
 10
-0.037
 20
0.51
 30
0.0
 11
-0.037
 21
0.38
 31
0.0
  0
LINE
  8
OBJ
 10
0.143
 20
0.69
 30
0.0
 11
0.273
 21
0.69
 31
0.0
  0
LINE
  8
OBJ
 10
-0.127
 20
0.69
 30
0.0
 11
0.053
 21
0.69
 31
0.0
  0
LINE
  8
OBJ
 10
-0.037
 20
0.863005
 30
0.0
 11
-0.037
 21
0.993005
 31
0.0
  0
LINE
  8
OBJ
 10
-0.037
 20
0.6
 30
0.0
 11
-0.037
 21
0.78
 31
0.0
  0
LINE
  8
OBJ
  6
CENTER2
 10
0.0
 20
-0.125
 30
0.0
 11
0.0
 21
0.245
 31
0.0
  0
LINE
  8
OBJ
  6
CENTER2
 10
-0.210938
 20
0.0
 30
0.0
 11
-0.210938
 21
0.12
 31
0.0
  0
LINE
  8
OBJ
  6
CENTER2
 10
0.210938
 20
0.0
 30
0.0
 11
0.210938
 21
0.12
 31
0.0
  0
LINE
  8
OBJ
 10
0.788
 20
0.45
 30
0.0
 11
0.788
 21
0.0
 31
0.0
  0
ENDBLK
  8
0
  0
BLOCK
  8
0
  2
MRAIL
 70
    64
 10
0.0
 20
0.0
 30
0.0
  3
MRAIL
  0
LINE
  8
0
 10
-0.210005
 20
-0.69
 30
0.0
 11
-2.357
 21
-0.69
 31
0.0
  0
LINE
  8
OBJ
 10
-2.537
 20
-0.91
 30
0.0
 11
-0.037
 21
-0.91
 31
0.0
  0
LINE
  8
OBJ
 10
-2.537
 20
-0.47
 30
0.0
 11
-0.037
 21
-0.47
 31
0.0
  0
LINE
  8
OBJ
 10
0.038
 20
-1.2
 30
0.0
 11
-7.912
 21
-1.2
 31
0.0
  0
LINE
  8
OBJ
 10
-8.662
 20
0.0
 30
0.0
 11
0.788
 21
0.0
 31
0.0
  0
LINE
  8
OBJ
  6
HIDDEN2
 10
-8.662
 20
-0.12
 30
0.0
 11
0.788
 21
-0.12
 31
0.0
  0
LINE
  8
OBJ
 10
-5.337
 20
-0.91
 30
0.0
 11
-7.837
 21
-0.91
 31
0.0
  0
LINE
  8
OBJ
 10
-5.337
 20
-0.47
 30
0.0
 11
-7.837
 21
-0.47
 31
0.0
  0
LINE
  8
0
 10
-7.663995
 20
-0.69
 30
0.0
 11
-5.517
 21
-0.69
 31
0.0
  0
ARC
  8
OBJ
 10
-7.912
 20
-0.45
 30
0.0
 40
0.75
 50
180.0
 51
270.0
  0
LINE
  8
OBJ
 10
-8.017
 20
-0.69
 30
0.0
 11
-8.147
 21
-0.69
 31
0.0
  0
LINE
  8
OBJ
  6
CENTER2
 10
-8.084937
 20
0.0
 30
0.0
 11
-8.084937
 21
-0.12
 31
0.0
  0
LINE
  8
OBJ
 10
-8.662
 20
-0.45
 30
0.0
 11
-8.662
 21
0.0
 31
0.0
  0
LINE
  8
OBJ
 10
-7.837
 20
-0.51
 30
0.0
 11
-7.837
 21
-0.38
 31
0.0
  0
LINE
  8
OBJ
 10
-7.837
 20
-0.863005
 30
0.0
 11
-7.837
 21
-0.993005
 31
0.0
  0
LINE
  8
OBJ
 10
-7.837
 20
-0.6
 30
0.0
 11
-7.837
 21
-0.78
 31
0.0
  0
LINE
  8
OBJ
  6
CENTER2
 10
-7.874
 20
0.125
 30
0.0
 11
-7.874
 21
-0.245
 31
0.0
  0
LINE
  8
OBJ
  6
CENTER2
 10
-7.663062
 20
0.0
 30
0.0
 11
-7.663062
 21
-0.12
 31
0.0
  0
ARC
  8
OBJ
 10
-7.837
 20
-0.69
 30
0.0
 40
0.22
 50
90.0
 51
270.0
  0
LINE
  8
OBJ
 10
-7.747
 20
-0.69
 30
0.0
 11
-7.927
 21
-0.69
 31
0.0
  0
LINE
  8
OBJ
  6
CENTER2
 10
-6.608937
 20
0.0
 30
0.0
 11
-6.608937
 21
-0.12
 31
0.0
  0
LINE
  8
OBJ
  6
CENTER2
 10
-6.187062
 20
0.0
 30
0.0
 11
-6.187062
 21
-0.12
 31
0.0
  0
LINE
  8
OBJ
  6
CENTER2
 10
-6.398
 20
0.125
 30
0.0
 11
-6.398
 21
-0.245
 31
0.0
  0
LINE
  8
OBJ
  6
CENTER2
 10
-5.624938
 20
0.0
 30
0.0
 11
-5.624938
 21
-0.12
 31
0.0
  0
LINE
  8
OBJ
 10
-5.247
 20
-0.69
 30
0.0
 11
-5.427
 21
-0.69
 31
0.0
  0
ARC
  8
OBJ
 10
-5.337
 20
-0.69
 30
0.0
 40
0.22
 50
270.0
 51
90.0
  0
LINE
  8
OBJ
 10
-5.337
 20
-0.6
 30
0.0
 11
-5.337
 21
-0.78
 31
0.0
  0
LINE
  8
OBJ
 10
-5.337
 20
-0.87
 30
0.0
 11
-5.337
 21
-1.0
 31
0.0
  0
LINE
  8
OBJ
 10
-5.157
 20
-0.69
 30
0.0
 11
-5.027
 21
-0.69
 31
0.0
  0
LINE
  8
OBJ
 10
-5.337
 20
-0.51
 30
0.0
 11
-5.337
 21
-0.38
 31
0.0
  0
LINE
  8
OBJ
  6
CENTER2
 10
-4.922
 20
0.125
 30
0.0
 11
-4.922
 21
-0.245
 31
0.0
  0
LINE
  8
OBJ
  6
CENTER2
 10
-4.711062
 20
0.0
 30
0.0
 11
-4.711062
 21
-0.12
 31
0.0
  0
LINE
  8
OBJ
  6
CENTER2
 10
-4.147937
 20
0.0
 30
0.0
 11
-4.147937
 21
-0.12
 31
0.0
  0
LINE
  8
OBJ
  6
CENTER2
 10
-5.414
 20
0.125
 30
0.0
 11
-5.414
 21
-0.245
 31
0.0
  0
LINE
  8
OBJ
  6
CENTER2
 10
-3.937
 20
0.125
 30
0.0
 11
-3.937
 21
-0.245
 31
0.0
  0
LINE
  8
OBJ
  6
CENTER2
 10
-3.726062
 20
0.0
 30
0.0
 11
-3.726062
 21
-0.12
 31
0.0
  0
LINE
  8
OBJ
  6
CENTER2
 10
-2.249062
 20
0.0
 30
0.0
 11
-2.249062
 21
-0.12
 31
0.0
  0
LINE
  8
OBJ
  6
CENTER2
 10
-2.46
 20
0.125
 30
0.0
 11
-2.46
 21
-0.245
 31
0.0
  0
LINE
  8
OBJ
  6
CENTER2
 10
-3.162937
 20
0.0
 30
0.0
 11
-3.162937
 21
-0.12
 31
0.0
  0
LINE
  8
OBJ
  6
CENTER2
 10
-2.952
 20
0.125
 30
0.0
 11
-2.952
 21
-0.245
 31
0.0
  0
ARC
  8
OBJ
 10
-2.537
 20
-0.69
 30
0.0
 40
0.22
 50
90.0
 51
270.0
  0
LINE
  8
OBJ
 10
-2.537
 20
-0.6
 30
0.0
 11
-2.537
 21
-0.78
 31
0.0
  0
LINE
  8
OBJ
 10
-2.537
 20
-0.87
 30
0.0
 11
-2.537
 21
-1.0
 31
0.0
  0
LINE
  8
OBJ
 10
-2.627
 20
-0.69
 30
0.0
 11
-2.447
 21
-0.69
 31
0.0
  0
LINE
  8
OBJ
 10
-2.717
 20
-0.69
 30
0.0
 11
-2.847
 21
-0.69
 31
0.0
  0
LINE
  8
OBJ
 10
-2.537
 20
-0.51
 30
0.0
 11
-2.537
 21
-0.38
 31
0.0
  0
ARC
  8
OBJ
 10
0.038
 20
-0.45
 30
0.0
 40
0.75
 50
270.0
 51
0.0
  0
ARC
  8
OBJ
 10
-0.037
 20
-0.69
 30
0.0
 40
0.22
 50
270.0
 51
90.0
  0
LINE
  8
OBJ
  6
CENTER2
 10
-1.476
 20
0.125
 30
0.0
 11
-1.476
 21
-0.245
 31
0.0
  0
LINE
  8
OBJ
  6
CENTER2
 10
-1.265063
 20
0.0
 30
0.0
 11
-1.265063
 21
-0.12
 31
0.0
  0
LINE
  8
OBJ
  6
CENTER2
 10
-1.686938
 20
0.0
 30
0.0
 11
-1.686938
 21
-0.12
 31
0.0
  0
LINE
  8
OBJ
  6
CENTER2
 10
-0.210938
 20
0.0
 30
0.0
 11
-0.210938
 21
-0.12
 31
0.0
  0
LINE
  8
OBJ
  6
CENTER2
 10
0.0
 20
0.125
 30
0.0
 11
0.0
 21
-0.245
 31
0.0
  0
LINE
  8
OBJ
 10
-0.037
 20
-0.6
 30
0.0
 11
-0.037
 21
-0.78
 31
0.0
  0
LINE
  8
OBJ
 10
-0.037
 20
-0.863005
 30
0.0
 11
-0.037
 21
-0.993005
 31
0.0
  0
LINE
  8
OBJ
 10
-0.127
 20
-0.69
 30
0.0
 11
0.053
 21
-0.69
 31
0.0
  0
LINE
  8
OBJ
 10
-0.037
 20
-0.51
 30
0.0
 11
-0.037
 21
-0.38
 31
0.0
  0
LINE
  8
OBJ
 10
0.788
 20
0.0
 30
0.0
 11
0.788
 21
-0.45
 31
0.0
  0
LINE
  8
OBJ
  6
CENTER2
 10
0.210938
 20
0.0
 30
0.0
 11
0.210938
 21
-0.12
 31
0.0
  0
LINE
  8
OBJ
 10
0.143
 20
-0.69
 30
0.0
 11
0.273
 21
-0.69
 31
0.0
  0
ENDBLK
  8
0
  0
BLOCK
  8
0
  2
SRAIL
 70
    64
 10
0.0
 20
0.0
 30
0.0
  3
SRAIL
  0
LINE
  8
0
 10
-8.662
 20
-1.78
 30
0.0
 11
0.788
 21
-1.78
 31
0.0
  0
LINE
  8
OBJ
  6
HIDDEN2
 10
0.788
 20
-1.66
 30
0.0
 11
-8.662
 21
-1.66
 31
0.0
  0
LINE
  8
OBJ
 10
-7.912
 20
0.34
 30
0.0
 11
0.038
 21
0.34
 31
0.0
  0
LINE
  8
0
 10
-8.662
 20
-0.41
 30
0.0
 11
-8.662
 21
-1.78
 31
0.0
  0
LINE
  8
OBJ
 10
-7.837
 20
-1.911732
 30
0.0
 11
-7.837
 21
-2.041732
 31
0.0
  0
LINE
  8
OBJ
 10
-7.837
 20
-1.558727
 30
0.0
 11
-7.837
 21
-1.428727
 31
0.0
  0
LINE
  8
OBJ
 10
-7.837
 20
-1.821732
 30
0.0
 11
-7.837
 21
-1.641732
 31
0.0
  0
LINE
  8
0
 10
-8.057
 20
-1.78
 30
0.0
 11
-8.057
 21
-1.66
 31
0.0
  0
LINE
  8
OBJ
  6
CENTER2
 10
-7.874
 20
-0.185
 30
0.0
 11
-7.874
 21
0.185
 31
0.0
  0
CIRCLE
  8
0
 10
-7.874
 20
0.0
 30
0.0
 40
0.18
  0
ARC
  8
OBJ
 10
-7.912
 20
-0.41
 30
0.0
 40
0.75
 50
90.0
 51
180.0
  0
LINE
  8
OBJ
 10
-5.337
 20
-1.551732
 30
0.0
 11
-5.337
 21
-1.421732
 31
0.0
  0
LINE
  8
OBJ
 10
-5.337
 20
-1.911732
 30
0.0
 11
-5.337
 21
-2.041732
 31
0.0
  0
LINE
  8
OBJ
 10
-5.337
 20
-1.821732
 30
0.0
 11
-5.337
 21
-1.641732
 31
0.0
  0
LINE
  8
0
 10
-5.117
 20
-1.78
 30
0.0
 11
-5.117
 21
-1.66
 31
0.0
  0
LINE
  8
OBJ
  6
CENTER2
 10
-6.398
 20
-0.185
 30
0.0
 11
-6.398
 21
0.185
 31
0.0
  0
CIRCLE
  8
0
 10
-6.398
 20
0.0
 30
0.0
 40
0.18
  0
LINE
  8
OBJ
  6
CENTER2
 10
-3.937
 20
-0.185
 30
0.0
 11
-3.937
 21
0.185
 31
0.0
  0
CIRCLE
  8
0
 10
-3.937
 20
0.0
 30
0.0
 40
0.18
  0
ARC
  8
0
 10
-4.922
 20
0.0
 30
0.0
 40
0.18
 50
270.0
 51
90.0
  0
LINE
  8
OBJ
  6
CENTER2
 10
-4.922
 20
-0.185
 30
0.0
 11
-4.922
 21
0.185
 31
0.0
  0
LINE
  8
0
 10
-5.414
 20
-0.18
 30
0.0
 11
-4.922
 21
-0.18
 31
0.0
  0
LINE
  8
OBJ
  6
CENTER2
 10
-5.414
 20
-0.185
 30
0.0
 11
-5.414
 21
0.185
 31
0.0
  0
LINE
  8
0
 10
-5.414
 20
0.18
 30
0.0
 11
-4.922
 21
0.18
 31
0.0
  0
ARC
  8
0
 10
-5.414
 20
0.0
 30
0.0
 40
0.18
 50
90.0
 51
270.0
  0
CIRCLE
  8
0
 10
0.0
 20
0.0
 30
0.0
 40
0.18
  0
ARC
  8
OBJ
 10
0.038
 20
-0.41
 30
0.0
 40
0.75
 50
0.0
 51
90.0
  0
LINE
  8
OBJ
 10
-2.537
 20
-1.551732
 30
0.0
 11
-2.537
 21
-1.421732
 31
0.0
  0
LINE
  8
OBJ
 10
-2.537
 20
-1.911732
 30
0.0
 11
-2.537
 21
-2.041732
 31
0.0
  0
LINE
  8
OBJ
 10
-2.537
 20
-1.821732
 30
0.0
 11
-2.537
 21
-1.641732
 31
0.0
  0
LINE
  8
0
 10
-2.757
 20
-1.78
 30
0.0
 11
-2.757
 21
-1.66
 31
0.0
  0
LINE
  8
OBJ
 10
-0.037
 20
-1.911732
 30
0.0
 11
-0.037
 21
-2.041732
 31
0.0
  0
LINE
  8
OBJ
 10
-0.037
 20
-1.821732
 30
0.0
 11
-0.037
 21
-1.641732
 31
0.0
  0
LINE
  8
OBJ
 10
-0.037
 20
-1.558727
 30
0.0
 11
-0.037
 21
-1.428727
 31
0.0
  0
LINE
  8
0
 10
-2.46
 20
-0.18
 30
0.0
 11
-2.952
 21
-0.18
 31
0.0
  0
ARC
  8
0
 10
-2.46
 20
0.0
 30
0.0
 40
0.18
 50
270.0
 51
90.0
  0
LINE
  8
OBJ
  6
CENTER2
 10
-2.46
 20
-0.185
 30
0.0
 11
-2.46
 21
0.185
 31
0.0
  0
LINE
  8
0
 10
-2.46
 20
0.18
 30
0.0
 11
-2.952
 21
0.18
 31
0.0
  0
LINE
  8
OBJ
  6
CENTER2
 10
-2.952
 20
-0.185
 30
0.0
 11
-2.952
 21
0.185
 31
0.0
  0
ARC
  8
0
 10
-2.952
 20
0.0
 30
0.0
 40
0.18
 50
90.0
 51
270.0
  0
LINE
  8
OBJ
  6
CENTER2
 10
0.0
 20
-0.185
 30
0.0
 11
0.0
 21
0.185
 31
0.0
  0
LINE
  8
OBJ
  6
CENTER2
 10
-1.476
 20
-0.185
 30
0.0
 11
-1.476
 21
0.185
 31
0.0
  0
CIRCLE
  8
0
 10
-1.476
 20
0.0
 30
0.0
 40
0.18
  0
LINE
  8
0
 10
0.788
 20
-0.41
 30
0.0
 11
0.788
 21
-1.78
 31
0.0
  0
LINE
  8
0
 10
0.183
 20
-1.78
 30
0.0
 11
0.183
 21
-1.66
 31
0.0
  0
ENDBLK
  8
0
  0
BLOCK
  8
0
  2
FRAIL
 70
    64
 10
0.0
 20
0.0
 30
0.0
  3
FRAIL
  0
LINE
  8
OBJ
 10
-3.86
 20
0.34
 30
0.0
 11
-3.86
 21
-1.5725
 31
0.0
  0
LINE
  8
OBJ
 10
-3.74
 20
-1.5725
 30
0.0
 11
-3.74
 21
0.34
 31
0.0
  0
LINE
  8
OBJ
 10
-4.43
 20
-1.509701
 30
0.0
 11
-4.43
 21
-1.9303
 31
0.0
  0
ARC
  8
OBJ
 10
-3.96
 20
-1.56
 30
0.0
 40
0.1
 50
270.0
 51
0.0
  0
ARC
  8
OBJ
 10
-3.96
 20
-1.56
 30
0.0
 40
0.22
 50
270.0
 51
0.0
  0
POINT
  8
DEFPOINTS
  6
BYBLOCK
 62
     0
 10
-4.51
 20
-1.66
 30
0.0
  0
LINE
  8
OBJ
 10
-4.034197
 20
-1.78
 30
0.0
 11
-3.96
 21
-1.78
 31
0.0
  0
LINE
  8
OBJ
 10
-4.94
 20
-1.78
 30
0.0
 11
-4.94
 21
-1.66
 31
0.0
  0
LINE
  8
OBJ
 10
-4.94
 20
-1.78
 30
0.0
 11
-3.96
 21
-1.78
 31
0.0
  0
LINE
  8
OBJ
 10
-3.96
 20
-1.66
 30
0.0
 11
-4.94
 21
-1.66
 31
0.0
  0
LINE
  8
OBJ
 10
-4.023369
 20
0.0
 30
0.0
 11
-3.54462
 21
0.0
 31
0.0
  0
LINE
  8
OBJ
 10
-3.86
 20
0.34
 30
0.0
 11
-3.74
 21
0.34
 31
0.0
  0
POINT
  8
DEFPOINTS
  6
BYBLOCK
 62
     0
 10
-3.86
 20
-1.56
 30
0.0
  0
POINT
  8
DEFPOINTS
  6
BYBLOCK
 62
     0
 10
-3.86
 20
-1.46
 30
0.0
  0
LINE
  8
OBJ
 10
1.2
 20
-1.78
 30
0.0
 11
0.22
 21
-1.78
 31
0.0
  0
LINE
  8
OBJ
 10
0.22
 20
-1.66
 30
0.0
 11
1.2
 21
-1.66
 31
0.0
  0
LINE
  8
OBJ
 10
0.12
 20
0.34
 30
0.0
 11
0.12
 21
-1.5725
 31
0.0
  0
LINE
  8
OBJ
 10
0.0
 20
-1.5725
 30
0.0
 11
0.0
 21
0.34
 31
0.0
  0
ARC
  8
OBJ
 10
0.22
 20
-1.56
 30
0.0
 40
0.1
 50
180.0
 51
270.0
  0
ARC
  8
OBJ
 10
0.22
 20
-1.56
 30
0.0
 40
0.22
 50
180.0
 51
270.0
  0
LINE
  8
OBJ
 10
0.283369
 20
0.0
 30
0.0
 11
-0.19538
 21
0.0
 31
0.0
  0
LINE
  8
OBJ
 10
0.0
 20
0.34
 30
0.0
 11
0.12
 21
0.34
 31
0.0
  0
LINE
  8
OBJ
 10
0.69
 20
-1.509701
 30
0.0
 11
0.69
 21
-1.9303
 31
0.0
  0
LINE
  8
OBJ
 10
1.2
 20
-1.78
 30
0.0
 11
1.2
 21
-1.66
 31
0.0
  0
ENDBLK
  8
0
  0
ENDSEC
  0
SECTION
  2
ENTITIES
  0
LINE
  8
0
 10
2.131693
 20
6.69055
 30
0.0
 11
-0.033307
 21
6.69055
 31
0.0
  0
LINE
  8
0
 10
0.582293
 20
6.86155
 30
0.0
 11
-0.033307
 21
6.86155
 31
0.0
  0
LINE
  8
0
 10
0.459102
 20
7.25305
 30
0.0
 11
-0.033307
 21
7.25305
 31
0.0
  0
ARC
  8
0
 10
0.371693
 20
7.072915
 30
0.0
 40
0.180135
 50
41.458173
 51
138.541827
  0
ARC
  8
0
 10
0.300193
 20
4.895078
 30
0.0
 40
0.375
 50
41.409622
 51
90.0
  0
ARC
  8
0
 10
0.300193
 20
5.797153
 30
0.0
 40
0.375
 50
284.334098
 51
318.590378
  0
ARC
  8
0
 10
-0.033307
 20
3.51105
 30
0.0
 40
0.738862
 50
270.0
 51
325.581237
  0
ARC
  8
0
 10
-0.033307
 20
3.51105
 30
0.0
 40
0.808
 50
270.0
 51
317.047722
  0
LINE
  8
0
 10
0.592622
 20
2.26705
 30
0.0
 11
-0.033307
 21
2.26705
 31
0.0
  0
ARC
  8
0
 10
-0.033307
 20
3.51105
 30
0.0
 40
0.6156
 50
270.0
 51
90.0
  0
POLYLINE
  8
0
 66
     1
 10
0.0
 20
0.0
 30
0.0
  0
VERTEX
  8
0
 10
-0.033307
 20
4.05105
 30
0.0
  0
VERTEX
  8
0
 10
0.434346
 20
3.78105
 30
0.0
  0
VERTEX
  8
0
 10
0.434346
 20
3.24105
 30
0.0
  0
VERTEX
  8
0
 10
-0.033307
 20
2.97105
 30
0.0
  0
SEQEND
  8
0
  0
ARC
  8
0
 10
-0.033307
 20
3.51105
 30
0.0
 40
0.458452
 50
270.0
 51
90.0
  0
INSERT
  8
0
  2
FRAIL
 10
1.836693
 20
2.15955
 30
0.0
  0
LINE
  8
0
 10
-3.580307
 20
5.081526
 30
0.0
 11
-3.580307
 21
4.117526
 31
0.0
  0
LINE
  8
0
 10
-3.550307
 20
4.087526
 30
0.0
 11
-3.550307
 21
5.111526
 31
0.0
  0
ARC
  8
0
 10
-2.058307
 20
4.266909
 30
0.0
 40
0.375
 50
180.0
 51
208.518159
  0
LINE
  8
0
 10
-2.866981
 20
4.172223
 30
0.0
 11
-2.366981
 21
4.04955
 31
0.0
  0
LINE
  8
0
 10
-3.417307
 20
5.424526
 30
0.0
 11
-3.417307
 21
3.774526
 31
0.0
  0
LINE
  8
0
 10
-2.258306
 20
3.51105
 30
0.0
 11
-2.25827
 21
5.049182
 31
0.0
  0
LINE
  8
0
 10
-2.18917
 20
3.51105
 30
0.0
 11
-2.18917
 21
4.895078
 31
0.0
  0
LINE
  8
0
 10
-3.053307
 20
4.269671
 30
0.0
 11
-3.053307
 21
2.864526
 31
0.0
  0
LINE
  8
0
 10
-3.289307
 20
2.924526
 30
0.0
 11
-3.289307
 21
6.274526
 31
0.0
  0
ARC
  8
0
 10
-3.357307
 20
3.774526
 30
0.0
 40
0.06
 50
180.0
 51
270.0
  0
LINE
  8
OBJ
  6
CONTINUOUS
 10
-3.337115
 20
3.691889
 30
0.0
 11
-3.496632
 21
3.691889
 31
0.0
  0
LINE
  8
OBJ
  6
CONTINUOUS
 10
-3.337115
 20
3.364404
 30
0.0
 11
-3.496632
 21
3.364404
 31
0.0
  0
LINE
  8
OBJ
  6
CONTINUOUS
 10
-3.337115
 20
3.584321
 30
0.0
 11
-3.496632
 21
3.584321
 31
0.0
  0
LINE
  8
OBJ
  6
CONTINUOUS
 10
-3.337115
 20
3.256836
 30
0.0
 11
-3.496632
 21
3.256836
 31
0.0
  0
LINE
  8
0
 10
-3.417307
 20
4.087526
 30
0.0
 11
-3.550307
 21
4.087526
 31
0.0
  0
LINE
  8
0
 10
-3.580307
 20
4.117526
 30
0.0
 11
-3.550307
 21
4.087526
 31
0.0
  0
LINE
  8
OBJ
 10
-3.534323
 20
3.666974
 30
0.0
 11
-3.511104
 21
3.684128
 31
0.0
  0
LINE
  8
OBJ
 10
-3.534323
 20
3.281751
 30
0.0
 11
-3.534323
 21
3.364404
 31
0.0
  0
LINE
  8
OBJ
 10
-3.534323
 20
3.364404
 30
0.0
 11
-3.534323
 21
3.584321
 31
0.0
  0
ARC
  8
OBJ
 10
-3.355086
 20
3.474363
 30
0.0
 40
0.179237
 50
142.158498
 51
217.841502
  0
ARC
  8
OBJ
 10
-3.477104
 20
3.31062
 30
0.0
 40
0.057219
 50
109.954678
 51
250.045322
  0
LINE
  8
OBJ
 10
-3.534323
 20
3.281751
 30
0.0
 11
-3.511104
 21
3.264597
 31
0.0
  0
LINE
  8
OBJ
 10
-3.534323
 20
3.584321
 30
0.0
 11
-3.534323
 21
3.666974
 31
0.0
  0
ARC
  8
OBJ
 10
-3.477104
 20
3.638105
 30
0.0
 40
0.057219
 50
109.954678
 51
250.045322
  0
CIRCLE
  8
0
 10
-1.450307
 20
3.51105
 30
0.0
 40
0.143629
  0
ARC
  8
0
 10
-1.450307
 20
3.51105
 30
0.0
 40
0.738862
 50
180.0
 51
325.581237
  0
CIRCLE
  8
0
 10
-1.450307
 20
3.51105
 30
0.0
 40
0.6156
  0
ARC
  8
0
 10
-1.450307
 20
3.51105
 30
0.0
 40
0.808
 50
180.0
 51
317.047722
  0
CIRCLE
  8
0
 10
-1.450307
 20
3.51105
 30
0.0
 40
0.458452
  0
POLYLINE
  8
0
 66
     1
 10
0.0
 20
0.0
 30
0.0
 70
     1
  0
VERTEX
  8
0
 10
-1.450307
 20
4.05105
 30
0.0
  0
VERTEX
  8
0
 10
-1.917961
 20
3.78105
 30
0.0
  0
VERTEX
  8
0
 10
-1.917961
 20
3.24105
 30
0.0
  0
VERTEX
  8
0
 10
-1.450307
 20
2.97105
 30
0.0
  0
VERTEX
  8
0
 10
-0.982654
 20
3.24105
 30
0.0
  0
VERTEX
  8
0
 10
-0.982654
 20
3.78105
 30
0.0
  0
SEQEND
  8
0
  0
CIRCLE
  8
0
 10
-1.450307
 20
3.51105
 30
0.0
 40
0.205184
  0
CIRCLE
  8
0
 10
-1.450307
 20
3.51105
 30
0.0
 40
0.297
  0
LINE
  8
0
 10
-1.269301
 20
2.65205
 30
0.0
 11
-1.631314
 21
2.65205
 31
0.0
  0
LINE
  8
0
 10
-1.903307
 20
1.85205
 30
0.0
 11
-1.214307
 21
1.85205
 31
0.0
  0
LINE
  8
0
 10
-2.258307
 20
3.84955
 30
0.0
 11
-2.388618
 21
4.08937
 31
0.0
  0
LINE
  8
OBJ
  6
CENTER2
 10
-3.289307
 20
3.674559
 30
0.0
 11
-3.337115
 21
3.674559
 31
0.0
  0
LINE
  8
0
 10
-3.357307
 20
3.714526
 30
0.0
 11
-3.337307
 21
3.714526
 31
0.0
  0
ARC
  8
0
 10
-3.337307
 20
3.666526
 30
0.0
 40
0.048
 50
9.633795
 51
90.0
  0
LINE
  8
0
 10
-2.163307
 20
3.130925
 30
0.0
 11
-2.163307
 21
2.95105
 31
0.0
  0
LINE
  8
0
 10
-2.063307
 20
2.89105
 30
0.0
 11
-2.063307
 21
2.51205
 31
0.0
  0
LINE
  8
0
 10
-2.103307
 20
2.89105
 30
0.0
 11
-1.968443
 21
2.89105
 31
0.0
  0
ARC
  8
0
 10
-2.103307
 20
2.95105
 30
0.0
 40
0.06
 50
180.0
 51
270.0
  0
ARC
  8
0
 10
-1.750307
 20
2.696541
 30
0.0
 40
0.06
 50
7.425504
 51
69.780223
  0
ARC
  8
0
 10
-1.631314
 20
2.71205
 30
0.0
 40
0.06
 50
187.425504
 51
270.0
  0
LINE
  8
0
 62
     1
 10
-1.770418
 20
3.51105
 30
0.0
 11
-2.716084
 21
3.51105
 31
0.0
  0
LINE
  8
0
 10
-2.494969
 20
2.864526
 30
0.0
 11
-3.053307
 21
2.864526
 31
0.0
  0
ARC
  8
0
 10
-2.494969
 20
2.803814
 30
0.0
 40
0.060712
 50
17.347854
 51
90.0
  0
LINE
  8
OBJ
 10
-3.289307
 20
3.42597
 30
0.0
 11
-3.337115
 21
3.378162
 31
0.0
  0
LINE
  8
OBJ
  6
CENTER2
 10
-3.289307
 20
3.274167
 30
0.0
 11
-3.337115
 21
3.274167
 31
0.0
  0
LINE
  8
0
 10
-3.229307
 20
2.864526
 30
0.0
 11
-3.053307
 21
2.864526
 31
0.0
  0
ARC
  8
0
 10
-3.229307
 20
2.924526
 30
0.0
 40
0.06
 50
180.0
 51
270.0
  0
ARC
  8
0
 10
-0.549954
 20
16.308925
 30
0.0
 40
13.853734
 50
262.81187
 51
263.728611
  0
ARC
  8
0
 10
-2.257307
 20
2.837828
 30
0.0
 40
0.275
 50
184.579914
 51
264.547201
  0
ARC
  8
0
 10
19.669466
 20
4.703993
 30
0.0
 40
22.28104
 50
184.735588
 51
184.861146
  0
LINE
  8
0
 10
-2.063307
 20
2.51205
 30
0.0
 11
-1.927936
 21
2.51205
 31
0.0
  0
LINE
  8
OBJ
 10
-1.903307
 20
2.51205
 30
0.0
 11
-2.023307
 21
2.51205
 31
0.0
  0
POINT
  8
DEFPOINTS
  6
BYBLOCK
 62
     0
 10
-2.023307
 20
2.51205
 30
0.0
  0
POINT
  8
DEFPOINTS
  6
BYBLOCK
 62
     0
 10
-1.903307
 20
2.51205
 30
0.0
  0
LINE
  8
0
 10
-2.063307
 20
2.51205
 30
0.0
 11
-1.903307
 21
2.51205
 31
0.0
  0
LINE
  8
OBJ
 10
-2.197505
 20
2.15955
 30
0.0
 11
-1.696347
 21
2.15955
 31
0.0
  0
LINE
  8
0
 10
-1.903307
 20
2.51205
 30
0.0
 11
-1.903307
 21
1.85205
 31
0.0
  0
LINE
  8
OBJ
 10
-3.337115
 20
3.256836
 30
0.0
 11
-3.337115
 21
3.691889
 31
0.0
  0
ARC
  8
0
 10
-0.033307
 20
3.51105
 30
0.0
 40
0.738862
 50
214.418763
 51
270.0
  0
LINE
  8
0
 10
-0.659237
 20
2.26705
 30
0.0
 11
-0.033307
 21
2.26705
 31
0.0
  0
ARC
  8
0
 10
-0.741807
 20
3.025589
 30
0.0
 40
0.12
 50
34.418763
 51
145.581237
  0
LINE
  8
0
 10
-1.214307
 20
2.688056
 30
0.0
 11
-1.214307
 21
1.85205
 31
0.0
  0
ARC
  8
0
 10
-0.033307
 20
3.51105
 30
0.0
 40
0.808
 50
222.952278
 51
270.0
  0
ARC
  8
0
 10
-1.150307
 20
2.696541
 30
0.0
 40
0.06
 50
110.219777
 51
172.574496
  0
ARC
  8
0
 10
-1.269301
 20
2.71205
 30
0.0
 40
0.06
 50
270.0
 51
352.574496
  0
ARC
  8
0
 10
-0.741807
 20
2.851465
 30
0.0
 40
0.16
 50
42.952278
 51
137.047722
  0
ARC
  8
0
 10
-0.659237
 20
2.16705
 30
0.0
 40
0.1
 50
90.0
 51
120.0
  0
LINE
  8
0
 10
-0.243307
 20
2.65952
 30
0.0
 11
-0.243307
 21
2.26705
 31
0.0
  0
LINE
  8
0
 10
-0.214314
 20
2.65205
 30
0.0
 11
-0.033307
 21
2.65205
 31
0.0
  0
ARC
  8
0
 10
-0.333307
 20
2.696541
 30
0.0
 40
0.06
 50
7.425504
 51
69.780223
  0
ARC
  8
0
 10
-0.214314
 20
2.71205
 30
0.0
 40
0.06
 50
187.425504
 51
270.0
  0
LINE
  8
0
 10
0.147699
 20
2.65205
 30
0.0
 11
-0.033307
 21
2.65205
 31
0.0
  0
ARC
  8
0
 10
0.147699
 20
2.71205
 30
0.0
 40
0.06
 50
270.0
 51
352.574496
  0
ARC
  8
0
 10
0.266693
 20
2.696541
 30
0.0
 40
0.06
 50
110.219777
 51
172.574496
  0
LINE
  8
0
 10
-1.164307
 20
1.990917
 30
0.0
 11
-0.709237
 21
2.253652
 31
0.0
  0
ARC
  8
0
 10
-1.114307
 20
1.904315
 30
0.0
 40
0.1
 50
120.0
 51
180.0
  0
LINE
  8
0
 10
0.176693
 20
2.65952
 30
0.0
 11
0.176693
 21
2.26705
 31
0.0
  0
ARC
  8
0
 10
-0.033307
 20
3.51105
 30
0.0
 40
0.6156
 50
90.0
 51
270.0
  0
ARC
  8
0
 10
-0.033307
 20
3.51105
 30
0.0
 40
0.458452
 50
90.0
 51
270.0
  0
ARC
  8
0
 10
-0.033307
 20
3.51105
 30
0.0
 40
0.297
 50
90.0
 51
270.0
  0
ARC
  8
0
 10
-0.033307
 20
3.51105
 30
0.0
 40
0.205184
 50
90.0
 51
270.0
  0
ARC
  8
0
 10
-0.033307
 20
3.51105
 30
0.0
 40
0.143629
 50
90.0
 51
270.0
  0
POLYLINE
  8
0
 66
     1
 10
0.0
 20
0.0
 30
0.0
  0
VERTEX
  8
0
 10
-0.033307
 20
4.05105
 30
0.0
  0
VERTEX
  8
0
 10
-0.500961
 20
3.78105
 30
0.0
  0
VERTEX
  8
0
 10
-0.500961
 20
3.24105
 30
0.0
  0
VERTEX
  8
0
 10
-0.033307
 20
2.97105
 30
0.0
  0
SEQEND
  8
0
  0
ARC
  8
0
 10
-0.033307
 20
3.51105
 30
0.0
 40
0.143629
 50
270.0
 51
90.0
  0
ARC
  8
0
 10
-0.033307
 20
3.51105
 30
0.0
 40
0.205184
 50
270.0
 51
90.0
  0
ARC
  8
0
 10
-0.033307
 20
3.51105
 30
0.0
 40
0.297
 50
270.0
 51
90.0
  0
ARC
  8
0
 10
-3.357307
 20
5.424526
 30
0.0
 40
0.06
 50
90.0
 51
180.0
  0
LINE
  8
OBJ
  6
CONTINUOUS
 10
-3.337115
 20
5.942473
 30
0.0
 11
-3.496632
 21
5.942473
 31
0.0
  0
LINE
  8
OBJ
  6
CONTINUOUS
 10
-3.337115
 20
5.834905
 30
0.0
 11
-3.496632
 21
5.834905
 31
0.0
  0
LINE
  8
OBJ
  6
CONTINUOUS
 10
-3.337115
 20
5.614988
 30
0.0
 11
-3.496632
 21
5.614988
 31
0.0
  0
LINE
  8
OBJ
  6
CONTINUOUS
 10
-3.337115
 20
5.50742
 30
0.0
 11
-3.496632
 21
5.50742
 31
0.0
  0
LINE
  8
0
 10
-3.635686
 20
4.59955
 30
0.0
 11
-5.703242
 21
4.59955
 31
0.0
  0
LINE
  8
0
 10
-5.003307
 20
4.992526
 30
0.0
 11
-5.033307
 21
4.962526
 31
0.0
  0
LINE
  8
0
 10
-5.033307
 20
4.962526
 30
0.0
 11
-5.033307
 21
4.236526
 31
0.0
  0
LINE
  8
0
 10
-5.003307
 20
4.206526
 30
0.0
 11
-5.003307
 21
4.992526
 31
0.0
  0
LINE
  8
0
 10
-3.417307
 20
5.111526
 30
0.0
 11
-3.550307
 21
5.111526
 31
0.0
  0
LINE
  8
0
 10
-3.580307
 20
5.081526
 30
0.0
 11
-3.550307
 21
5.111526
 31
0.0
  0
LINE
  8
0
 10
-3.580307
 20
4.206526
 30
0.0
 11
-5.003307
 21
4.206526
 31
0.0
  0
LINE
  8
0
 10
-3.580307
 20
4.992526
 30
0.0
 11
-5.003307
 21
4.992526
 31
0.0
  0
LINE
  8
OBJ
 10
-3.534323
 20
5.834905
 30
0.0
 11
-3.534323
 21
5.614988
 31
0.0
  0
LINE
  8
OBJ
 10
-3.534323
 20
5.614988
 30
0.0
 11
-3.534323
 21
5.532335
 31
0.0
  0
LINE
  8
OBJ
 10
-3.534323
 20
5.917558
 30
0.0
 11
-3.534323
 21
5.834905
 31
0.0
  0
ARC
  8
OBJ
 10
-3.355086
 20
5.724947
 30
0.0
 40
0.179237
 50
142.158498
 51
217.841502
  0
LINE
  8
OBJ
 10
-3.534323
 20
5.917558
 30
0.0
 11
-3.511104
 21
5.934712
 31
0.0
  0
ARC
  8
OBJ
 10
-3.477104
 20
5.888689
 30
0.0
 40
0.057219
 50
109.954678
 51
250.045322
  0
ARC
  8
OBJ
 10
-3.477104
 20
5.561204
 30
0.0
 40
0.057219
 50
109.954678
 51
250.045322
  0
LINE
  8
OBJ
 10
-3.534323
 20
5.532335
 30
0.0
 11
-3.511104
 21
5.515182
 31
0.0
  0
LINE
  8
0
 10
-0.648907
 20
6.69055
 30
0.0
 11
-0.648907
 21
6.86155
 31
0.0
  0
LINE
  8
0
 10
-0.834707
 20
6.69055
 30
0.0
 11
-0.834707
 21
6.86155
 31
0.0
  0
LINE
  8
0
 10
-2.065907
 20
6.69055
 30
0.0
 11
-2.065907
 21
6.83455
 31
0.0
  0
LINE
  8
0
 10
-2.198307
 20
6.69055
 30
0.0
 11
-0.033307
 21
6.69055
 31
0.0
  0
ARC
  8
0
 10
-1.450307
 20
6.920517
 30
0.0
 40
1.546613
 50
257.93258
 51
286.001404
  0
LINE
  8
0
 10
-1.81417
 20
5.270078
 30
0.0
 11
-1.116807
 21
5.270078
 31
0.0
  0
LINE
  8
0
 10
-2.258307
 20
6.43355
 30
0.0
 11
-2.258307
 21
6.63055
 31
0.0
  0
LINE
  8
0
 10
-2.258307
 20
6.63055
 30
0.0
 11
-2.198307
 21
6.69055
 31
0.0
  0
ARC
  8
0
 10
-2.318307
 20
6.43355
 30
0.0
 40
0.06
 50
270.0
 51
0.0
  0
ARC
  8
0
 10
-2.398307
 20
6.31355
 30
0.0
 40
0.06
 50
90.0
 51
125.685335
  0
LINE
  8
0
 10
-2.398307
 20
6.37355
 30
0.0
 11
-2.318307
 21
6.37355
 31
0.0
  0
ARC
  8
0
 10
-3.229307
 20
6.274526
 30
0.0
 40
0.06
 50
90.0
 51
180.0
  0
LINE
  8
0
 10
-3.053307
 20
6.334526
 30
0.0
 11
-2.680204
 21
6.334526
 31
0.0
  0
ARC
  8
0
 10
-2.257307
 20
6.336192
 30
0.0
 40
0.275
 50
95.452799
 51
175.149038
  0
ARC
  8
0
 10
-0.549954
 20
-7.134905
 30
0.0
 40
13.853734
 50
97.083378
 51
97.18813
  0
LINE
  8
0
 10
-2.531322
 20
6.359447
 30
0.0
 11
-2.531322
 21
6.334574
 31
0.0
  0
LINE
  8
0
 10
-2.82659
 20
6.334574
 30
0.0
 11
-2.453446
 21
6.334574
 31
0.0
  0
LINE
  8
0
 10
-3.229307
 20
6.334526
 30
0.0
 11
-3.053307
 21
6.334526
 31
0.0
  0
LINE
  8
0
 10
-2.948307
 20
4.79955
 30
0.0
 11
-2.946307
 21
4.79955
 31
0.0
  0
LINE
  8
0
 10
-2.948307
 20
4.79955
 30
0.0
 11
-2.946307
 21
4.79955
 31
0.0
  0
ARC
  8
0
 10
-1.81417
 20
5.049182
 30
0.0
 40
0.4441
 50
133.357253
 51
180.0
  0
ARC
  8
0
 10
-1.81417
 20
4.895078
 30
0.0
 40
0.375
 50
90.0
 51
180.0
  0
ARC
  8
0
 10
-2.376519
 20
5.644739
 30
0.0
 40
0.375
 50
313.357253
 51
0.0
  0
ARC
  8
0
 10
-1.822079
 20
5.046484
 30
0.0
 40
0.364825
 50
82.371145
 51
120.467468
  0
LINE
  8
0
 10
-2.001519
 20
5.780817
 30
0.0
 11
-2.001519
 21
5.644739
 31
0.0
  0
ARC
  8
0
 10
-2.762137
 20
4.59955
 30
0.0
 40
0.44
 50
108.211028
 51
256.214939
  0
LINE
  8
0
 10
-2.899645
 20
5.017511
 30
0.0
 11
-2.433307
 21
5.170935
 31
0.0
  0
INSERT
  8
0
  2
100HST
 10
-2.762137
 20
4.59955
 30
0.0
 41
0.03937
 42
0.03937
 43
0.03937
  0
LINE
  8
OBJ
 10
-3.289307
 20
5.773339
 30
0.0
 11
-3.337115
 21
5.821147
 31
0.0
  0
LINE
  8
OBJ
  6
CENTER2
 10
-3.289307
 20
5.925143
 30
0.0
 11
-3.337115
 21
5.925143
 31
0.0
  0
LINE
  8
OBJ
  6
CENTER2
 10
-3.289307
 20
5.524751
 30
0.0
 11
-3.337115
 21
5.524751
 31
0.0
  0
LINE
  8
OBJ
 10
-3.337115
 20
5.942473
 30
0.0
 11
-3.337115
 21
5.50742
 31
0.0
  0
LINE
  8
0
 10
-3.357307
 20
5.484526
 30
0.0
 11
-3.337307
 21
5.484526
 31
0.0
  0
ARC
  8
0
 10
-3.337307
 20
5.532526
 30
0.0
 40
0.048
 50
270.0
 51
350.678318
  0
LINE
  8
0
 62
     1
 10
-3.198094
 20
5.78355
 30
0.0
 11
-1.748521
 21
5.78355
 31
0.0
  0
ARC
  8
0
 10
-2.802004
 20
5.78275
 30
0.0
 40
0.800488
 50
359.86162
 51
45.977224
  0
LINE
  8
0
 10
-2.433307
 20
6.362284
 30
0.0
 11
-2.433307
 21
4.266909
 31
0.0
  0
LINE
  8
0
 10
-3.053307
 20
6.334526
 30
0.0
 11
-3.053307
 21
4.929429
 31
0.0
  0
ARC
  8
0
 10
-0.366807
 20
5.797153
 30
0.0
 40
0.375
 50
221.409622
 51
255.665902
  0
ARC
  8
0
 10
-0.366807
 20
4.895078
 30
0.0
 40
0.375
 50
90.0
 51
138.590378
  0
ARC
  8
0
 10
-0.741807
 20
5.225797
 30
0.0
 40
0.125
 50
221.409622
 51
318.590378
  0
ARC
  8
0
 10
-1.116807
 20
5.797153
 30
0.0
 40
0.375
 50
284.334098
 51
318.590378
  0
ARC
  8
0
 10
-1.116807
 20
4.895078
 30
0.0
 40
0.375
 50
41.409622
 51
90.0
  0
ARC
  8
0
 10
-0.741807
 20
5.466434
 30
0.0
 40
0.125
 50
41.409622
 51
138.590378
  0
ARC
  8
0
 10
-0.033307
 20
6.920517
 30
0.0
 40
1.546613
 50
253.998596
 51
270.0
  0
LINE
  8
0
 10
-0.366807
 20
5.270078
 30
0.0
 11
-0.033307
 21
5.270078
 31
0.0
  0
LINE
  8
0
 10
0.300193
 20
5.270078
 30
0.0
 11
-0.033307
 21
5.270078
 31
0.0
  0
ARC
  8
0
 10
-0.033307
 20
6.920517
 30
0.0
 40
1.546613
 50
270.0
 51
286.001404
  0
LINE
  8
0
 10
-0.741807
 20
5.708011
 30
0.0
 11
-0.741807
 21
6.564539
 31
0.0
  0
LINE
  8
0
 10
-1.942717
 20
7.25305
 30
0.0
 11
-0.957898
 21
7.25305
 31
0.0
  0
LINE
  8
0
 10
-2.038907
 20
6.86155
 30
0.0
 11
-0.834707
 21
6.86155
 31
0.0
  0
ARC
  8
0
 10
-1.450307
 20
6.62382
 30
0.0
 40
0.62923
 50
64.589813
 51
115.410187
  0
LINE
  8
0
 10
-1.990307
 20
7.192177
 30
0.0
 11
-1.942717
 21
7.25305
 31
0.0
  0
ARC
  8
0
 10
-1.855307
 20
7.072915
 30
0.0
 40
0.180135
 50
41.458173
 51
138.541827
  0
ARC
  8
0
 10
-2.038907
 20
6.83455
 30
0.0
 40
0.027
 50
90.0
 51
180.0
  0
LINE
  8
0
 10
-1.720307
 20
6.87055
 30
0.0
 11
-1.720307
 21
7.192177
 31
0.0
  0
LINE
  8
0
 10
-1.990307
 20
6.87055
 30
0.0
 11
-1.990307
 21
7.192177
 31
0.0
  0
ARC
  8
0
 10
-1.729307
 20
6.87055
 30
0.0
 40
0.009
 50
270.0
 51
0.0
  0
ARC
  8
0
 10
-1.711307
 20
6.87055
 30
0.0
 40
0.009
 50
180.0
 51
270.0
  0
ARC
  8
0
 10
-1.999307
 20
6.87055
 30
0.0
 40
0.009
 50
270.0
 51
0.0
  0
LINE
  8
0
 10
-0.648907
 20
6.86155
 30
0.0
 11
-0.033307
 21
6.86155
 31
0.0
  0
ARC
  8
0
 10
-0.033307
 20
6.62382
 30
0.0
 40
0.62923
 50
90.0
 51
115.410187
  0
LINE
  8
0
 10
-0.573307
 20
7.192177
 30
0.0
 11
-0.525717
 21
7.25305
 31
0.0
  0
ARC
  8
0
 10
-0.438307
 20
7.072915
 30
0.0
 40
0.180135
 50
41.458173
 51
138.541827
  0
LINE
  8
0
 10
-0.910307
 20
7.192177
 30
0.0
 11
-0.957898
 21
7.25305
 31
0.0
  0
ARC
  8
0
 10
-1.045307
 20
7.072915
 30
0.0
 40
0.180135
 50
41.458173
 51
138.541827
  0
LINE
  8
0
 10
-0.525717
 20
7.25305
 30
0.0
 11
-0.033307
 21
7.25305
 31
0.0
  0
LINE
  8
0
 10
-1.180307
 20
6.87055
 30
0.0
 11
-1.180307
 21
7.192177
 31
0.0
  0
ARC
  8
0
 10
-1.189307
 20
6.87055
 30
0.0
 40
0.009
 50
270.0
 51
0.0
  0
ARC
  8
0
 10
-1.171307
 20
6.87055
 30
0.0
 40
0.009
 50
180.0
 51
270.0
  0
LINE
  8
0
 10
-0.573307
 20
6.87055
 30
0.0
 11
-0.573307
 21
7.192177
 31
0.0
  0
LINE
  8
0
 10
-0.910307
 20
6.87055
 30
0.0
 11
-0.910307
 21
7.192177
 31
0.0
  0
ARC
  8
OBJ
 10
-0.033307
 20
3.035078
 30
0.0
 40
4.120471
 50
97.530443
 51
100.213656
  0
ARC
  8
OBJ
 10
-0.753307
 20
7.031205
 30
0.0
 40
0.06
 50
100.213656
 51
180.0
  0
LINE
  8
OBJ
  6
CONTINUOUS
 10
-0.573307
 20
7.00655
 30
0.0
 11
-0.910307
 21
7.00655
 31
0.0
  0
ARC
  8
OBJ
 10
-0.860925
 20
6.645444
 30
0.0
 40
0.361106
 50
37.579518
 51
97.860037
  0
ARC
  8
0
 10
-0.582307
 20
6.87055
 30
0.0
 40
0.009
 50
270.0
 51
0.0
  0
ARC
  8
0
 10
-0.901307
 20
6.87055
 30
0.0
 40
0.009
 50
180.0
 51
270.0
  0
LINE
  8
0
 10
-0.303307
 20
6.87055
 30
0.0
 11
-0.303307
 21
7.192177
 31
0.0
  0
ARC
  8
0
 10
-0.294307
 20
6.87055
 30
0.0
 40
0.009
 50
180.0
 51
270.0
  0
ARC
  8
0
 10
-0.312307
 20
6.87055
 30
0.0
 40
0.009
 50
270.0
 51
0.0
  0
ARC
  8
0
 10
-0.033307
 20
6.62382
 30
0.0
 40
0.62923
 50
64.589813
 51
90.0
  0
ARC
  8
0
 10
0.245693
 20
6.87055
 30
0.0
 40
0.009
 50
180.0
 51
270.0
  0
ARC
  8
0
 10
0.227693
 20
6.87055
 30
0.0
 40
0.009
 50
270.0
 51
0.0
  0
LINE
  8
0
 10
0.236693
 20
6.87055
 30
0.0
 11
0.236693
 21
7.192177
 31
0.0
  0
LINE
  8
0
 10
-0.813307
 20
7.031205
 30
0.0
 11
-0.813307
 21
7.00655
 31
0.0
  0
LINE
  8
OBJ
 10
24.520809
 20
5.22055
 30
0.0
 11
24.520809
 21
3.97855
 31
0.0
  0
CIRCLE
  8
0
 10
21.950784
 20
4.59955
 30
0.0
 40
0.512024
  0
CIRCLE
  8
0
 10
21.950784
 20
4.59955
 30
0.0
 40
0.885024
  0
CIRCLE
  8
0
 10
21.950784
 20
4.59955
 30
0.0
 40
1.735024
  0
LINE
  8
0
 10
23.735809
 20
6.69705
 30
0.0
 11
23.735809
 21
2.50205
 31
0.0
  0
LINE
  8
0
 10
23.944058
 20
6.233529
 30
0.0
 11
23.944058
 21
2.965571
 31
0.0
  0
ARC
  8
0
 10
12.678639
 20
3.909699
 30
0.0
 40
11.844124
 50
358.959164
 51
11.479697
  0
LINE
  8
0
 10
24.040809
 20
2.58205
 30
0.0
 11
24.040809
 21
6.61705
 31
0.0
  0
LINE
  8
0
 10
16.150809
 20
5.555401
 30
0.0
 11
16.150809
 21
3.643698
 31
0.0
  0
POLYLINE
  8
0
 66
     1
 10
0.0
 20
0.0
 30
0.0
  0
VERTEX
  8
0
 10
17.371502
 20
4.07455
 30
0.0
 42
0.073861
  0
VERTEX
  8
0
 10
17.654279
 20
4.116552
 30
0.0
 42
0.084666
  0
VERTEX
  8
0
 10
17.877706
 20
4.228319
 30
0.0
 42
0.106369
 70
     2
 50
36.254891
  0
VERTEX
  8
0
 10
18.036935
 20
4.407651
 30
0.0
 42
0.053685
 50
36.254891
  0
VERTEX
  8
0
 10
18.07
 20
4.484381
 30
0.0
 42
0.129249
  0
SEQEND
  8
0
  0
LINE
  8
0
 10
14.640809
 20
5.78355
 30
0.0
 11
14.640809
 21
4.018239
 31
0.0
  0
LINE
  8
0
 10
15.480809
 20
5.22955
 30
0.0
 11
15.480809
 21
4.086104
 31
0.0
  0
LINE
  8
0
 10
13.640809
 20
5.78355
 30
0.0
 11
13.640809
 21
4.018239
 31
0.0
  0
LINE
  8
0
 10
13.292348
 20
5.270078
 30
0.0
 11
13.292348
 21
2.90955
 31
0.0
  0
ARC
  8
0
 10
1.991693
 20
4.266909
 30
0.0
 40
0.375
 50
331.481841
 51
0.0
  0
LINE
  8
0
 10
2.800366
 20
4.172223
 30
0.0
 11
2.300366
 21
4.04955
 31
0.0
  0
LINE
  8
0
 10
3.483693
 20
4.087526
 30
0.0
 11
3.483693
 21
5.111526
 31
0.0
  0
LINE
  8
0
 10
3.513693
 20
5.081526
 30
0.0
 11
3.513693
 21
4.117526
 31
0.0
  0
LINE
  8
0
 10
3.350693
 20
5.424526
 30
0.0
 11
3.350693
 21
3.774526
 31
0.0
  0
LINE
  8
0
 10
2.191691
 20
3.51105
 30
0.0
 11
2.191655
 21
5.049182
 31
0.0
  0
LINE
  8
0
 10
2.986693
 20
4.269671
 30
0.0
 11
2.986693
 21
2.864526
 31
0.0
  0
LINE
  8
0
 10
2.122555
 20
3.51105
 30
0.0
 11
2.122555
 21
4.895078
 31
0.0
  0
LINE
  8
0
 10
3.222693
 20
2.924526
 30
0.0
 11
3.222693
 21
6.274526
 31
0.0
  0
LINE
  8
0
 10
17.420809
 20
2.51205
 30
0.0
 11
23.420809
 21
2.51205
 31
0.0
  0
ARC
  8
0
 10
24.143307
 20
34.385595
 30
0.0
 40
31.820442
 50
257.716839
 51
268.80702
  0
INSERT
  8
0
  2
SRAIL
 10
23.170784
 20
2.15955
 30
0.0
  0
ARC
  8
0
 10
13.912348
 20
3.809046
 30
0.0
 40
0.06
 50
0.0
 51
90.0
  0
ARC
  8
0
 10
14.032348
 20
3.772591
 30
0.0
 40
0.06
 50
90.0
 51
180.0
  0
ARC
  8
0
 10
13.921065
 20
2.87955
 30
0.0
 40
0.06
 50
286.157023
 51
338.026211
  0
ARC
  8
0
 10
2.190693
 20
2.837828
 30
0.0
 40
0.275
 50
275.452799
 51
355.420086
  0
ARC
  8
0
 10
1.383693
 20
3.51105
 30
0.0
 40
0.808
 50
222.952278
 51
0.0
  0
LINE
  8
0
 62
     1
 10
2.594907
 20
3.51105
 30
0.0
 11
1.649242
 21
3.51105
 31
0.0
  0
LINE
  8
0
 10
2.191693
 20
3.84955
 30
0.0
 11
2.322003
 21
4.08937
 31
0.0
  0
ARC
  8
0
 10
0.675193
 20
2.851465
 30
0.0
 40
0.16
 50
42.952278
 51
137.047722
  0
LINE
  8
0
 10
1.097693
 20
1.990917
 30
0.0
 11
0.642622
 21
2.253652
 31
0.0
  0
ARC
  8
0
 10
0.675193
 20
3.025589
 30
0.0
 40
0.12
 50
34.418763
 51
145.581237
  0
ARC
  8
0
 10
2.036693
 20
2.95105
 30
0.0
 40
0.06
 50
270.0
 51
0.0
  0
LINE
  8
OBJ
 10
2.13089
 20
2.15955
 30
0.0
 11
1.629732
 21
2.15955
 31
0.0
  0
LINE
  8
0
 10
2.036693
 20
2.89105
 30
0.0
 11
1.901828
 21
2.89105
 31
0.0
  0
LINE
  8
OBJ
 10
1.836693
 20
2.51205
 30
0.0
 11
1.956693
 21
2.51205
 31
0.0
  0
POINT
  8
DEFPOINTS
  6
BYBLOCK
 62
     0
 10
1.956693
 20
2.51205
 30
0.0
  0
POINT
  8
DEFPOINTS
  6
BYBLOCK
 62
     0
 10
1.836693
 20
2.51205
 30
0.0
  0
ARC
  8
0
 10
1.047693
 20
1.904315
 30
0.0
 40
0.1
 50
0.0
 51
60.0
  0
ARC
  8
0
 10
1.202686
 20
2.71205
 30
0.0
 40
0.06
 50
187.425504
 51
270.0
  0
ARC
  8
0
 10
1.083693
 20
2.696541
 30
0.0
 40
0.06
 50
7.425504
 51
69.780223
  0
LINE
  8
0
 10
1.147693
 20
2.688056
 30
0.0
 11
1.147693
 21
1.85205
 31
0.0
  0
LINE
  8
0
 10
1.996693
 20
2.51205
 30
0.0
 11
1.836693
 21
2.51205
 31
0.0
  0
ARC
  8
0
 10
1.564699
 20
2.71205
 30
0.0
 40
0.06
 50
270.0
 51
352.574496
  0
ARC
  8
0
 10
1.683693
 20
2.696541
 30
0.0
 40
0.06
 50
110.219777
 51
172.574496
  0
LINE
  8
0
 10
1.996693
 20
2.89105
 30
0.0
 11
1.996693
 21
2.51205
 31
0.0
  0
LINE
  8
0
 10
1.836693
 20
2.51205
 30
0.0
 11
1.836693
 21
1.85205
 31
0.0
  0
LINE
  8
0
 10
1.836693
 20
1.85205
 30
0.0
 11
1.147693
 21
1.85205
 31
0.0
  0
LINE
  8
0
 10
1.202686
 20
2.65205
 30
0.0
 11
1.564699
 21
2.65205
 31
0.0
  0
LINE
  8
0
 10
2.096693
 20
3.130925
 30
0.0
 11
2.096693
 21
2.95105
 31
0.0
  0
ARC
  8
0
 10
0.592622
 20
2.16705
 30
0.0
 40
0.1
 50
60.0
 51
90.0
  0
LINE
  8
0
 10
1.996693
 20
2.51205
 30
0.0
 11
1.861321
 21
2.51205
 31
0.0
  0
CIRCLE
  8
0
 10
1.383693
 20
3.51105
 30
0.0
 40
0.6156
  0
CIRCLE
  8
0
 10
1.383693
 20
3.51105
 30
0.0
 40
0.297
  0
CIRCLE
  8
0
 10
1.383693
 20
3.51105
 30
0.0
 40
0.205184
  0
CIRCLE
  8
0
 10
1.383693
 20
3.51105
 30
0.0
 40
0.143629
  0
POLYLINE
  8
0
 66
     1
 10
0.0
 20
0.0
 30
0.0
 70
     1
  0
VERTEX
  8
0
 10
1.383693
 20
4.05105
 30
0.0
  0
VERTEX
  8
0
 10
1.851346
 20
3.78105
 30
0.0
  0
VERTEX
  8
0
 10
1.851346
 20
3.24105
 30
0.0
  0
VERTEX
  8
0
 10
1.383693
 20
2.97105
 30
0.0
  0
VERTEX
  8
0
 10
0.916039
 20
3.24105
 30
0.0
  0
VERTEX
  8
0
 10
0.916039
 20
3.78105
 30
0.0
  0
SEQEND
  8
0
  0
CIRCLE
  8
0
 10
1.383693
 20
3.51105
 30
0.0
 40
0.458452
  0
ARC
  8
0
 10
1.383693
 20
3.51105
 30
0.0
 40
0.738862
 50
214.418763
 51
360.0
  0
ARC
  8
0
 10
0.483339
 20
16.308925
 30
0.0
 40
13.853734
 50
276.271389
 51
277.18813
  0
LINE
  8
0
 10
3.513693
 20
4.117526
 30
0.0
 11
3.483693
 21
4.087526
 31
0.0
  0
LINE
  8
0
 10
3.350693
 20
4.087526
 30
0.0
 11
3.483693
 21
4.087526
 31
0.0
  0
ARC
  8
0
 10
3.270693
 20
3.666526
 30
0.0
 40
0.048
 50
90.0
 51
170.366205
  0
LINE
  8
0
 10
3.290693
 20
3.714526
 30
0.0
 11
3.270693
 21
3.714526
 31
0.0
  0
LINE
  8
OBJ
  6
CENTER2
 10
3.222693
 20
3.674559
 30
0.0
 11
3.270501
 21
3.674559
 31
0.0
  0
LINE
  8
OBJ
  6
CONTINUOUS
 10
3.270501
 20
3.691889
 30
0.0
 11
3.430017
 21
3.691889
 31
0.0
  0
LINE
  8
OBJ
 10
3.467709
 20
3.666974
 30
0.0
 11
3.444489
 21
3.684128
 31
0.0
  0
LINE
  8
0
 10
3.350693
 20
4.08755
 30
0.0
 11
3.409688
 21
4.08755
 31
0.0
  0
ARC
  8
0
 10
3.290693
 20
3.774526
 30
0.0
 40
0.06
 50
270.0
 51
0.0
  0
LINE
  8
0
 10
2.428354
 20
2.864526
 30
0.0
 11
2.986693
 21
2.864526
 31
0.0
  0
ARC
  8
0
 10
3.162693
 20
2.924526
 30
0.0
 40
0.06
 50
270.0
 51
0.0
  0
LINE
  8
0
 10
3.162693
 20
2.864526
 30
0.0
 11
2.986693
 21
2.864526
 31
0.0
  0
LINE
  8
OBJ
  6
CENTER2
 10
3.222693
 20
3.274167
 30
0.0
 11
3.270501
 21
3.274167
 31
0.0
  0
LINE
  8
OBJ
 10
3.222693
 20
3.42597
 30
0.0
 11
3.270501
 21
3.378162
 31
0.0
  0
LINE
  8
OBJ
 10
3.467709
 20
3.281751
 30
0.0
 11
3.444489
 21
3.264597
 31
0.0
  0
ARC
  8
OBJ
 10
3.410489
 20
3.31062
 30
0.0
 40
0.057219
 50
289.954678
 51
70.045322
  0
LINE
  8
OBJ
  6
CONTINUOUS
 10
3.270501
 20
3.256836
 30
0.0
 11
3.430017
 21
3.256836
 31
0.0
  0
LINE
  8
OBJ
  6
CONTINUOUS
 10
3.270501
 20
3.584321
 30
0.0
 11
3.430017
 21
3.584321
 31
0.0
  0
LINE
  8
OBJ
  6
CONTINUOUS
 10
3.270501
 20
3.364404
 30
0.0
 11
3.430017
 21
3.364404
 31
0.0
  0
LINE
  8
OBJ
 10
3.467709
 20
3.364404
 30
0.0
 11
3.467709
 21
3.584321
 31
0.0
  0
ARC
  8
OBJ
 10
3.288471
 20
3.474363
 30
0.0
 40
0.179237
 50
322.158498
 51
37.841502
  0
LINE
  8
OBJ
 10
3.467709
 20
3.281751
 30
0.0
 11
3.467709
 21
3.364404
 31
0.0
  0
ARC
  8
0
 10
-19.736081
 20
4.703993
 30
0.0
 40
22.28104
 50
355.138854
 51
355.264412
  0
ARC
  8
0
 10
2.428354
 20
2.803814
 30
0.0
 40
0.060712
 50
90.0
 51
162.652146
  0
LINE
  8
OBJ
 10
3.270501
 20
3.256836
 30
0.0
 11
3.270501
 21
3.691889
 31
0.0
  0
ARC
  8
OBJ
 10
3.410489
 20
3.638105
 30
0.0
 40
0.057219
 50
289.954678
 51
70.045322
  0
LINE
  8
OBJ
 10
3.467709
 20
3.584321
 30
0.0
 11
3.467709
 21
3.666974
 31
0.0
  0
ARC
  8
0
 10
12.909983
 20
3.91605
 30
0.0
 40
0.180135
 50
131.458173
 51
228.541827
  0
LINE
  8
0
 10
13.112348
 20
4.05105
 30
0.0
 11
12.79072
 21
4.05105
 31
0.0
  0
LINE
  8
0
 10
12.79072
 20
4.05105
 30
0.0
 11
12.729848
 21
4.003459
 31
0.0
  0
ARC
  8
0
 10
13.112348
 20
3.79005
 30
0.0
 40
0.009
 50
270.0
 51
0.0
  0
ARC
  8
0
 10
13.112348
 20
3.77205
 30
0.0
 40
0.009
 50
0.0
 51
90.0
  0
LINE
  8
0
 10
13.112348
 20
3.78105
 30
0.0
 11
12.79072
 21
3.78105
 31
0.0
  0
LINE
  8
0
 10
13.292348
 20
4.12665
 30
0.0
 11
13.121348
 21
4.12665
 31
0.0
  0
ARC
  8
0
 10
13.9348
 20
4.059098
 30
0.0
 40
0.294024
 50
180.858173
 51
213.760229
  0
ARC
  8
0
 10
13.112348
 20
4.06005
 30
0.0
 40
0.009
 50
270.0
 51
0.0
  0
ARC
  8
0
 10
13.740239
 20
3.929046
 30
0.0
 40
0.06
 50
213.760229
 51
270.0
  0
LINE
  8
0
 10
13.740239
 20
3.869046
 30
0.0
 11
13.912348
 21
3.869046
 31
0.0
  0
ARC
  8
0
 10
13.891065
 20
2.816982
 30
0.0
 40
0.03
 50
270.0
 51
336.549766
  0
ARC
  8
0
 10
13.94611
 20
2.793105
 30
0.0
 40
0.03
 50
106.157023
 51
156.549766
  0
LINE
  8
0
 10
13.112348
 20
2.97105
 30
0.0
 11
12.79072
 21
2.97105
 31
0.0
  0
LINE
  8
0
 10
13.112348
 20
3.24105
 30
0.0
 11
12.79072
 21
3.24105
 31
0.0
  0
ARC
  8
0
 10
12.909983
 20
3.10605
 30
0.0
 40
0.180135
 50
131.458173
 51
228.541827
  0
LINE
  8
0
 10
12.79072
 20
2.97105
 30
0.0
 11
12.729848
 21
3.01864
 31
0.0
  0
LINE
  8
0
 10
13.121348
 20
2.92245
 30
0.0
 11
13.292348
 21
2.92245
 31
0.0
  0
ARC
  8
0
 10
13.112348
 20
3.23205
 30
0.0
 40
0.009
 50
0.0
 51
90.0
  0
ARC
  8
0
 10
13.112348
 20
3.25005
 30
0.0
 40
0.009
 50
270.0
 51
0.0
  0
ARC
  8
0
 10
13.112348
 20
2.96205
 30
0.0
 40
0.009
 50
0.0
 51
90.0
  0
ARC
  8
0
 10
13.382348
 20
2.90955
 30
0.0
 40
0.09
 50
180.0
 51
258.172183
  0
ARC
  8
0
 10
13.412348
 20
2.816982
 30
0.0
 40
0.03
 50
204.502587
 51
270.0
  0
ARC
  8
0
 10
13.357751
 20
2.792098
 30
0.0
 40
0.03
 50
24.502587
 51
78.172183
  0
LINE
  8
0
 10
13.412348
 20
2.786982
 30
0.0
 11
13.891065
 21
2.786982
 31
0.0
  0
ARC
  8
0
 10
13.655537
 20
1.242732
 30
0.0
 40
1.60645
 50
80.784694
 51
99.215306
  0
LINE
  8
0
 10
12.729848
 20
3.01864
 30
0.0
 11
12.729848
 21
4.003459
 31
0.0
  0
ARC
  8
0
 10
13.359078
 20
3.51105
 30
0.0
 40
0.62923
 50
154.589813
 51
205.410187
  0
LINE
  8
0
 10
13.121348
 20
4.12665
 30
0.0
 11
13.121348
 21
2.92245
 31
0.0
  0
LINE
  8
0
 10
17.420809
 20
1.86405
 30
0.0
 11
18.500809
 21
1.86405
 31
0.0
  0
ARC
  8
0
 10
15.959155
 20
3.92136
 30
0.0
 40
0.12
 50
90.0
 51
179.01171
  0
ARC
  8
0
 10
15.952569
 20
3.53955
 30
0.0
 40
0.12
 50
90.0
 51
179.01171
  0
LINE
  8
0
 10
15.958892
 20
4.04136
 30
0.0
 11
15.540809
 21
4.04136
 31
0.0
  0
LINE
  8
0
 10
15.830809
 20
3.43855
 30
0.0
 11
15.839173
 21
3.923429
 31
0.0
  0
ARC
  8
0
 10
14.346817
 20
4.022643
 30
0.0
 40
0.294024
 50
326.239771
 51
359.141827
  0
ARC
  8
0
 10
15.540809
 20
4.10136
 30
0.0
 40
0.06
 50
180.0
 51
270.0
  0
ARC
  8
0
 10
14.541378
 20
3.892591
 30
0.0
 40
0.06
 50
270.0
 51
326.239771
  0
ARC
  8
0
 10
14.550452
 20
3.772591
 30
0.0
 40
0.06
 50
9.07011
 51
90.0
  0
LINE
  8
0
 10
14.032348
 20
3.832591
 30
0.0
 11
14.550452
 21
3.832591
 31
0.0
  0
LINE
  8
0
 10
14.032348
 20
2.894648
 30
0.0
 11
14.573361
 21
2.894648
 31
0.0
  0
ARC
  8
0
 10
14.032348
 20
2.834648
 30
0.0
 40
0.06
 50
90.0
 51
158.026211
  0
ARC
  8
0
 10
14.573361
 20
3.014648
 30
0.0
 40
0.12
 50
270.0
 51
1.87539
  0
LINE
  8
0
 10
14.693361
 20
3.014648
 30
0.0
 11
14.693361
 21
3.094556
 31
0.0
  0
ARC
  8
0
 10
14.753361
 20
3.094556
 30
0.0
 40
0.06
 50
41.416584
 51
180.0
  0
ARC
  8
0
 10
14.783248
 20
3.02152
 30
0.0
 40
0.09
 50
47.710055
 51
181.87539
  0
LINE
  8
0
 10
15.005809
 20
2.786982
 30
0.0
 11
15.475809
 21
2.786982
 31
0.0
  0
LINE
  8
0
 10
14.945809
 20
2.980055
 30
0.0
 11
14.945809
 21
2.846982
 31
0.0
  0
LINE
  8
0
 10
15.535809
 20
2.980055
 30
0.0
 11
15.535809
 21
2.846982
 31
0.0
  0
ARC
  8
0
 10
15.005809
 20
2.846982
 30
0.0
 40
0.06
 50
180.0
 51
270.0
  0
ARC
  8
0
 10
15.475809
 20
2.846982
 30
0.0
 40
0.06
 50
270.0
 51
0.0
  0
ARC
  8
0
 10
15.595809
 20
2.980055
 30
0.0
 40
0.06
 50
123.103549
 51
180.0
  0
ARC
  8
0
 10
14.885809
 20
2.980055
 30
0.0
 40
0.06
 50
0.0
 51
56.896451
  0
CIRCLE
  8
0
 10
15.240809
 20
3.52455
 30
0.0
 40
0.355
  0
CIRCLE
  8
0
 10
15.240809
 20
3.52455
 30
0.0
 40
0.415
  0
LINE
  8
0
 10
13.972348
 20
3.809046
 30
0.0
 11
13.972348
 21
2.873078
 31
0.0
  0
LINE
  8
0
 10
14.640809
 20
4.018239
 30
0.0
 11
14.650809
 21
3.52455
 31
0.0
  0
LINE
  8
0
 10
14.650809
 20
3.52455
 30
0.0
 11
14.609702
 21
3.78205
 31
0.0
  0
CIRCLE
  8
0
 10
15.240809
 20
3.52455
 30
0.0
 40
0.59
  0
LINE
  8
0
 10
15.952569
 20
3.65955
 30
0.0
 11
16.150809
 21
3.65955
 31
0.0
  0
LINE
  8
0
 10
16.150809
 20
4.07455
 30
0.0
 11
17.371502
 21
4.07455
 31
0.0
  0
ARC
  8
0
 10
16.190809
 20
3.643698
 30
0.0
 40
0.04
 50
180.0
 51
243.960806
  0
ARC
  8
0
 10
24.143307
 20
34.319883
 30
0.0
 40
31.820442
 50
255.592288
 51
257.745538
  0
LINE
  8
0
 10
17.420809
 20
3.234988
 30
0.0
 11
17.420809
 21
1.86405
 31
0.0
  0
ARC
  8
0
 10
17.360809
 20
3.234988
 30
0.0
 40
0.06
 50
0.0
 51
77.569375
  0
LINE
  8
0
 10
17.420809
 20
2.51205
 30
0.0
 11
17.420809
 21
1.86405
 31
0.0
  0
ARC
  8
0
 10
17.380809
 20
3.185394
 30
0.0
 40
0.04
 50
0.0
 51
77.745538
  0
ARC
  8
0
 10
16.23569
 20
3.538946
 30
0.0
 40
0.04
 50
180.0
 51
255.592288
  0
LINE
  8
0
 10
16.19569
 20
3.571819
 30
0.0
 11
16.19569
 21
3.538946
 31
0.0
  0
LINE
  8
0
 10
16.19569
 20
3.571819
 30
0.0
 11
16.19569
 21
4.07455
 31
0.0
  0
ARC
  8
0
 10
16.15569
 20
3.571819
 30
0.0
 40
0.04
 50
0.0
 51
63.960806
  0
LINE
  8
0
 10
18.500809
 20
1.94405
 30
0.0
 11
19.068809
 21
2.51205
 31
0.0
  0
LINE
  8
0
 10
18.500809
 20
1.94405
 30
0.0
 11
18.500809
 21
1.86405
 31
0.0
  0
CIRCLE
  8
0
 10
18.258784
 20
2.15955
 30
0.0
 40
0.175
  0
INSERT
  8
0
  2
CVRSCR
 10
20.907095
 20
3.55586
 30
0.0
 50
90.0
  0
CIRCLE
  8
0
 10
20.907095
 20
3.55586
 30
0.0
 40
0.225167
  0
ARC
  8
0
 10
24.143307
 20
34.319883
 30
0.0
 40
31.820442
 50
268.698959
 51
269.266239
  0
LINE
  8
0
 10
23.420809
 20
2.51205
 30
0.0
 11
23.420809
 21
1.86405
 31
0.0
  0
ARC
  8
0
 10
23.480809
 20
2.51205
 30
0.0
 40
0.06
 50
90.0
 51
180.0
  0
LINE
  8
0
 10
22.340809
 20
1.94405
 30
0.0
 11
22.340809
 21
1.86405
 31
0.0
  0
LINE
  8
0
 10
22.340809
 20
1.94405
 30
0.0
 11
21.772809
 21
2.51205
 31
0.0
  0
INSERT
  8
0
  2
CVRSCR
 10
22.994474
 20
3.55586
 30
0.0
 50
180.0
  0
CIRCLE
  8
0
 10
22.994474
 20
3.55586
 30
0.0
 40
0.225167
  0
LINE
  8
0
 10
22.340809
 20
1.86405
 30
0.0
 11
23.420809
 21
1.86405
 31
0.0
  0
CIRCLE
  8
0
 10
23.170784
 20
2.15955
 30
0.0
 40
0.175
  0
LINE
  8
0
 10
24.310809
 20
3.63455
 30
0.0
 11
24.460809
 21
3.63455
 31
0.0
  0
ARC
  8
OBJ
 10
24.460809
 20
3.69455
 30
0.0
 40
0.06
 50
270.0
 51
0.0
  0
ARC
  8
0
 10
24.310809
 20
3.62455
 30
0.0
 40
0.01
 50
90.0
 51
180.0
  0
ARC
  8
0
 10
23.980809
 20
2.847844
 30
0.0
 40
0.06
 50
0.0
 51
78.828647
  0
ARC
  8
0
 10
24.004058
 20
2.965571
 30
0.0
 40
0.06
 50
180.0
 51
258.828647
  0
LINE
  8
OBJ
 10
24.040809
 20
2.925442
 30
0.0
 11
24.088617
 21
2.97325
 31
0.0
  0
LINE
  8
OBJ
  6
CENTER2
 10
24.040809
 20
2.676854
 30
0.0
 11
24.088617
 21
2.676854
 31
0.0
  0
LINE
  8
OBJ
 10
24.285825
 20
2.684438
 30
0.0
 11
24.262605
 21
2.667285
 31
0.0
  0
ARC
  8
OBJ
 10
24.228605
 20
2.713307
 30
0.0
 40
0.057219
 50
289.954678
 51
70.045322
  0
LINE
  8
OBJ
 10
24.285825
 20
2.767091
 30
0.0
 11
24.285825
 21
2.684438
 31
0.0
  0
LINE
  8
OBJ
  6
CONTINUOUS
 10
24.088617
 20
2.659523
 30
0.0
 11
24.248133
 21
2.659523
 31
0.0
  0
LINE
  8
OBJ
  6
CONTINUOUS
 10
24.088617
 20
2.767091
 30
0.0
 11
24.248133
 21
2.767091
 31
0.0
  0
ARC
  8
0
 10
23.960809
 20
2.58205
 30
0.0
 40
0.08
 50
270.0
 51
0.0
  0
LINE
  8
0
 10
23.850809
 20
2.50205
 30
0.0
 11
23.846809
 21
2.50205
 31
0.0
  0
LINE
  8
OBJ
  6
CENTER2
 10
24.040809
 20
3.075246
 30
0.0
 11
24.088617
 21
3.075246
 31
0.0
  0
ARC
  8
OBJ
 10
24.228605
 20
3.040792
 30
0.0
 40
0.057219
 50
289.954678
 51
70.045322
  0
LINE
  8
OBJ
 10
24.285825
 20
3.069661
 30
0.0
 11
24.285825
 21
2.987008
 31
0.0
  0
LINE
  8
OBJ
 10
24.285825
 20
3.069661
 30
0.0
 11
24.262605
 21
3.086815
 31
0.0
  0
LINE
  8
OBJ
  6
CONTINUOUS
 10
24.088617
 20
2.987008
 30
0.0
 11
24.248133
 21
2.987008
 31
0.0
  0
LINE
  8
OBJ
  6
CONTINUOUS
 10
24.088617
 20
3.094576
 30
0.0
 11
24.248133
 21
3.094576
 31
0.0
  0
LINE
  8
0
 10
24.040809
 20
3.077246
 30
0.0
 11
24.040809
 21
2.676854
 31
0.0
  0
LINE
  8
OBJ
 10
24.088617
 20
3.094576
 30
0.0
 11
24.088617
 21
2.659523
 31
0.0
  0
ARC
  8
OBJ
 10
24.106587
 20
2.87705
 30
0.0
 40
0.179237
 50
322.158498
 51
37.841502
  0
LINE
  8
OBJ
 10
24.285825
 20
2.987008
 30
0.0
 11
24.285825
 21
2.767091
 31
0.0
  0
LINE
  8
0
 10
23.735809
 20
2.50205
 30
0.0
 11
23.960809
 21
2.50205
 31
0.0
  0
LINE
  8
0
 10
24.050809
 20
2.625402
 30
0.0
 11
24.270809
 21
2.625402
 31
0.0
  0
ARC
  8
0
 10
24.050809
 20
2.615402
 30
0.0
 40
0.01
 50
90.0
 51
180.0
  0
ARC
  8
0
 10
24.270809
 20
2.655402
 30
0.0
 40
0.03
 50
270.0
 51
0.0
  0
LINE
  8
0
 10
24.300809
 20
3.461123
 30
0.0
 11
24.300809
 21
2.643434
 31
0.0
  0
LINE
  8
OBJ
 10
24.529991
 20
2.690262
 30
0.0
 11
24.529991
 21
3.414295
 31
0.0
  0
ARC
  8
OBJ
 10
24.422447
 20
2.744522
 30
0.0
 40
0.107545
 50
289.954678
 51
70.045322
  0
LINE
  8
OBJ
  6
CONTINUOUS
 10
24.300809
 20
2.643434
 30
0.0
 11
24.459149
 21
2.643434
 31
0.0
  0
LINE
  8
OBJ
 10
24.529991
 20
2.690262
 30
0.0
 11
24.486349
 21
2.658021
 31
0.0
  0
LINE
  8
OBJ
  6
CONTINUOUS
 10
24.300809
 20
2.84561
 30
0.0
 11
24.459149
 21
2.84561
 31
0.0
  0
LINE
  8
OBJ
  6
CONTINUOUS
 10
24.300809
 20
3.258947
 30
0.0
 11
24.459149
 21
3.258947
 31
0.0
  0
LINE
  8
OBJ
  6
CONTINUOUS
 10
24.300809
 20
3.461123
 30
0.0
 11
24.459149
 21
3.461123
 31
0.0
  0
ARC
  8
OBJ
 10
24.193111
 20
3.052279
 30
0.0
 40
0.33688
 50
322.158498
 51
37.841502
  0
ARC
  8
OBJ
 10
24.422447
 20
3.360035
 30
0.0
 40
0.107545
 50
289.954678
 51
70.045322
  0
LINE
  8
OBJ
 10
24.529991
 20
3.414295
 30
0.0
 11
24.486349
 21
3.446536
 31
0.0
  0
LINE
  8
0
 10
24.300809
 20
3.62455
 30
0.0
 11
24.300809
 21
2.655402
 31
0.0
  0
LINE
  8
0
 10
21.43876
 20
20.195834
 30
0.0
 11
22.46276
 21
20.195834
 31
0.0
  0
LINE
  8
0
 10
22.43276
 20
20.225834
 30
0.0
 11
21.46876
 21
20.225834
 31
0.0
  0
LINE
  8
0
 10
22.31376
 20
21.678834
 30
0.0
 11
21.58776
 21
21.678834
 31
0.0
  0
LINE
  8
0
 10
21.55776
 20
21.648834
 30
0.0
 11
21.832784
 21
21.648834
 31
0.0
  0
LINE
  8
0
 10
22.77576
 20
20.062834
 30
0.0
 11
21.12576
 21
20.062834
 31
0.0
  0
LINE
  8
0
 10
20.27576
 20
19.934834
 30
0.0
 11
23.62576
 21
19.934834
 31
0.0
  0
LINE
  8
0
 10
23.68576
 20
19.698834
 30
0.0
 11
20.21576
 21
19.698834
 31
0.0
  0
LINE
  8
0
 10
16.150809
 20
18.896151
 30
0.0
 11
23.550033
 21
19.268486
 31
0.0
  0
LINE
  8
OBJ
 10
24.80476
 20
16.678834
 30
0.0
 11
13.00476
 21
16.678834
 31
0.0
  0
INSERT
  8
0
  2
RAIL
 10
23.170784
 20
18.548834
 30
0.0
  0
LINE
  8
0
 10
25.111194
 20
16.678834
 30
0.0
 11
11.881219
 21
16.678834
 31
0.0
  0
LINE
  8
0
 10
22.43276
 20
13.131834
 30
0.0
 11
21.46876
 21
13.131834
 31
0.0
  0
LINE
  8
0
 10
21.43876
 20
13.161834
 30
0.0
 11
22.46276
 21
13.161834
 31
0.0
  0
LINE
  8
0
 10
22.77576
 20
13.294834
 30
0.0
 11
21.12576
 21
13.294834
 31
0.0
  0
LINE
  8
0
 10
21.55776
 20
11.708834
 30
0.0
 11
21.832784
 21
11.708834
 31
0.0
  0
LINE
  8
0
 10
22.31376
 20
11.678834
 30
0.0
 11
21.58776
 21
11.678834
 31
0.0
  0
LINE
  8
0
 10
23.68576
 20
13.658834
 30
0.0
 11
20.21576
 21
13.658834
 31
0.0
  0
LINE
  8
0
 10
20.27576
 20
13.422834
 30
0.0
 11
23.62576
 21
13.422834
 31
0.0
  0
CIRCLE
  8
0
 10
21.950784
 20
4.59955
 30
0.0
 40
0.393024
  0
LINE
  8
0
 10
16.150809
 20
14.461518
 30
0.0
 11
23.735809
 21
14.079834
 31
0.0
  0
ARC
  8
0
 10
24.143307
 20
-25.120783
 30
0.0
 40
31.820442
 50
90.733761
 51
98.898158
  0
INSERT
  8
0
  2
MRAIL
 10
23.170784
 20
14.808834
 30
0.0
  0
LINE
  8
0
 10
15.970809
 20
15.268834
 30
0.0
 11
15.970809
 21
18.088834
 31
0.0
  0
ARC
  8
0
 10
14.140809
 20
18.095834
 30
0.0
 40
0.808
 50
312.952278
 51
90.0
  0
ARC
  8
0
 10
14.140809
 20
18.095834
 30
0.0
 40
0.738862
 50
304.418763
 51
90.0
  0
CIRCLE
  8
0
 10
14.140809
 20
18.095834
 30
0.0
 40
0.205184
  0
CIRCLE
  8
0
 10
14.140809
 20
18.095834
 30
0.0
 40
0.297
  0
ARC
  8
0
 10
13.359078
 20
18.095834
 30
0.0
 40
0.62923
 50
154.589813
 51
205.410187
  0
LINE
  8
0
 10
12.729848
 20
17.603425
 30
0.0
 11
12.729848
 21
18.588244
 31
0.0
  0
LINE
  8
0
 10
13.121348
 20
17.507234
 30
0.0
 11
13.121348
 21
18.684434
 31
0.0
  0
ARC
  8
0
 10
14.140809
 20
18.095834
 30
0.0
 40
0.808
 50
90.0
 51
227.047722
  0
CIRCLE
  8
0
 10
14.140809
 20
18.095834
 30
0.0
 40
0.6156
  0
POLYLINE
  8
0
 66
     1
 10
0.0
 20
0.0
 30
0.0
 70
     1
  0
VERTEX
  8
0
 10
14.680809
 20
18.095834
 30
0.0
  0
VERTEX
  8
0
 10
14.410809
 20
18.563488
 30
0.0
  0
VERTEX
  8
0
 10
13.870809
 20
18.563488
 30
0.0
  0
VERTEX
  8
0
 10
13.600809
 20
18.095834
 30
0.0
  0
VERTEX
  8
0
 10
13.870809
 20
17.628181
 30
0.0
  0
VERTEX
  8
0
 10
14.410809
 20
17.628181
 30
0.0
  0
SEQEND
  8
0
  0
CIRCLE
  8
0
 10
14.140809
 20
18.095834
 30
0.0
 40
0.458452
  0
ARC
  8
0
 10
14.140809
 20
18.095834
 30
0.0
 40
0.738862
 50
90.0
 51
235.581237
  0
LINE
  8
0
 10
16.150809
 20
13.428834
 30
0.0
 11
16.150809
 21
19.928834
 31
0.0
  0
LINE
  8
0
 10
13.292348
 20
18.903834
 30
0.0
 11
13.292348
 21
14.453834
 31
0.0
  0
CIRCLE
  8
0
 10
14.140809
 20
15.261834
 30
0.0
 40
0.297
  0
CIRCLE
  8
0
 10
14.140809
 20
15.261834
 30
0.0
 40
0.205184
  0
CIRCLE
  8
0
 10
14.140809
 20
16.678834
 30
0.0
 40
0.297
  0
CIRCLE
  8
0
 10
14.140809
 20
16.678834
 30
0.0
 40
0.205184
  0
CIRCLE
  8
0
 10
14.140809
 20
16.678834
 30
0.0
 40
0.6156
  0
CIRCLE
  8
0
 10
14.140809
 20
15.261834
 30
0.0
 40
0.458452
  0
POLYLINE
  8
0
 66
     1
 10
0.0
 20
0.0
 30
0.0
 70
     1
  0
VERTEX
  8
0
 10
14.680809
 20
16.678834
 30
0.0
  0
VERTEX
  8
0
 10
14.410809
 20
17.146488
 30
0.0
  0
VERTEX
  8
0
 10
13.870809
 20
17.146488
 30
0.0
  0
VERTEX
  8
0
 10
13.600809
 20
16.678834
 30
0.0
  0
VERTEX
  8
0
 10
13.870809
 20
16.211181
 30
0.0
  0
VERTEX
  8
0
 10
14.410809
 20
16.211181
 30
0.0
  0
SEQEND
  8
0
  0
CIRCLE
  8
0
 10
14.140809
 20
16.678834
 30
0.0
 40
0.458452
  0
LINE
  8
0
 10
13.618928
 20
14.308834
 30
0.0
 11
14.662689
 21
14.308834
 31
0.0
  0
LINE
  8
0
 10
13.610809
 20
14.248834
 30
0.0
 11
14.670809
 21
14.248834
 31
0.0
  0
ARC
  8
0
 10
14.140809
 20
6.62447
 30
0.0
 40
0.62923
 50
64.589813
 51
115.410187
  0
LINE
  8
0
 10
14.633218
 20
7.2537
 30
0.0
 11
13.648399
 21
7.2537
 31
0.0
  0
LINE
  8
0
 10
14.756409
 20
6.8622
 30
0.0
 11
13.525209
 21
6.8622
 31
0.0
  0
LINE
  8
0
 10
13.362348
 20
6.63055
 30
0.0
 11
14.919269
 21
6.63055
 31
0.0
  0
LINE
  8
0
 10
13.422348
 20
6.69055
 30
0.0
 11
14.859269
 21
6.69055
 31
0.0
  0
CIRCLE
  8
0
 10
14.140809
 20
5.78355
 30
0.0
 40
0.28
  0
CIRCLE
  8
0
 10
14.140809
 20
5.78355
 30
0.0
 40
0.335
  0
ARC
  8
0
 10
14.140809
 20
5.78355
 30
0.0
 40
0.568196
 50
208.360313
 51
331.639687
  0
ARC
  8
0
 10
14.140809
 20
5.78355
 30
0.0
 40
0.5
 50
0.0
 51
180.0
  0
ARC
  8
0
 10
14.140809
 20
15.261834
 30
0.0
 40
0.808
 50
132.952278
 51
270.0
  0
CIRCLE
  8
0
 10
14.140809
 20
15.261834
 30
0.0
 40
0.6156
  0
POLYLINE
  8
0
 66
     1
 10
0.0
 20
0.0
 30
0.0
 70
     1
  0
VERTEX
  8
0
 10
14.680809
 20
15.261834
 30
0.0
  0
VERTEX
  8
0
 10
14.410809
 20
15.729488
 30
0.0
  0
VERTEX
  8
0
 10
13.870809
 20
15.729488
 30
0.0
  0
VERTEX
  8
0
 10
13.600809
 20
15.261834
 30
0.0
  0
VERTEX
  8
0
 10
13.870809
 20
14.794181
 30
0.0
  0
VERTEX
  8
0
 10
14.410809
 20
14.794181
 30
0.0
  0
SEQEND
  8
0
  0
ARC
  8
0
 10
14.140809
 20
15.261834
 30
0.0
 40
0.738862
 50
124.418763
 51
270.0
  0
LINE
  8
0
 10
3.569071
 20
4.59955
 30
0.0
 11
5.636627
 21
4.59955
 31
0.0
  0
LINE
  8
0
 10
3.513693
 20
4.992526
 30
0.0
 11
4.936693
 21
4.992526
 31
0.0
  0
LINE
  8
0
 10
3.513693
 20
4.206526
 30
0.0
 11
4.936693
 21
4.206526
 31
0.0
  0
LINE
  8
0
 10
1.999293
 20
6.69055
 30
0.0
 11
1.999293
 21
6.83455
 31
0.0
  0
LINE
  8
0
 10
0.768093
 20
6.69055
 30
0.0
 11
0.768093
 21
6.86155
 31
0.0
  0
LINE
  8
0
 10
0.582293
 20
6.69055
 30
0.0
 11
0.582293
 21
6.86155
 31
0.0
  0
LINE
  8
0
 10
2.331693
 20
6.37355
 30
0.0
 11
2.251693
 21
6.37355
 31
0.0
  0
ARC
  8
0
 10
2.190693
 20
6.336192
 30
0.0
 40
0.275
 50
4.850962
 51
84.547201
  0
LINE
  8
0
 62
     1
 10
3.131479
 20
5.78355
 30
0.0
 11
1.681906
 21
5.78355
 31
0.0
  0
ARC
  8
0
 10
0.483339
 20
-7.134905
 30
0.0
 40
13.853734
 50
82.81187
 51
82.916622
  0
LINE
  8
0
 10
2.191693
 20
6.43355
 30
0.0
 11
2.191693
 21
6.63055
 31
0.0
  0
ARC
  8
0
 10
2.251693
 20
6.43355
 30
0.0
 40
0.06
 50
180.0
 51
270.0
  0
LINE
  8
0
 10
2.191693
 20
6.63055
 30
0.0
 11
2.131693
 21
6.69055
 31
0.0
  0
ARC
  8
0
 10
0.675193
 20
5.466434
 30
0.0
 40
0.125
 50
41.409622
 51
138.590378
  0
ARC
  8
0
 10
0.675193
 20
5.225797
 30
0.0
 40
0.125
 50
221.409622
 51
318.590378
  0
ARC
  8
0
 10
2.309904
 20
5.644739
 30
0.0
 40
0.375
 50
180.0
 51
226.642747
  0
ARC
  8
0
 10
1.050193
 20
4.895078
 30
0.0
 40
0.375
 50
90.0
 51
138.590378
  0
ARC
  8
0
 10
1.050193
 20
5.797153
 30
0.0
 40
0.375
 50
221.409622
 51
255.665902
  0
LINE
  8
0
 10
1.934904
 20
5.780817
 30
0.0
 11
1.934904
 21
5.644739
 31
0.0
  0
ARC
  8
0
 10
1.755464
 20
5.046484
 30
0.0
 40
0.364825
 50
59.532532
 51
97.628855
  0
LINE
  8
0
 10
1.747555
 20
5.270078
 30
0.0
 11
1.050193
 21
5.270078
 31
0.0
  0
ARC
  8
0
 10
1.383693
 20
6.920517
 30
0.0
 40
1.546613
 50
253.998596
 51
282.06742
  0
ARC
  8
0
 10
1.747555
 20
4.895078
 30
0.0
 40
0.375
 50
0.0
 51
90.0
  0
ARC
  8
0
 10
1.747555
 20
5.049182
 30
0.0
 40
0.4441
 50
0.0
 51
46.642747
  0
LINE
  8
0
 10
0.675193
 20
5.708011
 30
0.0
 11
0.675193
 21
6.564539
 31
0.0
  0
ARC
  8
0
 10
2.735389
 20
5.78275
 30
0.0
 40
0.800488
 50
134.022776
 51
180.13838
  0
ARC
  8
0
 10
2.331693
 20
6.31355
 30
0.0
 40
0.06
 50
54.314665
 51
90.0
  0
ARC
  8
0
 10
2.392783
 20
6.434324
 30
0.0
 40
0.099928
 50
254.865235
 51
266.585396
  0
LINE
  8
0
 10
2.937693
 20
6.334574
 30
0.0
 11
2.759975
 21
6.334574
 31
0.0
  0
LINE
  8
0
 10
2.759975
 20
6.334574
 30
0.0
 11
2.386831
 21
6.334574
 31
0.0
  0
LINE
  8
0
 10
2.464707
 20
6.359447
 30
0.0
 11
2.464707
 21
6.334574
 31
0.0
  0
LINE
  8
0
 10
2.986693
 20
6.334526
 30
0.0
 11
2.613589
 21
6.334526
 31
0.0
  0
LINE
  8
0
 10
3.162693
 20
6.334526
 30
0.0
 11
2.986693
 21
6.334526
 31
0.0
  0
ARC
  8
0
 10
3.162693
 20
6.274526
 30
0.0
 40
0.06
 50
0.0
 51
90.0
  0
INSERT
  8
0
  2
100HST
 10
2.695522
 20
4.59955
 30
0.0
 41
-0.03937
 42
0.03937
 43
0.03937
  0
ARC
  8
0
 10
2.695522
 20
4.59955
 30
0.0
 40
0.44
 50
283.785061
 51
71.788972
  0
LINE
  8
0
 10
2.83303
 20
5.017511
 30
0.0
 11
2.366693
 21
5.170935
 31
0.0
  0
LINE
  8
0
 10
2.881693
 20
4.79955
 30
0.0
 11
2.879693
 21
4.79955
 31
0.0
  0
LINE
  8
0
 10
2.881693
 20
4.79955
 30
0.0
 11
2.879693
 21
4.79955
 31
0.0
  0
LINE
  8
0
 10
3.513693
 20
5.081526
 30
0.0
 11
3.483693
 21
5.111526
 31
0.0
  0
LINE
  8
0
 10
3.350693
 20
5.111526
 30
0.0
 11
3.483693
 21
5.111526
 31
0.0
  0
ARC
  8
0
 10
3.270693
 20
5.532526
 30
0.0
 40
0.048
 50
189.321682
 51
270.0
  0
LINE
  8
0
 10
3.290693
 20
5.484526
 30
0.0
 11
3.270693
 21
5.484526
 31
0.0
  0
LINE
  8
OBJ
 10
3.467709
 20
5.532335
 30
0.0
 11
3.444489
 21
5.515182
 31
0.0
  0
ARC
  8
OBJ
 10
3.410489
 20
5.561204
 30
0.0
 40
0.057219
 50
289.954678
 51
70.045322
  0
LINE
  8
OBJ
 10
3.270501
 20
5.942473
 30
0.0
 11
3.270501
 21
5.50742
 31
0.0
  0
LINE
  8
OBJ
  6
CENTER2
 10
3.222693
 20
5.524751
 30
0.0
 11
3.270501
 21
5.524751
 31
0.0
  0
LINE
  8
OBJ
  6
CONTINUOUS
 10
3.270501
 20
5.50742
 30
0.0
 11
3.430017
 21
5.50742
 31
0.0
  0
LINE
  8
OBJ
  6
CENTER2
 10
3.222693
 20
5.925143
 30
0.0
 11
3.270501
 21
5.925143
 31
0.0
  0
LINE
  8
OBJ
 10
3.222693
 20
5.773339
 30
0.0
 11
3.270501
 21
5.821147
 31
0.0
  0
LINE
  8
OBJ
  6
CONTINUOUS
 10
3.270501
 20
5.614988
 30
0.0
 11
3.430017
 21
5.614988
 31
0.0
  0
LINE
  8
OBJ
  6
CONTINUOUS
 10
3.270501
 20
5.834905
 30
0.0
 11
3.430017
 21
5.834905
 31
0.0
  0
LINE
  8
OBJ
  6
CONTINUOUS
 10
3.270501
 20
5.942473
 30
0.0
 11
3.430017
 21
5.942473
 31
0.0
  0
ARC
  8
OBJ
 10
3.410489
 20
5.888689
 30
0.0
 40
0.057219
 50
289.954678
 51
70.045322
  0
LINE
  8
OBJ
 10
3.467709
 20
5.917558
 30
0.0
 11
3.467709
 21
5.834905
 31
0.0
  0
LINE
  8
OBJ
 10
3.467709
 20
5.917558
 30
0.0
 11
3.444489
 21
5.934712
 31
0.0
  0
LINE
  8
OBJ
 10
3.467709
 20
5.614988
 30
0.0
 11
3.467709
 21
5.532335
 31
0.0
  0
ARC
  8
OBJ
 10
3.288471
 20
5.724947
 30
0.0
 40
0.179237
 50
322.158498
 51
37.841502
  0
LINE
  8
OBJ
 10
3.467709
 20
5.834905
 30
0.0
 11
3.467709
 21
5.614988
 31
0.0
  0
ARC
  8
0
 10
3.290693
 20
5.424526
 30
0.0
 40
0.06
 50
0.0
 51
90.0
  0
LINE
  8
0
 10
2.366693
 20
6.362284
 30
0.0
 11
2.366693
 21
4.266909
 31
0.0
  0
LINE
  8
0
 10
2.986693
 20
6.334526
 30
0.0
 11
2.986693
 21
4.929429
 31
0.0
  0
ARC
  8
OBJ
 10
0.79431
 20
6.645444
 30
0.0
 40
0.361106
 50
82.139963
 51
142.420482
  0
LINE
  8
OBJ
  6
CONTINUOUS
 10
0.506693
 20
7.00655
 30
0.0
 11
0.843693
 21
7.00655
 31
0.0
  0
ARC
  8
OBJ
 10
0.686693
 20
7.031205
 30
0.0
 40
0.06
 50
0.0
 51
79.786344
  0
LINE
  8
0
 10
1.972293
 20
6.86155
 30
0.0
 11
0.768093
 21
6.86155
 31
0.0
  0
ARC
  8
0
 10
1.972293
 20
6.83455
 30
0.0
 40
0.027
 50
0.0
 51
90.0
  0
ARC
  8
0
 10
0.834693
 20
6.87055
 30
0.0
 40
0.009
 50
270.0
 51
0.0
  0
LINE
  8
OBJ
 10
0.746693
 20
7.00655
 30
0.0
 11
0.746693
 21
7.031205
 31
0.0
  0
LINE
  8
0
 10
0.843693
 20
6.87055
 30
0.0
 11
0.843693
 21
7.192177
 31
0.0
  0
ARC
  8
0
 10
1.104693
 20
6.87055
 30
0.0
 40
0.009
 50
270.0
 51
0.0
  0
ARC
  8
0
 10
1.122693
 20
6.87055
 30
0.0
 40
0.009
 50
180.0
 51
270.0
  0
LINE
  8
0
 10
1.113693
 20
6.87055
 30
0.0
 11
1.113693
 21
7.192177
 31
0.0
  0
ARC
  8
0
 10
0.978693
 20
7.072915
 30
0.0
 40
0.180135
 50
41.458173
 51
138.541827
  0
LINE
  8
0
 10
0.843693
 20
7.192177
 30
0.0
 11
0.891283
 21
7.25305
 31
0.0
  0
ARC
  8
0
 10
1.932693
 20
6.87055
 30
0.0
 40
0.009
 50
180.0
 51
270.0
  0
ARC
  8
0
 10
1.644693
 20
6.87055
 30
0.0
 40
0.009
 50
270.0
 51
0.0
  0
ARC
  8
0
 10
1.662693
 20
6.87055
 30
0.0
 40
0.009
 50
180.0
 51
270.0
  0
LINE
  8
0
 10
1.923693
 20
6.87055
 30
0.0
 11
1.923693
 21
7.192177
 31
0.0
  0
LINE
  8
0
 10
1.653693
 20
6.87055
 30
0.0
 11
1.653693
 21
7.192177
 31
0.0
  0
ARC
  8
0
 10
1.788693
 20
7.072915
 30
0.0
 40
0.180135
 50
41.458173
 51
138.541827
  0
LINE
  8
0
 10
1.923693
 20
7.192177
 30
0.0
 11
1.876102
 21
7.25305
 31
0.0
  0
ARC
  8
0
 10
1.383693
 20
6.62382
 30
0.0
 40
0.62923
 50
64.589813
 51
115.410187
  0
LINE
  8
0
 10
1.876102
 20
7.25305
 30
0.0
 11
0.891283
 21
7.25305
 31
0.0
  0
ARC
  8
0
 10
0.515693
 20
6.87055
 30
0.0
 40
0.009
 50
180.0
 51
270.0
  0
ARC
  8
OBJ
 10
-0.033307
 20
3.035078
 30
0.0
 40
4.120471
 50
79.786344
 51
82.469557
  0
LINE
  8
0
 10
0.506693
 20
6.87055
 30
0.0
 11
0.506693
 21
7.192177
 31
0.0
  0
LINE
  8
0
 10
0.506693
 20
7.192177
 30
0.0
 11
0.459102
 21
7.25305
 31
0.0
  0
LINE
  8
0
 10
13.525209
 20
6.6912
 30
0.0
 11
13.525209
 21
6.8622
 31
0.0
  0
LINE
  8
0
 10
4.936693
 20
4.206526
 30
0.0
 11
4.936693
 21
4.992526
 31
0.0
  0
LINE
  8
0
 10
4.966693
 20
4.962526
 30
0.0
 11
4.966693
 21
4.236526
 31
0.0
  0
LINE
  8
0
 10
4.936693
 20
4.992526
 30
0.0
 11
4.966693
 21
4.962526
 31
0.0
  0
LINE
  8
0
 10
13.362348
 20
6.63055
 30
0.0
 11
13.422348
 21
6.69055
 31
0.0
  0
LINE
  8
0
 10
13.292348
 20
5.270078
 30
0.0
 11
13.352097
 21
5.3587
 31
0.0
  0
ARC
  8
0
 10
13.302348
 20
5.392241
 30
0.0
 40
0.06
 50
326.011951
 51
0.0
  0
ARC
  8
0
 10
13.285699
 20
5.023041
 30
0.0
 40
0.358292
 50
21.83808
 51
72.561373
  0
LINE
  8
0
 10
13.362348
 20
6.63055
 30
0.0
 11
13.362348
 21
5.392241
 31
0.0
  0
LINE
  8
0
 10
13.870809
 20
6.8712
 30
0.0
 11
13.870809
 21
7.192827
 31
0.0
  0
ARC
  8
0
 10
13.879809
 20
6.8712
 30
0.0
 40
0.009
 50
180.0
 51
270.0
  0
ARC
  8
0
 10
13.861809
 20
6.8712
 30
0.0
 40
0.009
 50
270.0
 51
0.0
  0
LINE
  8
0
 10
13.600809
 20
7.192827
 30
0.0
 11
13.648399
 21
7.2537
 31
0.0
  0
LINE
  8
0
 10
13.600809
 20
6.8712
 30
0.0
 11
13.600809
 21
7.192827
 31
0.0
  0
ARC
  8
0
 10
13.591809
 20
6.8712
 30
0.0
 40
0.009
 50
270.0
 51
0.0
  0
ARC
  8
0
 10
13.735809
 20
7.073565
 30
0.0
 40
0.180135
 50
41.458173
 51
138.541827
  0
TEXT
  8
0
 10
6.334026
 20
9.416132
 30
0.0
 40
0.5
  1
MODEL 341
  7
ROMAND
  0
ARC
  8
0
 10
13.359078
 20
15.261834
 30
0.0
 40
0.62923
 50
154.589813
 51
205.410187
  0
LINE
  8
0
 10
12.729848
 20
15.754244
 30
0.0
 11
12.729848
 21
14.769425
 31
0.0
  0
LINE
  8
0
 10
13.121348
 20
15.850434
 30
0.0
 11
13.121348
 21
14.673234
 31
0.0
  0
POINT
  8
DEFPOINTS
  6
BYBLOCK
 62
     0
 10
12.729848
 20
15.261834
 30
0.0
  0
LINE
  8
0
 10
13.112348
 20
14.991834
 30
0.0
 11
12.79072
 21
14.991834
 31
0.0
  0
ARC
  8
0
 10
13.112348
 20
14.982834
 30
0.0
 40
0.009
 50
360.0
 51
90.0
  0
ARC
  8
0
 10
13.112348
 20
15.000834
 30
0.0
 40
0.009
 50
270.0
 51
360.0
  0
LINE
  8
0
 10
13.550809
 20
14.308834
 30
0.0
 11
13.550809
 21
14.70978
 31
0.0
  0
ARC
  8
0
 10
13.610809
 20
14.308834
 30
0.0
 40
0.06
 50
180.0
 51
270.0
  0
LINE
  8
0
 10
13.292348
 20
14.453834
 30
0.0
 11
13.550809
 21
14.453834
 31
0.0
  0
LINE
  8
0
 10
13.121348
 20
14.673234
 30
0.0
 11
13.292348
 21
14.673234
 31
0.0
  0
LINE
  8
0
 10
12.79072
 20
14.721834
 30
0.0
 11
12.729848
 21
14.769425
 31
0.0
  0
LINE
  8
0
 10
13.121348
 20
14.721834
 30
0.0
 11
12.79072
 21
14.721834
 31
0.0
  0
ARC
  8
0
 10
13.678928
 20
14.308834
 30
0.0
 40
0.06
 50
180.0
 51
270.0
  0
ARC
  8
0
 10
12.909983
 20
14.856834
 30
0.0
 40
0.180135
 50
131.458173
 51
228.541827
  0
LINE
  8
0
 10
13.292348
 20
17.480234
 30
0.0
 11
13.148348
 21
17.480234
 31
0.0
  0
LINE
  8
0
 10
12.79072
 20
17.555834
 30
0.0
 11
12.729848
 21
17.603425
 31
0.0
  0
ARC
  8
0
 10
12.909983
 20
17.690834
 30
0.0
 40
0.180135
 50
131.458173
 51
228.541827
  0
ARC
  8
0
 10
13.112348
 20
17.834834
 30
0.0
 40
0.009
 50
270.0
 51
0.0
  0
LINE
  8
0
 10
13.112348
 20
17.825834
 30
0.0
 11
12.79072
 21
17.825834
 31
0.0
  0
LINE
  8
0
 10
13.112348
 20
17.555834
 30
0.0
 11
12.79072
 21
17.555834
 31
0.0
  0
ARC
  8
0
 10
13.112348
 20
17.816834
 30
0.0
 40
0.009
 50
0.0
 51
90.0
  0
ARC
  8
0
 10
13.112348
 20
17.546834
 30
0.0
 40
0.009
 50
360.0
 51
90.0
  0
ARC
  8
0
 10
13.148348
 20
17.507234
 30
0.0
 40
0.027
 50
180.0
 51
270.0
  0
ARC
  8
0
 10
13.30141
 20
17.655386
 30
0.0
 40
0.139945
 50
284.18289
 51
28.237655
  0
LINE
  8
0
 10
13.509183
 20
17.519706
 30
0.0
 11
13.371782
 21
17.519706
 31
0.0
  0
ARC
  8
0
 10
13.30141
 20
17.119283
 30
0.0
 40
0.139945
 50
331.762345
 51
75.81711
  0
LINE
  8
0
 10
12.79072
 20
17.218834
 30
0.0
 11
12.729848
 21
17.171244
 31
0.0
  0
LINE
  8
0
 10
13.121348
 20
16.090234
 30
0.0
 11
13.121348
 21
17.267434
 31
0.0
  0
ARC
  8
0
 10
12.909983
 20
17.083834
 30
0.0
 40
0.180135
 50
131.458173
 51
228.541827
  0
ARC
  8
0
 10
14.140809
 20
16.678834
 30
0.0
 40
0.738862
 50
124.418763
 51
235.581237
  0
LINE
  8
0
 10
13.292348
 20
17.294434
 30
0.0
 11
13.148348
 21
17.294434
 31
0.0
  0
LINE
  8
0
 10
13.112348
 20
17.218834
 30
0.0
 11
12.79072
 21
17.218834
 31
0.0
  0
ARC
  8
0
 10
13.112348
 20
17.227834
 30
0.0
 40
0.009
 50
270.0
 51
0.0
  0
ARC
  8
0
 10
13.148348
 20
17.267434
 30
0.0
 40
0.027
 50
90.0
 51
180.0
  0
LINE
  8
0
 10
13.292348
 20
16.063234
 30
0.0
 11
13.148348
 21
16.063234
 31
0.0
  0
ARC
  8
0
 10
12.909983
 20
16.273834
 30
0.0
 40
0.180135
 50
131.458173
 51
228.541827
  0
LINE
  8
0
 10
12.729848
 20
16.186425
 30
0.0
 11
12.729848
 21
17.171244
 31
0.0
  0
ARC
  8
0
 10
13.359078
 20
16.678834
 30
0.0
 40
0.62923
 50
154.589813
 51
205.410187
  0
LINE
  8
0
 10
13.112348
 20
16.408834
 30
0.0
 11
12.79072
 21
16.408834
 31
0.0
  0
ARC
  8
0
 10
13.112348
 20
16.417834
 30
0.0
 40
0.009
 50
270.0
 51
0.0
  0
ARC
  8
0
 10
13.112348
 20
16.399834
 30
0.0
 40
0.009
 50
0.0
 51
90.0
  0
LINE
  8
0
 10
13.112348
 20
16.948834
 30
0.0
 11
12.79072
 21
16.948834
 31
0.0
  0
ARC
  8
0
 10
13.112348
 20
16.957834
 30
0.0
 40
0.009
 50
270.0
 51
0.0
  0
ARC
  8
0
 10
13.112348
 20
16.939834
 30
0.0
 40
0.009
 50
0.0
 51
90.0
  0
LINE
  8
0
 10
12.79072
 20
16.138834
 30
0.0
 11
12.729848
 21
16.186425
 31
0.0
  0
LINE
  8
0
 10
13.112348
 20
16.138834
 30
0.0
 11
12.79072
 21
16.138834
 31
0.0
  0
ARC
  8
0
 10
13.112348
 20
16.129834
 30
0.0
 40
0.009
 50
360.0
 51
90.0
  0
ARC
  8
0
 10
13.148348
 20
16.090234
 30
0.0
 40
0.027
 50
180.0
 51
270.0
  0
ARC
  8
0
 10
14.140809
 20
16.678834
 30
0.0
 40
0.808
 50
132.952278
 51
227.047722
  0
LINE
  8
0
 10
13.509183
 20
17.254963
 30
0.0
 11
13.371782
 21
17.254963
 31
0.0
  0
ARC
  8
0
 10
13.481224
 20
15.970334
 30
0.0
 40
0.16
 50
312.952278
 51
47.047722
  0
ARC
  8
0
 10
13.655348
 20
15.970334
 30
0.0
 40
0.12
 50
304.418763
 51
55.581237
  0
LINE
  8
0
 10
13.509183
 20
15.837963
 30
0.0
 11
13.371782
 21
15.837963
 31
0.0
  0
ARC
  8
0
 10
13.30141
 20
16.238386
 30
0.0
 40
0.139945
 50
284.18289
 51
28.237655
  0
LINE
  8
0
 10
13.509183
 20
16.102706
 30
0.0
 11
13.371782
 21
16.102706
 31
0.0
  0
ARC
  8
0
 10
13.30141
 20
15.702283
 30
0.0
 40
0.139945
 50
331.762345
 51
75.81711
  0
LINE
  8
0
 10
13.292348
 20
15.877434
 30
0.0
 11
13.148348
 21
15.877434
 31
0.0
  0
LINE
  8
0
 10
12.79072
 20
15.801834
 30
0.0
 11
12.729848
 21
15.754244
 31
0.0
  0
ARC
  8
0
 10
12.909983
 20
15.666834
 30
0.0
 40
0.180135
 50
131.458173
 51
228.541827
  0
ARC
  8
0
 10
13.112348
 20
15.522834
 30
0.0
 40
0.009
 50
360.0
 51
90.0
  0
LINE
  8
0
 10
13.112348
 20
15.531834
 30
0.0
 11
12.79072
 21
15.531834
 31
0.0
  0
LINE
  8
0
 10
13.112348
 20
15.801834
 30
0.0
 11
12.79072
 21
15.801834
 31
0.0
  0
ARC
  8
0
 10
13.112348
 20
15.540834
 30
0.0
 40
0.009
 50
270.0
 51
360.0
  0
ARC
  8
0
 10
13.112348
 20
15.810834
 30
0.0
 40
0.009
 50
270.0
 51
0.0
  0
ARC
  8
0
 10
13.148348
 20
15.850434
 30
0.0
 40
0.027
 50
90.0
 51
180.0
  0
ARC
  8
0
 10
13.481224
 20
17.387334
 30
0.0
 40
0.16
 50
312.952278
 51
47.047722
  0
ARC
  8
0
 10
13.655348
 20
17.387334
 30
0.0
 40
0.12
 50
304.418763
 51
55.581237
  0
LINE
  8
0
 10
21.55776
 20
13.131834
 30
0.0
 11
21.55776
 21
11.708834
 31
0.0
  0
ARC
  8
OBJ
 10
18.220784
 20
5.707277
 30
0.0
 40
1.252272
 50
63.858144
 51
116.141856
  0
LINE
  8
OBJ
  6
CONTINUOUS
 10
17.669039
 20
6.95955
 30
0.0
 11
18.772529
 21
6.95955
 31
0.0
  0
ARC
  8
OBJ
 10
18.220784
 20
2.988078
 30
0.0
 40
4.120471
 50
79.786344
 51
100.213656
  0
LINE
  8
0
 10
17.334784
 20
6.59955
 30
0.0
 11
19.106784
 21
6.59955
 31
0.0
  0
LINE
  8
OBJ
  6
CONTINUOUS
 10
17.117294
 20
6.59955
 30
0.0
 11
19.324274
 21
6.59955
 31
0.0
  0
POLYLINE
  8
0
 66
     1
 10
0.0
 20
0.0
 30
0.0
  0
VERTEX
  8
0
 10
17.894452
 20
4.68955
 30
0.0
 42
0.057659
  0
VERTEX
  8
0
 10
17.830563
 20
4.682158
 30
0.0
 42
0.071332
  0
VERTEX
  8
0
 10
17.782062
 20
4.663189
 30
0.0
 42
0.1064
 70
     2
 50
209.52021
  0
VERTEX
  8
0
 10
17.745739
 20
4.630865
 30
0.0
 42
0.159217
 50
209.52021
  0
VERTEX
  8
0
 10
17.735508
 20
4.59955
 30
0.0
 42
0.159217
  0
VERTEX
  8
0
 10
17.745739
 20
4.568235
 30
0.0
 42
0.1064
  0
VERTEX
  8
0
 10
17.782062
 20
4.53591
 30
0.0
 42
0.071332
 70
     2
 50
330.47979
  0
VERTEX
  8
0
 10
17.830563
 20
4.516942
 30
0.0
 42
0.057659
 50
330.47979
  0
VERTEX
  8
0
 10
17.894452
 20
4.50955
 30
0.0
 42
0.057659
  0
SEQEND
  8
0
  0
POLYLINE
  8
0
 66
     1
 10
0.0
 20
0.0
 30
0.0
  0
VERTEX
  8
0
 10
18.07
 20
4.714718
 30
0.0
 42
0.053685
  0
VERTEX
  8
0
 10
18.036935
 20
4.791448
 30
0.0
 42
0.106369
  0
VERTEX
  8
0
 10
17.877706
 20
4.970781
 30
0.0
 42
0.084666
 70
     2
 50
143.745109
  0
VERTEX
  8
0
 10
17.654279
 20
5.082548
 30
0.0
 42
0.073861
 50
143.745109
  0
VERTEX
  8
0
 10
17.371502
 20
5.12455
 30
0.0
 42
0.073861
  0
SEQEND
  8
0
  0
ARC
  8
0
 10
17.591248
 20
9.510687
 30
0.0
 40
3.584737
 50
266.66035
 51
294.839996
  0
LINE
  8
OBJ
 10
17.669039
 20
6.83145
 30
0.0
 11
17.669039
 21
6.59955
 31
0.0
  0
LINE
  8
OBJ
 10
17.117294
 20
6.83145
 30
0.0
 11
17.117294
 21
6.59955
 31
0.0
  0
LINE
  8
0
 10
14.756409
 20
6.6912
 30
0.0
 11
14.756409
 21
6.8622
 31
0.0
  0
ARC
  8
0
 10
15.810809
 20
5.34955
 30
0.0
 40
0.06
 50
270.0
 51
0.0
  0
ARC
  8
0
 10
15.930809
 20
5.47955
 30
0.0
 40
0.06
 50
90.0
 51
170.405932
  0
ARC
  8
0
 10
15.812487
 20
5.49955
 30
0.0
 40
0.06
 50
270.0
 51
350.405932
  0
ARC
  8
0
 10
15.930809
 20
5.280897
 30
0.0
 40
0.06
 50
180.0
 51
270.0
  0
LINE
  8
0
 10
14.919269
 20
6.63055
 30
0.0
 11
14.859269
 21
6.69055
 31
0.0
  0
LINE
  8
0
 10
15.870809
 20
5.280897
 30
0.0
 11
15.870809
 21
5.485458
 31
0.0
  0
LINE
  8
0
 10
14.987109
 20
4.32396
 30
0.0
 11
14.987109
 21
4.87514
 31
0.0
  0
LINE
  8
0
 10
15.380809
 20
4.18459
 30
0.0
 11
15.380809
 21
5.01451
 31
0.0
  0
LINE
  8
0
 10
15.480809
 20
4.18459
 30
0.0
 11
15.480809
 21
5.01451
 31
0.0
  0
LINE
  8
0
 10
15.026479
 20
4.28459
 30
0.0
 11
15.026479
 21
4.91451
 31
0.0
  0
LINE
  8
0
 10
15.380809
 20
4.18459
 30
0.0
 11
15.480809
 21
4.18459
 31
0.0
  0
LINE
  8
0
 10
15.026479
 20
4.28459
 30
0.0
 11
15.380808
 21
4.28459
 31
0.0
  0
LINE
  8
0
 10
14.987109
 20
4.32396
 30
0.0
 11
15.026479
 21
4.28459
 31
0.0
  0
LINE
  8
0
 10
15.480809
 20
4.73349
 30
0.0
 11
15.380809
 21
4.570481
 31
0.0
  0
LINE
  8
0
 10
15.380809
 20
5.01451
 30
0.0
 11
15.480809
 21
5.01451
 31
0.0
  0
LINE
  8
0
 10
15.026479
 20
4.91451
 30
0.0
 11
14.987109
 21
4.87514
 31
0.0
  0
LINE
  8
0
 10
15.026479
 20
4.91451
 30
0.0
 11
15.380809
 21
4.91451
 31
0.0
  0
ARC
  8
0
 10
15.169269
 20
5.68955
 30
0.0
 40
0.25
 50
180.0
 51
270.0
  0
ARC
  8
0
 10
15.540809
 20
5.22955
 30
0.0
 40
0.06
 50
90.0
 51
180.0
  0
LINE
  8
0
 10
15.169269
 20
5.43955
 30
0.0
 11
15.812487
 21
5.43955
 31
0.0
  0
LINE
  8
0
 10
15.540809
 20
5.28955
 30
0.0
 11
15.810809
 21
5.28955
 31
0.0
  0
LINE
  8
0
 10
14.919269
 20
6.63055
 30
0.0
 11
14.919269
 21
5.68955
 31
0.0
  0
LINE
  8
OBJ
 10
17.398784
 20
6.59955
 30
0.0
 11
17.398784
 21
6.59855
 31
0.0
  0
ARC
  8
0
 10
17.234784
 20
6.043077
 30
0.0
 40
0.1
 50
281.619765
 51
0.0
  0
ARC
  8
0
 10
24.143307
 20
-25.120783
 30
0.0
 40
31.820442
 50
102.496643
 51
104.407712
  0
LINE
  8
0
 10
15.930809
 20
5.53955
 30
0.0
 11
16.150809
 21
5.53955
 31
0.0
  0
LINE
  8
0
 10
15.930809
 20
5.220897
 30
0.0
 11
16.150809
 21
5.220897
 31
0.0
  0
LINE
  8
0
 10
16.19569
 20
5.627281
 30
0.0
 11
16.19569
 21
5.660154
 31
0.0
  0
ARC
  8
0
 10
16.190809
 20
5.555401
 30
0.0
 40
0.04
 50
116.039194
 51
180.0
  0
ARC
  8
0
 10
16.15569
 20
5.627281
 30
0.0
 40
0.04
 50
296.039194
 51
0.0
  0
ARC
  8
0
 10
16.23569
 20
5.660154
 30
0.0
 40
0.04
 50
104.407712
 51
180.0
  0
LINE
  8
0
 10
16.150809
 20
5.12455
 30
0.0
 11
17.371502
 21
5.12455
 31
0.0
  0
LINE
  8
0
 10
16.19569
 20
5.627281
 30
0.0
 11
16.19569
 21
5.12455
 31
0.0
  0
LINE
  8
0
 10
17.334784
 20
6.59955
 30
0.0
 11
17.334784
 21
6.043077
 31
0.0
  0
LINE
  8
0
 10
14.680809
 20
7.192827
 30
0.0
 11
14.633218
 21
7.2537
 31
0.0
  0
ARC
  8
0
 10
14.545809
 20
7.073565
 30
0.0
 40
0.180135
 50
41.458173
 51
138.541827
  0
LINE
  8
0
 10
14.410809
 20
6.8712
 30
0.0
 11
14.410809
 21
7.192827
 31
0.0
  0
LINE
  8
0
 10
14.680809
 20
6.8712
 30
0.0
 11
14.680809
 21
7.192827
 31
0.0
  0
ARC
  8
0
 10
14.419809
 20
6.8712
 30
0.0
 40
0.009
 50
180.0
 51
270.0
  0
ARC
  8
0
 10
14.401809
 20
6.8712
 30
0.0
 40
0.009
 50
270.0
 51
0.0
  0
ARC
  8
0
 10
14.689809
 20
6.8712
 30
0.0
 40
0.009
 50
180.0
 51
270.0
  0
LINE
  8
OBJ
 10
17.440784
 20
6.95955
 30
0.0
 11
17.440784
 21
6.984205
 31
0.0
  0
ARC
  8
OBJ
 10
17.500784
 20
6.984205
 30
0.0
 40
0.06
 50
100.213656
 51
180.0
  0
LINE
  8
OBJ
 10
17.117294
 20
6.83145
 30
0.0
 11
17.240786
 21
6.95955
 31
0.0
  0
LINE
  8
OBJ
  6
CONTINUOUS
 10
17.240786
 20
6.95955
 30
0.0
 11
17.669039
 21
6.95955
 31
0.0
  0
ARC
  8
OBJ
 10
17.393167
 20
6.598444
 30
0.0
 40
0.361106
 50
40.184879
 51
139.815121
  0
LINE
  8
OBJ
 10
19.324274
 20
6.83145
 30
0.0
 11
19.324274
 21
6.59955
 31
0.0
  0
LINE
  8
OBJ
 10
18.772529
 20
6.83145
 30
0.0
 11
18.772529
 21
6.59955
 31
0.0
  0
LINE
  8
0
 10
17.894452
 20
4.68955
 30
0.0
 11
20.180527
 21
4.68955
 31
0.0
  0
LINE
  8
0
 10
17.894452
 20
4.50955
 30
0.0
 11
20.180527
 21
4.50955
 31
0.0
  0
LINE
  8
0
 10
19.106784
 20
6.59955
 30
0.0
 11
19.106784
 21
6.415626
 31
0.0
  0
ARC
  8
0
 10
19.206784
 20
6.415626
 30
0.0
 40
0.1
 50
180.0
 51
279.408996
  0
LINE
  8
OBJ
 10
19.042784
 20
6.59955
 30
0.0
 11
19.042784
 21
6.59855
 31
0.0
  0
ARC
  8
0
 10
18.107149
 20
4.46955
 30
0.0
 40
0.04
 50
90.0
 51
158.236037
  0
ARC
  8
0
 10
18.107149
 20
4.72955
 30
0.0
 40
0.04
 50
201.763963
 51
270.0
  0
CIRCLE
  8
0
 10
20.907095
 20
5.643239
 30
0.0
 40
0.225167
  0
INSERT
  8
0
  2
CVRSCR
 10
20.907095
 20
5.643239
 30
0.0
  0
ARC
  8
0
 10
20.180527
 20
4.72955
 30
0.0
 40
0.04
 50
270.0
 51
355.799986
  0
ARC
  8
0
 10
20.180527
 20
4.46955
 30
0.0
 40
0.04
 50
4.200014
 51
90.0
  0
ARC
  8
OBJ
 10
19.048402
 20
6.598444
 30
0.0
 40
0.361106
 50
40.184879
 51
139.815121
  0
LINE
  8
OBJ
  6
CONTINUOUS
 10
18.772529
 20
6.95955
 30
0.0
 11
19.200783
 21
6.95955
 31
0.0
  0
LINE
  8
OBJ
 10
19.324274
 20
6.83145
 30
0.0
 11
19.200783
 21
6.95955
 31
0.0
  0
ARC
  8
OBJ
 10
18.940784
 20
6.984205
 30
0.0
 40
0.06
 50
0.0
 51
79.786344
  0
LINE
  8
OBJ
 10
19.000784
 20
6.95955
 30
0.0
 11
19.000784
 21
6.984205
 31
0.0
  0
LINE
  8
0
 10
21.55776
 20
11.708834
 30
0.0
 11
21.58776
 21
11.678834
 31
0.0
  0
LINE
  8
OBJ
 10
18.783284
 20
17.653113
 30
0.0
 11
17.658284
 21
17.653113
 31
0.0
  0
LINE
  8
OBJ
 10
17.658284
 20
15.704556
 30
0.0
 11
18.783284
 21
15.704556
 31
0.0
  0
CIRCLE
  8
OBJ
 10
18.220784
 20
16.678834
 30
0.0
 40
0.864576
  0
LINE
  8
0
 10
18.050728
 20
14.292103
 30
0.0
 11
17.24438
 21
13.558901
 31
0.0
  0
LINE
  8
0
 10
20.097624
 20
13.933323
 30
0.0
 11
17.679356
 21
13.933323
 31
0.0
  0
CIRCLE
  8
0
 10
16.530335
 20
15.261834
 30
0.0
 40
0.104029
  0
CIRCLE
  8
0
 10
14.140809
 20
15.261834
 30
0.0
 40
0.143629
  0
ARC
  8
0
 10
14.140809
 20
15.261834
 30
0.0
 40
0.738862
 50
270.0
 51
55.581237
  0
ARC
  8
0
 10
14.140809
 20
15.261834
 30
0.0
 40
0.808
 50
270.0
 51
47.047722
  0
ARC
  8
0
 10
15.890809
 20
15.238834
 30
0.0
 40
0.03
 50
90.0
 51
180.0
  0
LINE
  8
0
 10
16.908004
 20
13.428834
 30
0.0
 11
15.480809
 21
13.428834
 31
0.0
  0
ARC
  8
0
 10
15.810089
 20
14.507302
 30
0.0
 40
0.05072
 50
270.0
 51
0.0
  0
ARC
  8
0
 10
15.810089
 20
14.507302
 30
0.0
 40
0.05072
 50
270.0
 51
0.0
  0
LINE
  8
0
 10
14.987109
 20
13.647344
 30
0.0
 11
15.026479
 21
13.607974
 31
0.0
  0
LINE
  8
0
 10
15.026479
 20
13.607974
 30
0.0
 11
15.026479
 21
14.237894
 31
0.0
  0
LINE
  8
0
 10
15.480809
 20
13.507974
 30
0.0
 11
15.480809
 21
14.337894
 31
0.0
  0
LINE
  8
0
 10
15.380809
 20
13.507974
 30
0.0
 11
15.380809
 21
14.337894
 31
0.0
  0
LINE
  8
0
 10
14.730809
 20
14.308834
 30
0.0
 11
14.730809
 21
14.70978
 31
0.0
  0
LINE
  8
0
 10
15.026479
 20
14.237894
 30
0.0
 11
15.380809
 21
14.237894
 31
0.0
  0
LINE
  8
0
 10
15.026479
 20
14.237894
 30
0.0
 11
14.987109
 21
14.198524
 31
0.0
  0
LINE
  8
0
 10
15.380809
 20
14.337894
 30
0.0
 11
15.480809
 21
14.337894
 31
0.0
  0
LINE
  8
0
 10
14.987109
 20
13.647344
 30
0.0
 11
14.987109
 21
14.198524
 31
0.0
  0
LINE
  8
0
 10
15.480809
 20
14.056875
 30
0.0
 11
15.380809
 21
13.893866
 31
0.0
  0
LINE
  8
0
 10
15.026479
 20
13.607974
 30
0.0
 11
15.380808
 21
13.607974
 31
0.0
  0
LINE
  8
0
 10
15.380809
 20
13.507974
 30
0.0
 11
15.480809
 21
13.507974
 31
0.0
  0
POINT
  8
DEFPOINTS
  6
BYBLOCK
 62
     0
 10
15.375809
 20
13.548834
 30
0.0
  0
ARC
  8
0
 10
14.670809
 20
14.308834
 30
0.0
 40
0.06
 50
270.0
 51
0.0
  0
ARC
  8
0
 10
14.602689
 20
14.308834
 30
0.0
 40
0.06
 50
270.0
 51
360.0
  0
LINE
  8
0
 10
15.480809
 20
13.428834
 30
0.0
 11
15.480809
 21
14.715371
 31
0.0
  0
LINE
  8
OBJ
 10
15.426908
 20
14.398834
 30
0.0
 11
14.730809
 21
14.398834
 31
0.0
  0
ARC
  8
0
 10
15.426908
 20
14.344933
 30
0.0
 40
0.053901
 50
0.0
 51
90.0
  0
ARC
  8
0
 10
15.531528
 20
14.715371
 30
0.0
 40
0.05072
 50
90.0
 51
180.0
  0
LINE
  8
0
 10
15.531528
 20
14.766091
 30
0.0
 11
15.810089
 21
14.766091
 31
0.0
  0
LINE
  8
0
 10
15.860809
 20
14.507302
 30
0.0
 11
15.860809
 21
15.238834
 31
0.0
  0
ARC
  8
0
 10
15.810089
 20
14.816811
 30
0.0
 40
0.05072
 50
270.0
 51
0.0
  0
LINE
  8
OBJ
 10
15.970809
 20
15.268834
 30
0.0
 11
15.890809
 21
15.268834
 31
0.0
  0
ARC
  8
0
 10
17.679356
 20
13.873323
 30
0.0
 40
0.06
 50
90.0
 51
132.279853
  0
ARC
  8
0
 10
16.908004
 20
13.928834
 30
0.0
 40
0.5
 50
270.0
 51
312.279853
  0
LINE
  8
0
 10
14.830364
 20
17.519706
 30
0.0
 11
15.970809
 21
17.519706
 31
0.0
  0
LINE
  8
0
 10
14.832476
 20
17.254963
 30
0.0
 11
15.970809
 21
17.254963
 31
0.0
  0
LINE
  8
0
 10
14.830364
 20
15.837963
 30
0.0
 11
15.970809
 21
15.837963
 31
0.0
  0
LINE
  8
0
 10
14.830364
 20
16.102706
 30
0.0
 11
15.970809
 21
16.102706
 31
0.0
  0
ARC
  8
0
 10
14.832476
 20
17.576589
 30
0.0
 40
0.056883
 50
142.720453
 51
270.0
  0
ARC
  8
0
 10
14.140809
 20
16.678834
 30
0.0
 40
0.738862
 50
304.418763
 51
55.581237
  0
CIRCLE
  8
0
 10
14.140809
 20
16.678834
 30
0.0
 40
0.143629
  0
ARC
  8
0
 10
14.62627
 20
15.970334
 30
0.0
 40
0.12
 50
124.418763
 51
235.581237
  0
ARC
  8
0
 10
14.140809
 20
16.678834
 30
0.0
 40
0.808
 50
312.952278
 51
47.047722
  0
ARC
  8
0
 10
14.800393
 20
15.970334
 30
0.0
 40
0.16
 50
132.952278
 51
227.047722
  0
ARC
  8
0
 10
14.832476
 20
17.19808
 30
0.0
 40
0.056883
 50
90.0
 51
217.279547
  0
ARC
  8
0
 10
14.832476
 20
16.159589
 30
0.0
 40
0.056883
 50
142.720453
 51
270.0
  0
ARC
  8
0
 10
14.832476
 20
15.78108
 30
0.0
 40
0.056883
 50
90.0
 51
217.279547
  0
ARC
  8
0
 10
14.800393
 20
17.387334
 30
0.0
 40
0.16
 50
132.952278
 51
227.047722
  0
ARC
  8
0
 10
14.62627
 20
17.387334
 30
0.0
 40
0.12
 50
124.418763
 51
235.581237
  0
CIRCLE
  8
0
 10
16.530335
 20
16.678834
 30
0.0
 40
0.104029
  0
LINE
  8
OBJ
 10
17.095784
 20
16.678834
 30
0.0
 11
17.658284
 21
15.704556
 31
0.0
  0
LINE
  8
OBJ
 10
17.658284
 20
17.653113
 30
0.0
 11
17.095784
 21
16.678834
 31
0.0
  0
ARC
  8
0
 10
18.218916
 20
14.107136
 30
0.0
 40
0.25
 50
86.852343
 51
132.279853
  0
LINE
  8
0
 10
21.438784
 20
13.294834
 30
0.0
 11
21.438784
 21
13.235839
 31
0.0
  0
LINE
  8
0
 10
21.43876
 20
13.294834
 30
0.0
 11
21.43876
 21
13.161834
 31
0.0
  0
LINE
  8
0
 10
21.46876
 20
13.131834
 30
0.0
 11
21.43876
 21
13.161834
 31
0.0
  0
LINE
  8
OBJ
  6
CENTER2
 10
20.625401
 20
13.422834
 30
0.0
 11
20.625401
 21
13.375026
 31
0.0
  0
LINE
  8
OBJ
 10
20.777204
 20
13.422834
 30
0.0
 11
20.729396
 21
13.375026
 31
0.0
  0
LINE
  8
OBJ
  6
CENTER2
 10
21.025793
 20
13.422834
 30
0.0
 11
21.025793
 21
13.375026
 31
0.0
  0
ARC
  8
0
 10
20.09076
 20
14.1381
 30
0.0
 40
0.125
 50
0.0
 51
86.852343
  0
LINE
  8
0
 10
21.06576
 20
13.354834
 30
0.0
 11
21.06576
 21
13.374834
 31
0.0
  0
ARC
  8
0
 10
21.12576
 20
13.354834
 30
0.0
 40
0.06
 50
180.0
 51
270.0
  0
LINE
  8
OBJ
 10
20.632986
 20
13.177818
 30
0.0
 11
20.615832
 21
13.201038
 31
0.0
  0
ARC
  8
OBJ
 10
20.661854
 20
13.235038
 30
0.0
 40
0.057219
 50
199.954678
 51
340.045322
  0
LINE
  8
OBJ
 10
20.60807
 20
13.375026
 30
0.0
 11
21.043123
 21
13.375026
 31
0.0
  0
LINE
  8
OBJ
  6
CONTINUOUS
 10
20.60807
 20
13.375026
 30
0.0
 11
20.60807
 21
13.21551
 31
0.0
  0
LINE
  8
OBJ
  6
CONTINUOUS
 10
20.935555
 20
13.375026
 30
0.0
 11
20.935555
 21
13.21551
 31
0.0
  0
LINE
  8
OBJ
  6
CONTINUOUS
 10
21.043123
 20
13.375026
 30
0.0
 11
21.043123
 21
13.21551
 31
0.0
  0
LINE
  8
OBJ
  6
CONTINUOUS
 10
20.715638
 20
13.375026
 30
0.0
 11
20.715638
 21
13.21551
 31
0.0
  0
LINE
  8
OBJ
 10
20.715638
 20
13.177818
 30
0.0
 11
20.935555
 21
13.177818
 31
0.0
  0
ARC
  8
OBJ
 10
20.825597
 20
13.357056
 30
0.0
 40
0.179237
 50
232.158498
 51
307.841502
  0
LINE
  8
OBJ
 10
20.632986
 20
13.177818
 30
0.0
 11
20.715638
 21
13.177818
 31
0.0
  0
ARC
  8
OBJ
 10
20.989339
 20
13.235038
 30
0.0
 40
0.057219
 50
199.954678
 51
340.045322
  0
LINE
  8
OBJ
 10
20.935555
 20
13.177818
 30
0.0
 11
21.018208
 21
13.177818
 31
0.0
  0
LINE
  8
OBJ
 10
21.018208
 20
13.177818
 30
0.0
 11
21.035362
 21
13.201038
 31
0.0
  0
LINE
  8
0
 10
20.21576
 20
14.1381
 30
0.0
 11
20.21576
 21
13.658834
 31
0.0
  0
LINE
  8
0
 10
20.21576
 20
13.482834
 30
0.0
 11
20.21576
 21
13.658834
 31
0.0
  0
ARC
  8
0
 10
20.27576
 20
13.482834
 30
0.0
 40
0.06
 50
180.0
 51
270.0
  0
ARC
  8
0
 10
21.01776
 20
13.374834
 30
0.0
 40
0.048
 50
0.0
 51
80.366205
  0
ARC
  8
0
 10
20.09076
 20
13.808512
 30
0.0
 40
0.125
 50
0.0
 51
86.852343
  0
LINE
  8
OBJ
 10
18.783284
 20
15.704556
 30
0.0
 11
19.345784
 21
16.678834
 31
0.0
  0
CIRCLE
  8
OBJ
 10
18.220784
 20
16.678834
 30
0.0
 40
0.055
  0
LINE
  8
OBJ
 10
19.345784
 20
16.678834
 30
0.0
 11
18.783284
 21
17.653113
 31
0.0
  0
LINE
  8
0
 10
13.618928
 20
19.048834
 30
0.0
 11
14.662689
 21
19.048834
 31
0.0
  0
LINE
  8
0
 10
13.610809
 20
19.108834
 30
0.0
 11
14.670809
 21
19.108834
 31
0.0
  0
LINE
  8
0
 10
13.121348
 20
18.684434
 30
0.0
 11
13.292348
 21
18.684434
 31
0.0
  0
LINE
  8
0
 10
12.79072
 20
18.635834
 30
0.0
 11
12.729848
 21
18.588244
 31
0.0
  0
ARC
  8
0
 10
12.909983
 20
18.500834
 30
0.0
 40
0.180135
 50
131.458173
 51
228.541827
  0
LINE
  8
0
 10
13.121348
 20
18.635834
 30
0.0
 11
12.79072
 21
18.635834
 31
0.0
  0
LINE
  8
0
 10
13.112348
 20
18.365834
 30
0.0
 11
12.79072
 21
18.365834
 31
0.0
  0
ARC
  8
0
 10
13.112348
 20
18.374834
 30
0.0
 40
0.009
 50
270.0
 51
0.0
  0
ARC
  8
0
 10
13.112348
 20
18.356834
 30
0.0
 40
0.009
 50
0.0
 51
90.0
  0
POINT
  8
DEFPOINTS
  6
BYBLOCK
 62
     0
 10
12.729848
 20
18.095834
 30
0.0
  0
LINE
  8
0
 10
13.550809
 20
19.048834
 30
0.0
 11
13.550809
 21
18.647889
 31
0.0
  0
LINE
  8
0
 10
13.292348
 20
18.903834
 30
0.0
 11
13.550809
 21
18.903834
 31
0.0
  0
ARC
  8
0
 10
13.678928
 20
19.048834
 30
0.0
 40
0.06
 50
90.0
 51
180.0
  0
ARC
  8
0
 10
13.610809
 20
19.048834
 30
0.0
 40
0.06
 50
90.0
 51
180.0
  0
LINE
  8
0
 10
18.050728
 20
19.065566
 30
0.0
 11
17.24891
 21
19.79465
 31
0.0
  0
LINE
  8
0
 10
20.097624
 20
19.424346
 30
0.0
 11
17.679356
 21
19.424346
 31
0.0
  0
ARC
  8
0
 10
15.890809
 20
18.118834
 30
0.0
 40
0.03
 50
180.0
 51
270.0
  0
LINE
  8
0
 10
16.907441
 20
19.928834
 30
0.0
 11
15.480809
 21
19.928834
 31
0.0
  0
LINE
  8
0
 10
15.860809
 20
18.118834
 30
0.0
 11
15.860809
 21
18.850367
 31
0.0
  0
ARC
  8
0
 10
15.810089
 20
18.850367
 30
0.0
 40
0.05072
 50
0.0
 51
90.0
  0
ARC
  8
0
 10
15.810089
 20
18.540858
 30
0.0
 40
0.05072
 50
0.0
 51
90.0
  0
LINE
  8
0
 10
15.380809
 20
19.019774
 30
0.0
 11
15.380809
 21
19.849694
 31
0.0
  0
LINE
  8
0
 10
15.380809
 20
19.849694
 30
0.0
 11
15.480809
 21
19.849694
 31
0.0
  0
LINE
  8
0
 10
15.026479
 20
19.119774
 30
0.0
 11
15.026479
 21
19.749694
 31
0.0
  0
LINE
  8
0
 10
14.987109
 20
19.159144
 30
0.0
 11
14.987109
 21
19.710324
 31
0.0
  0
LINE
  8
0
 10
15.026479
 20
19.749694
 30
0.0
 11
14.987109
 21
19.710324
 31
0.0
  0
LINE
  8
0
 10
14.987109
 20
19.159144
 30
0.0
 11
15.026479
 21
19.119774
 31
0.0
  0
LINE
  8
0
 10
15.026479
 20
19.749694
 30
0.0
 11
15.380809
 21
19.749694
 31
0.0
  0
LINE
  8
0
 10
15.026479
 20
19.119774
 30
0.0
 11
15.380808
 21
19.119774
 31
0.0
  0
CIRCLE
  8
0
 10
14.140809
 20
18.095834
 30
0.0
 40
0.143629
  0
LINE
  8
0
 10
15.380809
 20
19.019774
 30
0.0
 11
15.480809
 21
19.019774
 31
0.0
  0
LINE
  8
0
 10
14.730809
 20
19.048834
 30
0.0
 11
14.730809
 21
18.647889
 31
0.0
  0
ARC
  8
0
 10
14.602689
 20
19.048834
 30
0.0
 40
0.06
 50
0.0
 51
90.0
  0
ARC
  8
0
 10
14.670809
 20
19.048834
 30
0.0
 40
0.06
 50
0.0
 51
90.0
  0
LINE
  8
OBJ
 10
15.426908
 20
18.958834
 30
0.0
 11
14.730809
 21
18.958834
 31
0.0
  0
LINE
  8
0
 10
15.480809
 20
19.849694
 30
0.0
 11
15.480809
 21
19.019774
 31
0.0
  0
ARC
  8
0
 10
15.426908
 20
19.012735
 30
0.0
 40
0.053901
 50
270.0
 51
0.0
  0
ARC
  8
0
 10
15.531528
 20
18.642298
 30
0.0
 40
0.05072
 50
180.0
 51
270.0
  0
LINE
  8
0
 10
15.480809
 20
18.642298
 30
0.0
 11
15.480809
 21
19.928834
 31
0.0
  0
LINE
  8
0
 10
15.531528
 20
18.591578
 30
0.0
 11
15.810089
 21
18.591578
 31
0.0
  0
ARC
  8
0
 10
17.679356
 20
19.484346
 30
0.0
 40
0.06
 50
227.720147
 51
270.0
  0
LINE
  8
0
 10
17.243818
 20
19.798768
 30
0.0
 11
17.24891
 21
19.79465
 31
0.0
  0
ARC
  8
0
 10
16.907441
 20
19.428834
 30
0.0
 40
0.5
 50
47.720147
 51
90.0
  0
CIRCLE
  8
0
 10
16.530335
 20
18.095834
 30
0.0
 40
0.104029
  0
LINE
  8
OBJ
 10
15.970809
 20
18.088834
 30
0.0
 11
15.890809
 21
18.088834
 31
0.0
  0
LINE
  8
0
 10
21.55776
 20
20.225834
 30
0.0
 11
21.55776
 21
21.648834
 31
0.0
  0
ARC
  8
0
 10
18.218916
 20
19.250533
 30
0.0
 40
0.25
 50
227.720147
 51
273.147657
  0
LINE
  8
0
 10
21.43876
 20
20.062834
 30
0.0
 11
21.43876
 21
20.195834
 31
0.0
  0
LINE
  8
0
 10
21.438784
 20
20.062834
 30
0.0
 11
21.438784
 21
20.12183
 31
0.0
  0
LINE
  8
0
 10
21.46876
 20
20.225834
 30
0.0
 11
21.43876
 21
20.195834
 31
0.0
  0
LINE
  8
0
 10
21.06576
 20
20.002834
 30
0.0
 11
21.06576
 21
19.982834
 31
0.0
  0
LINE
  8
OBJ
 10
20.632986
 20
20.17985
 30
0.0
 11
20.615832
 21
20.15663
 31
0.0
  0
ARC
  8
OBJ
 10
20.661854
 20
20.122631
 30
0.0
 40
0.057219
 50
19.954678
 51
160.045322
  0
LINE
  8
OBJ
 10
20.60807
 20
19.982642
 30
0.0
 11
21.043123
 21
19.982642
 31
0.0
  0
LINE
  8
OBJ
  6
CONTINUOUS
 10
20.60807
 20
19.982642
 30
0.0
 11
20.60807
 21
20.142159
 31
0.0
  0
LINE
  8
OBJ
  6
CONTINUOUS
 10
20.935555
 20
19.982642
 30
0.0
 11
20.935555
 21
20.142159
 31
0.0
  0
LINE
  8
OBJ
  6
CONTINUOUS
 10
21.043123
 20
19.982642
 30
0.0
 11
21.043123
 21
20.142159
 31
0.0
  0
LINE
  8
OBJ
  6
CONTINUOUS
 10
20.715638
 20
19.982642
 30
0.0
 11
20.715638
 21
20.142159
 31
0.0
  0
LINE
  8
OBJ
 10
20.715638
 20
20.17985
 30
0.0
 11
20.935555
 21
20.17985
 31
0.0
  0
ARC
  8
OBJ
 10
20.825597
 20
20.000613
 30
0.0
 40
0.179237
 50
52.158498
 51
127.841502
  0
LINE
  8
OBJ
 10
20.632986
 20
20.17985
 30
0.0
 11
20.715638
 21
20.17985
 31
0.0
  0
ARC
  8
OBJ
 10
20.989339
 20
20.122631
 30
0.0
 40
0.057219
 50
19.954678
 51
160.045322
  0
LINE
  8
OBJ
 10
20.935555
 20
20.17985
 30
0.0
 11
21.018208
 21
20.17985
 31
0.0
  0
LINE
  8
OBJ
 10
21.018208
 20
20.17985
 30
0.0
 11
21.035362
 21
20.15663
 31
0.0
  0
ARC
  8
0
 10
21.12576
 20
20.002834
 30
0.0
 40
0.06
 50
90.0
 51
180.0
  0
LINE
  8
0
 10
20.21576
 20
19.219569
 30
0.0
 11
20.21576
 21
19.698834
 31
0.0
  0
ARC
  8
0
 10
20.09076
 20
19.219569
 30
0.0
 40
0.125
 50
273.147657
 51
0.0
  0
ARC
  8
0
 10
20.27576
 20
19.874834
 30
0.0
 40
0.06
 50
90.0
 51
180.0
  0
LINE
  8
0
 10
20.21576
 20
19.874834
 30
0.0
 11
20.21576
 21
19.698834
 31
0.0
  0
ARC
  8
0
 10
20.09076
 20
19.549157
 30
0.0
 40
0.125
 50
273.147657
 51
0.0
  0
ARC
  8
0
 10
21.01776
 20
19.982834
 30
0.0
 40
0.048
 50
279.633795
 51
0.0
  0
LINE
  8
OBJ
  6
CENTER2
 10
20.625401
 20
19.934834
 30
0.0
 11
20.625401
 21
19.982642
 31
0.0
  0
LINE
  8
OBJ
 10
20.777204
 20
19.934834
 30
0.0
 11
20.729396
 21
19.982642
 31
0.0
  0
LINE
  8
OBJ
  6
CENTER2
 10
21.025793
 20
19.934834
 30
0.0
 11
21.025793
 21
19.982642
 31
0.0
  0
LINE
  8
0
 10
21.55776
 20
21.648834
 30
0.0
 11
21.58776
 21
21.678834
 31
0.0
  0
ARC
  8
0
 10
20.200805
 20
17.441885
 30
0.0
 40
4.270792
 50
358.899169
 51
17.152279
  0
LINE
  8
0
 10
23.735809
 20
19.277834
 30
0.0
 11
23.735809
 21
14.079834
 31
0.0
  0
LINE
  8
0
 10
24.050809
 20
19.197834
 30
0.0
 11
24.050809
 21
14.159834
 31
0.0
  0
LINE
  8
0
 10
23.954058
 20
14.543355
 30
0.0
 11
23.954058
 21
18.814314
 31
0.0
  0
LINE
  8
0
 10
22.34376
 20
13.131834
 30
0.0
 11
22.34376
 21
11.708834
 31
0.0
  0
LINE
  8
0
 10
21.832784
 20
12.921637
 30
0.0
 11
21.832784
 21
11.678834
 31
0.0
  0
LINE
  8
0
 10
22.068784
 20
12.921637
 30
0.0
 11
22.068784
 21
11.678834
 31
0.0
  0
INSERT
  8
0
  2
CVRSCR
 10
22.994474
 20
5.643239
 30
0.0
 50
270.0
  0
CIRCLE
  8
0
 10
22.994474
 20
5.643239
 30
0.0
 40
0.225167
  0
LINE
  8
0
 10
21.79376
 20
4.959843
 30
0.0
 11
21.79376
 21
4.835574
 31
0.0
  0
LINE
  8
0
 10
22.10776
 20
4.959864
 30
0.0
 11
22.10776
 21
4.835574
 31
0.0
  0
LINE
  8
0
 10
22.10776
 20
4.835574
 30
0.0
 11
21.79376
 21
4.835574
 31
0.0
  0
LINE
  8
0
 10
23.735809
 20
6.69705
 30
0.0
 11
23.960809
 21
6.69705
 31
0.0
  0
LINE
  8
OBJ
 10
24.285825
 20
6.212091
 30
0.0
 11
24.285825
 21
6.432008
 31
0.0
  0
ARC
  8
OBJ
 10
24.106587
 20
6.32205
 30
0.0
 40
0.179237
 50
322.158498
 51
37.841502
  0
LINE
  8
OBJ
  6
CONTINUOUS
 10
24.088617
 20
6.212091
 30
0.0
 11
24.248133
 21
6.212091
 31
0.0
  0
LINE
  8
0
 10
23.850809
 20
6.69705
 30
0.0
 11
23.846809
 21
6.69705
 31
0.0
  0
ARC
  8
0
 10
23.960809
 20
6.61705
 30
0.0
 40
0.08
 50
0.0
 51
90.0
  0
LINE
  8
OBJ
  6
CONTINUOUS
 10
24.088617
 20
6.432008
 30
0.0
 11
24.248133
 21
6.432008
 31
0.0
  0
LINE
  8
OBJ
  6
CONTINUOUS
 10
24.088617
 20
6.539576
 30
0.0
 11
24.248133
 21
6.539576
 31
0.0
  0
LINE
  8
OBJ
 10
24.285825
 20
6.432008
 30
0.0
 11
24.285825
 21
6.514661
 31
0.0
  0
ARC
  8
OBJ
 10
24.228605
 20
6.485792
 30
0.0
 40
0.057219
 50
289.954678
 51
70.045322
  0
LINE
  8
OBJ
 10
24.285825
 20
6.514661
 30
0.0
 11
24.262605
 21
6.531815
 31
0.0
  0
LINE
  8
OBJ
  6
CENTER2
 10
24.040809
 20
6.522246
 30
0.0
 11
24.088617
 21
6.522246
 31
0.0
  0
LINE
  8
OBJ
 10
24.040809
 20
6.273657
 30
0.0
 11
24.088617
 21
6.225849
 31
0.0
  0
ARC
  8
0
 10
24.004058
 20
6.233529
 30
0.0
 40
0.06
 50
101.171353
 51
180.0
  0
ARC
  8
0
 10
23.980809
 20
6.351255
 30
0.0
 40
0.06
 50
281.171353
 51
0.0
  0
LINE
  8
OBJ
  6
CONTINUOUS
 10
24.520809
 20
4.17155
 30
0.0
 11
24.640809
 21
4.17155
 31
0.0
  0
ARC
  8
OBJ
 10
24.640809
 20
4.25155
 30
0.0
 40
0.08
 50
270.0
 51
0.0
  0
ARC
  8
OBJ
 10
24.640809
 20
4.94755
 30
0.0
 40
0.08
 50
0.0
 51
90.0
  0
LINE
  8
OBJ
  6
CONTINUOUS
 10
24.520809
 20
5.02755
 30
0.0
 11
24.640809
 21
5.02755
 31
0.0
  0
LINE
  8
OBJ
 10
24.720809
 20
4.94755
 30
0.0
 11
24.720809
 21
4.25155
 31
0.0
  0
ARC
  8
OBJ
 10
24.460809
 20
5.22055
 30
0.0
 40
0.06
 50
360.0
 51
90.0
  0
LINE
  8
OBJ
  6
CONTINUOUS
 10
24.088617
 20
6.104523
 30
0.0
 11
24.248133
 21
6.104523
 31
0.0
  0
LINE
  8
OBJ
 10
24.285825
 20
6.129438
 30
0.0
 11
24.262605
 21
6.112285
 31
0.0
  0
LINE
  8
OBJ
  6
CENTER2
 10
24.040809
 20
6.123854
 30
0.0
 11
24.088617
 21
6.123854
 31
0.0
  0
LINE
  8
0
 10
24.460809
 20
5.28055
 30
0.0
 11
24.443163
 21
5.28055
 31
0.0
  0
LINE
  8
OBJ
 10
24.088617
 20
6.104523
 30
0.0
 11
24.088617
 21
6.539576
 31
0.0
  0
LINE
  8
0
 10
24.040809
 20
6.121854
 30
0.0
 11
24.040809
 21
6.522246
 31
0.0
  0
LINE
  8
OBJ
 10
24.285825
 20
6.129438
 30
0.0
 11
24.285825
 21
6.212091
 31
0.0
  0
ARC
  8
OBJ
 10
24.228605
 20
6.158307
 30
0.0
 40
0.057219
 50
289.954678
 51
70.045322
  0
LINE
  8
0
 10
22.34376
 20
11.708834
 30
0.0
 11
22.068784
 21
11.708834
 31
0.0
  0
LINE
  8
0
 10
22.34376
 20
11.708834
 30
0.0
 11
22.31376
 21
11.678834
 31
0.0
  0
ARC
  8
0
 10
20.200805
 20
15.915784
 30
0.0
 40
4.270792
 50
342.866494
 51
1.100831
  0
LINE
  8
0
 10
23.091989
 20
14.808834
 30
0.0
 11
23.249579
 21
14.808834
 31
0.0
  0
LINE
  8
OBJ
  6
CENTER2
 10
23.276377
 20
13.422834
 30
0.0
 11
23.276377
 21
13.375026
 31
0.0
  0
LINE
  8
OBJ
  6
CONTINUOUS
 10
23.293708
 20
13.375026
 30
0.0
 11
23.293708
 21
13.21551
 31
0.0
  0
LINE
  8
OBJ
  6
CENTER2
 10
22.875985
 20
13.422834
 30
0.0
 11
22.875985
 21
13.375026
 31
0.0
  0
LINE
  8
OBJ
 10
23.124574
 20
13.422834
 30
0.0
 11
23.172382
 21
13.375026
 31
0.0
  0
LINE
  8
0
 10
22.46276
 20
13.294834
 30
0.0
 11
22.46276
 21
13.161834
 31
0.0
  0
ARC
  8
0
 10
22.77576
 20
13.354834
 30
0.0
 40
0.06
 50
270.0
 51
0.0
  0
LINE
  8
0
 10
22.83576
 20
13.354834
 30
0.0
 11
22.83576
 21
13.374834
 31
0.0
  0
LINE
  8
OBJ
  6
CONTINUOUS
 10
22.858655
 20
13.375026
 30
0.0
 11
22.858655
 21
13.21551
 31
0.0
  0
LINE
  8
OBJ
  6
CONTINUOUS
 10
22.966223
 20
13.375026
 30
0.0
 11
22.966223
 21
13.21551
 31
0.0
  0
LINE
  8
OBJ
  6
CONTINUOUS
 10
23.18614
 20
13.375026
 30
0.0
 11
23.18614
 21
13.21551
 31
0.0
  0
LINE
  8
OBJ
 10
23.268792
 20
13.177818
 30
0.0
 11
23.18614
 21
13.177818
 31
0.0
  0
LINE
  8
OBJ
 10
22.88357
 20
13.177818
 30
0.0
 11
22.866416
 21
13.201038
 31
0.0
  0
ARC
  8
OBJ
 10
22.912439
 20
13.235038
 30
0.0
 40
0.057219
 50
199.954678
 51
340.045322
  0
LINE
  8
OBJ
 10
22.966223
 20
13.177818
 30
0.0
 11
22.88357
 21
13.177818
 31
0.0
  0
ARC
  8
OBJ
 10
23.076181
 20
13.357056
 30
0.0
 40
0.179237
 50
232.158498
 51
307.841502
  0
LINE
  8
OBJ
 10
23.18614
 20
13.177818
 30
0.0
 11
22.966223
 21
13.177818
 31
0.0
  0
ARC
  8
0
 10
22.88376
 20
13.374834
 30
0.0
 40
0.048
 50
99.321682
 51
180.0
  0
ARC
  8
0
 10
21.950784
 20
12.921637
 30
0.0
 40
0.118
 50
0.0
 51
180.0
  0
LINE
  8
0
 10
22.43276
 20
13.131834
 30
0.0
 11
22.46276
 21
13.161834
 31
0.0
  0
ARC
  8
OBJ
 10
23.239924
 20
13.235038
 30
0.0
 40
0.057219
 50
199.954678
 51
340.045322
  0
LINE
  8
OBJ
 10
23.268792
 20
13.177818
 30
0.0
 11
23.285946
 21
13.201038
 31
0.0
  0
LINE
  8
OBJ
 10
23.293708
 20
13.375026
 30
0.0
 11
22.858655
 21
13.375026
 31
0.0
  0
LINE
  8
0
 10
23.170784
 20
14.887629
 30
0.0
 11
23.170784
 21
14.73004
 31
0.0
  0
LINE
  8
0
 10
23.735809
 20
14.079834
 30
0.0
 11
23.970809
 21
14.079834
 31
0.0
  0
ARC
  8
0
 10
23.62576
 20
13.482834
 30
0.0
 40
0.06
 50
270.0
 51
0.0
  0
LINE
  8
0
 10
23.68576
 20
13.658834
 30
0.0
 11
23.68576
 21
14.031937
 31
0.0
  0
LINE
  8
OBJ
 10
24.295825
 20
14.564793
 30
0.0
 11
24.295825
 21
14.344876
 31
0.0
  0
ARC
  8
OBJ
 10
24.116587
 20
14.454834
 30
0.0
 40
0.179237
 50
322.158498
 51
37.841502
  0
LINE
  8
OBJ
 10
24.098617
 20
14.672361
 30
0.0
 11
24.098617
 21
14.237308
 31
0.0
  0
LINE
  8
0
 10
24.050809
 20
14.65503
 30
0.0
 11
24.050809
 21
14.254638
 31
0.0
  0
LINE
  8
OBJ
  6
CONTINUOUS
 10
24.098617
 20
14.672361
 30
0.0
 11
24.258133
 21
14.672361
 31
0.0
  0
LINE
  8
OBJ
  6
CONTINUOUS
 10
24.098617
 20
14.564793
 30
0.0
 11
24.258133
 21
14.564793
 31
0.0
  0
LINE
  8
OBJ
 10
24.295825
 20
14.647446
 30
0.0
 11
24.272605
 21
14.664599
 31
0.0
  0
LINE
  8
OBJ
 10
24.295825
 20
14.647446
 30
0.0
 11
24.295825
 21
14.564793
 31
0.0
  0
ARC
  8
OBJ
 10
24.238605
 20
14.618577
 30
0.0
 40
0.057219
 50
289.954678
 51
70.045322
  0
LINE
  8
OBJ
  6
CENTER2
 10
24.050809
 20
14.65303
 30
0.0
 11
24.098617
 21
14.65303
 31
0.0
  0
LINE
  8
0
 10
23.860809
 20
14.079834
 30
0.0
 11
23.856809
 21
14.079834
 31
0.0
  0
ARC
  8
0
 10
23.970809
 20
14.159834
 30
0.0
 40
0.08
 50
270.0
 51
0.0
  0
LINE
  8
OBJ
  6
CONTINUOUS
 10
24.098617
 20
14.344876
 30
0.0
 11
24.258133
 21
14.344876
 31
0.0
  0
LINE
  8
OBJ
  6
CONTINUOUS
 10
24.098617
 20
14.237308
 30
0.0
 11
24.258133
 21
14.237308
 31
0.0
  0
LINE
  8
OBJ
 10
24.295825
 20
14.344876
 30
0.0
 11
24.295825
 21
14.262223
 31
0.0
  0
ARC
  8
OBJ
 10
24.238605
 20
14.291092
 30
0.0
 40
0.057219
 50
289.954678
 51
70.045322
  0
LINE
  8
OBJ
 10
24.295825
 20
14.262223
 30
0.0
 11
24.272605
 21
14.245069
 31
0.0
  0
LINE
  8
OBJ
  6
CENTER2
 10
24.050809
 20
14.254638
 30
0.0
 11
24.098617
 21
14.254638
 31
0.0
  0
LINE
  8
OBJ
 10
24.050809
 20
14.503227
 30
0.0
 11
24.098617
 21
14.551035
 31
0.0
  0
ARC
  8
0
 10
24.014058
 20
14.543355
 30
0.0
 40
0.06
 50
180.0
 51
258.828647
  0
ARC
  8
0
 10
23.990809
 20
14.425629
 30
0.0
 40
0.06
 50
0.0
 51
78.828647
  0
LINE
  8
0
 10
23.73376
 20
14.079937
 30
0.0
 11
23.735809
 21
14.079834
 31
0.0
  0
ARC
  8
0
 10
23.73376
 20
14.031937
 30
0.0
 40
0.048
 50
90.0
 51
180.0
  0
LINE
  8
0
 10
23.68576
 20
13.482834
 30
0.0
 11
23.68576
 21
13.658834
 31
0.0
  0
ARC
  8
OBJ
 10
24.380809
 20
17.423792
 30
0.0
 40
0.035043
 50
21.151115
 51
90.0
  0
ARC
  8
OBJ
 10
24.380809
 20
17.423792
 30
0.0
 40
0.035043
 50
90.0
 51
158.848885
  0
LINE
  8
OBJ
 10
24.530809
 20
17.299834
 30
0.0
 11
24.530809
 21
16.057834
 31
0.0
  0
ARC
  8
OBJ
 10
24.470809
 20
17.299834
 30
0.0
 40
0.06
 50
360.0
 51
90.0
  0
LINE
  8
OBJ
  6
CONTINUOUS
 10
24.321944
 20
17.359834
 30
0.0
 11
24.470809
 21
17.359834
 31
0.0
  0
LINE
  8
OBJ
 10
24.730809
 20
17.026834
 30
0.0
 11
24.730809
 21
16.330834
 31
0.0
  0
ARC
  8
OBJ
 10
29.120878
 20
16.678834
 30
0.0
 40
4.865069
 50
180.0
 51
183.797744
  0
ARC
  8
OBJ
 10
29.120878
 20
16.678834
 30
0.0
 40
4.865069
 50
176.202256
 51
180.0
  0
POINT
  8
DEFPOINTS
  6
BYBLOCK
 62
     0
 10
24.730809
 20
16.678834
 30
0.0
  0
LINE
  8
OBJ
  6
CONTINUOUS
 10
24.530809
 20
17.106834
 30
0.0
 11
24.650809
 21
17.106834
 31
0.0
  0
ARC
  8
OBJ
 10
24.650809
 20
17.026834
 30
0.0
 40
0.08
 50
0.0
 51
90.0
  0
ARC
  8
OBJ
 10
26.753415
 20
16.835987
 30
0.0
 40
2.492397
 50
170.895399
 51
176.202256
  0
ARC
  8
OBJ
 10
24.650809
 20
16.330834
 30
0.0
 40
0.08
 50
270.0
 51
0.0
  0
ARC
  8
OBJ
 10
26.753415
 20
16.521681
 30
0.0
 40
2.492397
 50
183.797744
 51
189.104601
  0
ARC
  8
OBJ
 10
25.296718
 20
16.288236
 30
0.0
 40
1.017112
 50
189.104601
 51
201.151115
  0
ARC
  8
OBJ
 10
24.470809
 20
16.057834
 30
0.0
 40
0.06
 50
270.0
 51
0.0
  0
LINE
  8
OBJ
  6
CONTINUOUS
 10
24.530809
 20
16.250834
 30
0.0
 11
24.650809
 21
16.250834
 31
0.0
  0
LINE
  8
OBJ
  6
CONTINUOUS
 10
24.321944
 20
15.997834
 30
0.0
 11
24.470809
 21
15.997834
 31
0.0
  0
ARC
  8
OBJ
 10
24.380809
 20
15.933877
 30
0.0
 40
0.035043
 50
201.151115
 51
270.0
  0
ARC
  8
OBJ
 10
24.380809
 20
15.933877
 30
0.0
 40
0.035043
 50
270.0
 51
338.848885
  0
ARC
  8
OBJ
 10
23.464899
 20
16.288236
 30
0.0
 40
1.017112
 50
338.848885
 51
343.410301
  0
ARC
  8
OBJ
 10
25.296718
 20
17.069433
 30
0.0
 40
1.017112
 50
158.848885
 51
170.895399
  0
ARC
  8
OBJ
 10
23.464899
 20
17.069433
 30
0.0
 40
1.017112
 50
16.589699
 51
21.151115
  0
LINE
  8
0
 10
22.068784
 20
20.436032
 30
0.0
 11
22.068784
 21
21.678834
 31
0.0
  0
LINE
  8
0
 10
21.832784
 20
20.436032
 30
0.0
 11
21.832784
 21
21.678834
 31
0.0
  0
LINE
  8
0
 10
22.34376
 20
20.225834
 30
0.0
 11
22.34376
 21
21.648834
 31
0.0
  0
LINE
  8
0
 10
22.46276
 20
20.062834
 30
0.0
 11
22.46276
 21
20.195834
 31
0.0
  0
LINE
  8
0
 10
22.43276
 20
20.225834
 30
0.0
 11
22.46276
 21
20.195834
 31
0.0
  0
ARC
  8
0
 10
21.950784
 20
20.436032
 30
0.0
 40
0.118
 50
180.0
 51
0.0
  0
LINE
  8
OBJ
  6
CONTINUOUS
 10
23.293708
 20
19.982642
 30
0.0
 11
23.293708
 21
20.142159
 31
0.0
  0
LINE
  8
0
 10
22.83576
 20
20.002834
 30
0.0
 11
22.83576
 21
19.982834
 31
0.0
  0
LINE
  8
OBJ
 10
22.88357
 20
20.17985
 30
0.0
 11
22.866416
 21
20.15663
 31
0.0
  0
ARC
  8
OBJ
 10
22.912439
 20
20.122631
 30
0.0
 40
0.057219
 50
19.954678
 51
160.045322
  0
LINE
  8
OBJ
  6
CONTINUOUS
 10
22.858655
 20
19.982642
 30
0.0
 11
22.858655
 21
20.142159
 31
0.0
  0
LINE
  8
OBJ
  6
CONTINUOUS
 10
22.966223
 20
19.982642
 30
0.0
 11
22.966223
 21
20.142159
 31
0.0
  0
LINE
  8
OBJ
  6
CONTINUOUS
 10
23.18614
 20
19.982642
 30
0.0
 11
23.18614
 21
20.142159
 31
0.0
  0
LINE
  8
OBJ
 10
23.268792
 20
20.17985
 30
0.0
 11
23.18614
 21
20.17985
 31
0.0
  0
LINE
  8
OBJ
 10
22.966223
 20
20.17985
 30
0.0
 11
22.88357
 21
20.17985
 31
0.0
  0
ARC
  8
OBJ
 10
23.076181
 20
20.000613
 30
0.0
 40
0.179237
 50
52.158498
 51
127.841502
  0
LINE
  8
OBJ
 10
23.18614
 20
20.17985
 30
0.0
 11
22.966223
 21
20.17985
 31
0.0
  0
ARC
  8
0
 10
22.77576
 20
20.002834
 30
0.0
 40
0.06
 50
0.0
 51
90.0
  0
LINE
  8
OBJ
 10
23.293708
 20
19.982642
 30
0.0
 11
22.858655
 21
19.982642
 31
0.0
  0
ARC
  8
OBJ
 10
23.239924
 20
20.122631
 30
0.0
 40
0.057219
 50
19.954678
 51
160.045322
  0
LINE
  8
OBJ
 10
23.268792
 20
20.17985
 30
0.0
 11
23.285946
 21
20.15663
 31
0.0
  0
LINE
  8
0
 10
23.091989
 20
18.548834
 30
0.0
 11
23.249579
 21
18.548834
 31
0.0
  0
LINE
  8
0
 10
23.170784
 20
18.627629
 30
0.0
 11
23.170784
 21
18.47004
 31
0.0
  0
ARC
  8
0
 10
22.88376
 20
19.982834
 30
0.0
 40
0.048
 50
180.0
 51
260.678318
  0
LINE
  8
OBJ
  6
CENTER2
 10
22.875985
 20
19.934834
 30
0.0
 11
22.875985
 21
19.982642
 31
0.0
  0
LINE
  8
OBJ
  6
CENTER2
 10
23.276377
 20
19.934834
 30
0.0
 11
23.276377
 21
19.982642
 31
0.0
  0
LINE
  8
OBJ
 10
23.124574
 20
19.934834
 30
0.0
 11
23.172382
 21
19.982642
 31
0.0
  0
LINE
  8
0
 10
23.735809
 20
19.277834
 30
0.0
 11
23.970809
 21
19.277834
 31
0.0
  0
LINE
  8
OBJ
 10
24.295825
 20
19.012793
 30
0.0
 11
24.295825
 21
19.095446
 31
0.0
  0
ARC
  8
OBJ
 10
24.238605
 20
19.066577
 30
0.0
 40
0.057219
 50
289.954678
 51
70.045322
  0
LINE
  8
OBJ
 10
24.098617
 20
18.685308
 30
0.0
 11
24.098617
 21
19.120361
 31
0.0
  0
LINE
  8
0
 10
24.050809
 20
18.702638
 30
0.0
 11
24.050809
 21
19.10303
 31
0.0
  0
LINE
  8
0
 10
23.860809
 20
19.277834
 30
0.0
 11
23.856809
 21
19.277834
 31
0.0
  0
ARC
  8
0
 10
23.970809
 20
19.197834
 30
0.0
 40
0.08
 50
0.0
 51
90.0
  0
LINE
  8
0
 10
23.860809
 20
19.277834
 30
0.0
 11
23.856809
 21
19.277834
 31
0.0
  0
LINE
  8
OBJ
  6
CONTINUOUS
 10
24.098617
 20
19.120361
 30
0.0
 11
24.258133
 21
19.120361
 31
0.0
  0
LINE
  8
OBJ
 10
24.295825
 20
19.095446
 30
0.0
 11
24.272605
 21
19.112599
 31
0.0
  0
LINE
  8
OBJ
  6
CENTER2
 10
24.050809
 20
19.10303
 30
0.0
 11
24.098617
 21
19.10303
 31
0.0
  0
LINE
  8
OBJ
  6
CONTINUOUS
 10
24.098617
 20
18.685308
 30
0.0
 11
24.258133
 21
18.685308
 31
0.0
  0
LINE
  8
OBJ
  6
CONTINUOUS
 10
24.098617
 20
18.792876
 30
0.0
 11
24.258133
 21
18.792876
 31
0.0
  0
LINE
  8
OBJ
  6
CONTINUOUS
 10
24.098617
 20
19.012793
 30
0.0
 11
24.258133
 21
19.012793
 31
0.0
  0
LINE
  8
OBJ
 10
24.295825
 20
18.710223
 30
0.0
 11
24.272605
 21
18.693069
 31
0.0
  0
LINE
  8
OBJ
 10
24.295825
 20
18.710223
 30
0.0
 11
24.295825
 21
18.792876
 31
0.0
  0
LINE
  8
OBJ
 10
24.295825
 20
18.792876
 30
0.0
 11
24.295825
 21
19.012793
 31
0.0
  0
ARC
  8
OBJ
 10
24.238605
 20
18.739092
 30
0.0
 40
0.057219
 50
289.954678
 51
70.045322
  0
ARC
  8
OBJ
 10
24.116587
 20
18.902834
 30
0.0
 40
0.179237
 50
322.158498
 51
37.841502
  0
LINE
  8
OBJ
 10
24.050809
 20
18.854442
 30
0.0
 11
24.098617
 21
18.806634
 31
0.0
  0
LINE
  8
OBJ
  6
CENTER2
 10
24.050809
 20
18.702638
 30
0.0
 11
24.098617
 21
18.702638
 31
0.0
  0
ARC
  8
0
 10
23.990809
 20
18.93204
 30
0.0
 40
0.06
 50
281.171353
 51
0.0
  0
LINE
  8
0
 10
23.68576
 20
19.698834
 30
0.0
 11
23.68576
 21
19.325731
 31
0.0
  0
LINE
  8
0
 10
23.550033
 20
19.268486
 30
0.0
 11
23.735809
 21
19.277834
 31
0.0
  0
ARC
  8
0
 10
23.73376
 20
19.325731
 30
0.0
 40
0.048
 50
180.0
 51
270.0
  0
LINE
  8
0
 10
23.68576
 20
19.874834
 30
0.0
 11
23.68576
 21
19.698834
 31
0.0
  0
ARC
  8
0
 10
23.62576
 20
19.874834
 30
0.0
 40
0.06
 50
0.0
 51
90.0
  0
LINE
  8
0
 10
22.34376
 20
21.648834
 30
0.0
 11
22.31376
 21
21.678834
 31
0.0
  0
LINE
  8
0
 10
22.34376
 20
21.648834
 30
0.0
 11
22.068784
 21
21.648834
 31
0.0
  0
LINE
  8
0
 62
     1
 10
14.140809
 20
18.790709
 30
0.0
 11
14.140809
 21
19.456824
 31
0.0
  0
LINE
  8
0
  6
BYBLOCK
 62
     0
 10
-2.163307
 20
2.674469
 30
0.0
 11
-2.163307
 21
-1.657473
 31
0.0
  0
LINE
  8
0
  6
BYBLOCK
 62
     0
 10
2.096693
 20
2.674469
 30
0.0
 11
2.096693
 21
-1.657473
 31
0.0
  0
LINE
  8
0
  6
BYBLOCK
 62
     0
 10
1.096693
 20
-0.657473
 30
0.0
 11
0.942128
 21
-0.657473
 31
0.0
  0
LINE
  8
0
  6
BYBLOCK
 62
     0
 10
-1.163307
 20
-0.657473
 30
0.0
 11
-0.979133
 21
-0.657473
 31
0.0
  0
SOLID
  8
0
  6
BYBLOCK
 62
     0
 10
1.096693
 20
-0.490806
 30
0.0
 11
1.096693
 21
-0.824139
 31
0.0
 12
2.096693
 22
-0.657473
 32
0.0
 13
2.096693
 23
-0.657473
 33
0.0
  0
SOLID
  8
0
  6
BYBLOCK
 62
     0
 10
-1.163307
 20
-0.490806
 30
0.0
 11
-1.163307
 21
-0.824139
 31
0.0
 12
-2.163307
 22
-0.657473
 32
0.0
 13
-2.163307
 23
-0.657473
 33
0.0
  0
TEXT
  8
0
  6
BYBLOCK
 62
     0
 10
-0.876055
 20
-0.907473
 30
0.0
 40
0.5
  1
4.26
  7
ROMAND
 72
     4
 11
-0.030817
 21
-0.657473
 31
0.0
  0
POINT
  8
DEFPOINTS
  6
BYBLOCK
 62
     0
 10
-2.163307
 20
2.95105
 30
0.0
  0
POINT
  8
DEFPOINTS
  6
BYBLOCK
 62
     0
 10
2.096693
 20
2.95105
 30
0.0
  0
POINT
  8
DEFPOINTS
  6
BYBLOCK
 62
     0
 10
2.096693
 20
-0.657473
 30
0.0
  0
ARC
  8
0
 10
-2.459398
 20
6.434324
 30
0.0
 40
0.099928
 50
273.414604
 51
285.134765
  0
LINE
  8
0
 10
-0.033307
 20
7.578219
 30
0.0
 11
-0.033307
 21
0.685164
 31
0.0
  0
LINE
  8
0
  6
BYBLOCK
 62
     0
 10
-2.433307
 20
6.742284
 30
0.0
 11
-2.433307
 21
9.587959
 31
0.0
  0
LINE
  8
0
  6
BYBLOCK
 62
     0
 10
2.366693
 20
6.742284
 30
0.0
 11
2.366693
 21
9.587959
 31
0.0
  0
LINE
  8
0
  6
BYBLOCK
 62
     0
 10
1.366693
 20
8.587959
 30
0.0
 11
1.004593
 21
8.587959
 31
0.0
  0
LINE
  8
0
  6
BYBLOCK
 62
     0
 10
-1.433307
 20
8.587959
 30
0.0
 11
-1.071208
 21
8.587959
 31
0.0
  0
SOLID
  8
0
  6
BYBLOCK
 62
     0
 10
1.366693
 20
8.754626
 30
0.0
 11
1.366693
 21
8.421292
 31
0.0
 12
2.366693
 22
8.587959
 32
0.0
 13
2.366693
 23
8.587959
 33
0.0
  0
SOLID
  8
0
  6
BYBLOCK
 62
     0
 10
-1.433307
 20
8.754626
 30
0.0
 11
-1.433307
 21
8.421292
 31
0.0
 12
-2.433307
 22
8.587959
 32
0.0
 13
-2.433307
 23
8.587959
 33
0.0
  0
TEXT
  8
0
  6
BYBLOCK
 62
     0
 10
-0.917028
 20
8.337959
 30
0.0
 40
0.5
  1
4.80
  7
ROMAND
 72
     4
 11
-0.07179
 21
8.587959
 31
0.0
  0
POINT
  8
DEFPOINTS
  6
BYBLOCK
 62
     0
 10
-2.433307
 20
6.362284
 30
0.0
  0
POINT
  8
DEFPOINTS
  6
BYBLOCK
 62
     0
 10
2.366693
 20
6.362284
 30
0.0
  0
POINT
  8
DEFPOINTS
  6
BYBLOCK
 62
     0
 10
2.366693
 20
8.587959
 30
0.0
  0
LINE
  8
0
  6
BYBLOCK
 62
     0
 10
-5.033307
 20
3.856526
 30
0.0
 11
-5.033307
 21
-3.01322
 31
0.0
  0
LINE
  8
0
  6
BYBLOCK
 62
     0
 10
4.966693
 20
3.856526
 30
0.0
 11
4.966693
 21
-3.01322
 31
0.0
  0
LINE
  8
0
  6
BYBLOCK
 62
     0
 10
-4.033307
 20
-2.392963
 30
0.0
 11
-1.509498
 21
-2.392963
 31
0.0
  0
LINE
  8
0
  6
BYBLOCK
 62
     0
 10
3.966693
 20
-2.392963
 30
0.0
 11
1.442883
 21
-2.392963
 31
0.0
  0
SOLID
  8
0
  6
BYBLOCK
 62
     0
 10
-4.033307
 20
-2.226296
 30
0.0
 11
-4.033307
 21
-2.55963
 31
0.0
 12
-5.033307
 22
-2.392963
 32
0.0
 13
-5.033307
 23
-2.392963
 33
0.0
  0
SOLID
  8
0
  6
BYBLOCK
 62
     0
 10
3.966693
 20
-2.226296
 30
0.0
 11
3.966693
 21
-2.55963
 31
0.0
 12
4.966693
 22
-2.392963
 32
0.0
 13
4.966693
 23
-2.392963
 33
0.0
  0
TEXT
  8
0
  6
BYBLOCK
 62
     0
 10
-1.152355
 20
-2.642963
 30
0.0
 40
0.5
  1
10.00
  7
ROMAND
 72
     1
 11
-0.033307
 21
-2.392963
 31
0.0
 73
     2
  0
POINT
  8
DEFPOINTS
  6
BYBLOCK
 62
     0
 10
-5.033307
 20
4.236526
 30
0.0
  0
POINT
  8
DEFPOINTS
  6
BYBLOCK
 62
     0
 10
4.966693
 20
4.236526
 30
0.0
  0
POINT
  8
DEFPOINTS
  6
BYBLOCK
 62
     0
 10
4.966693
 20
-2.392963
 30
0.0
  0
LINE
  8
0
 62
     1
 10
15.240809
 20
18.795626
 30
0.0
 11
15.240809
 21
19.980988
 31
0.0
  0
LINE
  8
0
 62
     1
 10
15.240809
 20
14.562043
 30
0.0
 11
15.240809
 21
13.376681
 31
0.0
  0
LINE
  8
0
 62
     1
 10
14.140809
 20
14.566959
 30
0.0
 11
14.140809
 21
13.900844
 31
0.0
  0
LINE
  8
0
  6
BYBLOCK
 62
     0
 10
21.95076
 20
11.298834
 30
0.0
 11
21.95076
 21
8.816843
 31
0.0
  0
LINE
  8
0
  6
BYBLOCK
 62
     0
 10
14.140809
 20
13.520844
 30
0.0
 11
14.140809
 21
8.816843
 31
0.0
  0
LINE
  8
0
  6
BYBLOCK
 62
     0
 10
20.95076
 20
9.337491
 30
0.0
 11
19.248165
 21
9.337491
 31
0.0
  0
LINE
  8
0
  6
BYBLOCK
 62
     0
 10
15.140809
 20
9.337491
 30
0.0
 11
16.843403
 21
9.337491
 31
0.0
  0
SOLID
  8
0
  6
BYBLOCK
 62
     0
 10
20.95076
 20
9.504157
 30
0.0
 11
20.95076
 21
9.170824
 31
0.0
 12
21.95076
 22
9.337491
 32
0.0
 13
21.95076
 23
9.337491
 33
0.0
  0
SOLID
  8
0
  6
BYBLOCK
 62
     0
 10
15.140809
 20
9.504157
 30
0.0
 11
15.140809
 21
9.170824
 31
0.0
 12
14.140809
 22
9.337491
 32
0.0
 13
14.140809
 23
9.337491
 33
0.0
  0
TEXT
  8
0
  6
BYBLOCK
 62
     0
 10
17.271975
 20
9.087491
 30
0.0
 40
0.5
  1
7.81
  7
ROMAND
 72
     1
 11
18.045784
 21
9.337491
 31
0.0
 73
     2
  0
POINT
  8
DEFPOINTS
  6
BYBLOCK
 62
     0
 10
21.95076
 20
11.678834
 30
0.0
  0
POINT
  8
DEFPOINTS
  6
BYBLOCK
 62
     0
 10
14.140809
 20
13.900844
 30
0.0
  0
POINT
  8
DEFPOINTS
  6
BYBLOCK
 62
     0
 10
14.140809
 20
9.337491
 30
0.0
  0
LINE
  8
0
  6
BYBLOCK
 62
     0
 10
21.95076
 20
11.298834
 30
0.0
 11
21.95076
 21
9.662774
 31
0.0
  0
LINE
  8
0
  6
BYBLOCK
 62
     0
 10
15.240809
 20
12.996681
 30
0.0
 11
15.240809
 21
10.094795
 31
0.0
  0
LINE
  8
0
  6
BYBLOCK
 62
     0
 10
20.95076
 20
10.662774
 30
0.0
 11
19.78626
 21
10.662774
 31
0.0
  0
LINE
  8
0
  6
BYBLOCK
 62
     0
 10
16.240809
 20
10.662774
 30
0.0
 11
17.405308
 21
10.662774
 31
0.0
  0
SOLID
  8
0
  6
BYBLOCK
 62
     0
 10
20.95076
 20
10.829441
 30
0.0
 11
20.95076
 21
10.496107
 31
0.0
 12
21.95076
 22
10.662774
 32
0.0
 13
21.95076
 23
10.662774
 33
0.0
  0
SOLID
  8
0
  6
BYBLOCK
 62
     0
 10
16.240809
 20
10.829441
 30
0.0
 11
16.240809
 21
10.496107
 31
0.0
 12
15.240809
 22
10.662774
 32
0.0
 13
15.240809
 23
10.662774
 33
0.0
  0
TEXT
  8
0
  6
BYBLOCK
 62
     0
 10
17.81007
 20
10.412774
 30
0.0
 40
0.5
  1
6.71
  7
ROMAND
 72
     1
 11
18.595784
 21
10.662774
 31
0.0
 73
     2
  0
POINT
  8
DEFPOINTS
  6
BYBLOCK
 62
     0
 10
21.95076
 20
11.678834
 30
0.0
  0
POINT
  8
DEFPOINTS
  6
BYBLOCK
 62
     0
 10
15.240809
 20
13.376681
 30
0.0
  0
POINT
  8
DEFPOINTS
  6
BYBLOCK
 62
     0
 10
15.240809
 20
10.662774
 30
0.0
  0
LINE
  8
0
  6
BYBLOCK
 62
     0
 10
25.100809
 20
4.59955
 30
0.0
 11
27.232505
 21
4.59955
 31
0.0
  0
LINE
  8
0
  6
BYBLOCK
 62
     0
 10
24.338784
 20
0.37955
 30
0.0
 11
27.353299
 21
0.37955
 31
0.0
  0
LINE
  8
0
  6
BYBLOCK
 62
     0
 10
26.776264
 20
1.37955
 30
0.0
 11
26.776264
 21
1.867068
 31
0.0
  0
LINE
  8
0
  6
BYBLOCK
 62
     0
 10
26.776264
 20
3.59955
 30
0.0
 11
26.776264
 21
3.15789
 31
0.0
  0
SOLID
  8
0
  6
BYBLOCK
 62
     0
 10
26.609597
 20
1.37955
 30
0.0
 11
26.94293
 21
1.37955
 31
0.0
 12
26.776264
 22
0.37955
 32
0.0
 13
26.776264
 23
0.37955
 33
0.0
  0
SOLID
  8
0
  6
BYBLOCK
 62
     0
 10
26.609597
 20
3.59955
 30
0.0
 11
26.94293
 21
3.59955
 31
0.0
 12
26.776264
 22
4.59955
 32
0.0
 13
26.776264
 23
4.59955
 33
0.0
  0
TEXT
  8
0
  6
BYBLOCK
 62
     0
 10
25.930076
 20
2.342059
 30
0.0
 40
0.5
  1
4.22
  7
ROMAND
 72
     1
 11
26.775314
 21
2.592059
 31
0.0
 73
     2
  0
POINT
  8
DEFPOINTS
  6
BYBLOCK
 62
     0
 10
26.776264
 20
0.37955
 30
0.0
  0
LINE
  8
0
 10
-5.003307
 20
4.206574
 30
0.0
 11
-5.033307
 21
4.236574
 31
0.0
  0
LINE
  8
0
 10
4.936693
 20
4.206574
 30
0.0
 11
4.966693
 21
4.236574
 31
0.0
  0
LINE
  8
0
  6
BYBLOCK
 62
     0
 10
6.016627
 20
4.59955
 30
0.0
 11
7.771305
 21
4.59955
 31
0.0
  0
LINE
  8
0
  6
BYBLOCK
 62
     0
 10
3.358768
 20
5.78355
 30
0.0
 11
7.715083
 21
5.78355
 31
0.0
  0
LINE
  8
0
  6
BYBLOCK
 62
     0
 10
7.213083
 20
3.59955
 30
0.0
 11
7.213083
 21
2.59955
 31
0.0
  0
LINE
  8
0
  6
BYBLOCK
 62
     0
 10
7.213083
 20
6.78355
 30
0.0
 11
7.213083
 21
7.78355
 31
0.0
  0
SOLID
  8
0
  6
BYBLOCK
 62
     0
 10
7.046417
 20
3.59955
 30
0.0
 11
7.37975
 21
3.59955
 31
0.0
 12
7.213083
 22
4.59955
 32
0.0
 13
7.213083
 23
4.59955
 33
0.0
  0
SOLID
  8
0
  6
BYBLOCK
 62
     0
 10
7.046417
 20
6.78355
 30
0.0
 11
7.37975
 21
6.78355
 31
0.0
 12
7.213083
 22
5.78355
 32
0.0
 13
7.213083
 23
5.78355
 33
0.0
  0
TEXT
  8
0
  6
BYBLOCK
 62
     0
 10
6.32133
 20
4.953922
 30
0.0
 40
0.5
  1
1.18
  7
ROMAND
 72
     1
 11
7.202283
 21
5.203922
 31
0.0
 73
     2
  0
POINT
  8
DEFPOINTS
  6
BYBLOCK
 62
     0
 10
7.213083
 20
5.78355
 30
0.0
  0
LINE
  8
0
  6
BYBLOCK
 62
     0
 10
24.720809
 20
3.87155
 30
0.0
 11
24.720809
 21
0.538945
 31
0.0
  0
LINE
  8
0
  6
BYBLOCK
 62
     0
 10
12.729848
 20
2.63864
 30
0.0
 11
12.729848
 21
-3.01322
 31
0.0
  0
LINE
  8
0
  6
BYBLOCK
 62
     0
 10
23.720809
 20
-2.376727
 30
0.0
 11
20.189614
 21
-2.376727
 31
0.0
  0
LINE
  8
0
  6
BYBLOCK
 62
     0
 10
13.729848
 20
-2.376727
 30
0.0
 11
17.261042
 21
-2.376727
 31
0.0
  0
SOLID
  8
0
  6
BYBLOCK
 62
     0
 10
23.720809
 20
-2.21006
 30
0.0
 11
23.720809
 21
-2.543394
 31
0.0
 12
24.720809
 22
-2.376727
 32
0.0
 13
24.720809
 23
-2.376727
 33
0.0
  0
SOLID
  8
0
  6
BYBLOCK
 62
     0
 10
13.729848
 20
-2.21006
 30
0.0
 11
13.729848
 21
-2.543394
 31
0.0
 12
12.729848
 22
-2.376727
 32
0.0
 13
12.729848
 23
-2.376727
 33
0.0
  0
TEXT
  8
0
  6
BYBLOCK
 62
     0
 10
17.618185
 20
-2.626727
 30
0.0
 40
0.5
  1
11.99
  7
ROMAND
 72
     1
 11
18.725328
 21
-2.376727
 31
0.0
 73
     2
  0
POINT
  8
DEFPOINTS
  6
BYBLOCK
 62
     0
 10
24.720809
 20
4.25155
 30
0.0
  0
POINT
  8
DEFPOINTS
  6
BYBLOCK
 62
     0
 10
12.729848
 20
3.01864
 30
0.0
  0
POINT
  8
DEFPOINTS
  6
BYBLOCK
 62
     0
 10
12.729848
 20
-2.376727
 30
0.0
  0
LINE
  8
0
  6
BYBLOCK
 62
     0
 10
13.268399
 20
7.2537
 30
0.0
 11
10.442149
 21
7.2537
 31
0.0
  0
LINE
  8
0
  6
BYBLOCK
 62
     0
 10
14.128784
 20
0.37955
 30
0.0
 11
12.952753
 21
0.37955
 31
0.0
  0
LINE
  8
0
  6
BYBLOCK
 62
     0
 10
11.008298
 20
6.2537
 30
0.0
 11
11.008298
 21
4.816625
 31
0.0
  0
LINE
  8
0
  6
BYBLOCK
 62
     0
 10
11.008298
 20
1.37955
 30
0.0
 11
11.008298
 21
2.816625
 31
0.0
  0
SOLID
  8
0
  6
BYBLOCK
 62
     0
 10
10.841632
 20
6.2537
 30
0.0
 11
11.174965
 21
6.2537
 31
0.0
 12
11.008298
 22
7.2537
 32
0.0
 13
11.008298
 23
7.2537
 33
0.0
  0
SOLID
  8
0
  6
BYBLOCK
 62
     0
 10
10.841632
 20
1.37955
 30
0.0
 11
11.174965
 21
1.37955
 31
0.0
 12
11.008298
 22
0.37955
 32
0.0
 13
11.008298
 23
0.37955
 33
0.0
  0
TEXT
  8
0
  6
BYBLOCK
 62
     0
 10
10.151156
 20
3.566625
 30
0.0
 40
0.5
  1
6.87
  7
ROMAND
 72
     1
 11
11.008298
 21
3.816625
 31
0.0
 73
     2
  0
POINT
  8
DEFPOINTS
  6
BYBLOCK
 62
     0
 10
13.648399
 20
7.2537
 30
0.0
  0
POINT
  8
DEFPOINTS
  6
BYBLOCK
 62
     0
 10
14.508784
 20
0.37955
 30
0.0
  0
POINT
  8
DEFPOINTS
  6
BYBLOCK
 62
     0
 10
11.008298
 20
0.37955
 30
0.0
  0
LINE
  8
0
  6
BYBLOCK
 62
     0
 10
12.547214
 20
0.37955
 30
0.0
 11
10.562943
 21
0.37955
 31
0.0
  0
LINE
  8
0
  6
BYBLOCK
 62
     0
 10
24.720809
 20
0.207279
 30
0.0
 11
24.720809
 21
-3.01322
 31
0.0
  0
LINE
  8
0
  6
BYBLOCK
 62
     0
 10
-6.083242
 20
4.59955
 30
0.0
 11
-7.577411
 21
4.59955
 31
0.0
  0
LINE
  8
0
  6
BYBLOCK
 62
     0
 10
-2.908475
 20
3.51105
 30
0.0
 11
-4.945961
 21
3.51105
 31
0.0
  0
LINE
  8
0
  6
BYBLOCK
 62
     0
 10
-7.07141
 20
5.59955
 30
0.0
 11
-7.07141
 21
6.59955
 31
0.0
  0
LINE
  8
0
  6
BYBLOCK
 62
     0
 10
-7.07141
 20
2.51105
 30
0.0
 11
-7.07141
 21
1.51105
 31
0.0
  0
SOLID
  8
0
  6
BYBLOCK
 62
     0
 10
-7.238076
 20
5.59955
 30
0.0
 11
-6.904743
 21
5.59955
 31
0.0
 12
-7.07141
 22
4.59955
 32
0.0
 13
-7.07141
 23
4.59955
 33
0.0
  0
SOLID
  8
0
  6
BYBLOCK
 62
     0
 10
-7.238076
 20
2.51105
 30
0.0
 11
-6.904743
 21
2.51105
 31
0.0
 12
-7.07141
 22
3.51105
 32
0.0
 13
-7.07141
 23
3.51105
 33
0.0
  0
TEXT
  8
0
  6
BYBLOCK
 62
     0
 10
-7.889641
 20
3.846205
 30
0.0
 40
0.5
  1
1.09
  7
ROMAND
 72
     1
 11
-7.020593
 21
4.096205
 31
0.0
 73
     2
  0
POINT
  8
DEFPOINTS
  6
BYBLOCK
 62
     0
 10
-5.703242
 20
4.59955
 30
0.0
  0
POINT
  8
DEFPOINTS
  6
BYBLOCK
 62
     0
 10
-2.716084
 20
3.51105
 30
0.0
  0
POINT
  8
DEFPOINTS
  6
BYBLOCK
 62
     0
 10
-7.07141
 20
3.51105
 30
0.0
  0
LINE
  8
0
  6
BYBLOCK
 62
     0
 10
-5.097347
 20
3.51105
 30
0.0
 11
-7.577411
 21
3.51105
 31
0.0
  0
ENDSEC
  0
EOF
