  0
SECTION
  2
HEADER
  9
$ACADVER
  1
AC1009
  9
$INSBASE
 10
0.0
 20
0.0
 30
0.0
  9
$EXTMIN
 10
0.503797
 20
0.435089
 30
0.0
  9
$EXTMAX
 10
33.966336
 20
24.56499
 30
0.0
  9
$LIMMIN
 10
0.0
 20
0.0
  9
$LIMMAX
 10
12.0
 20
9.0
  9
$ORTHOMODE
 70
     0
  9
$REGENMODE
 70
     1
  9
$FILLMODE
 70
     1
  9
$QTEXTMODE
 70
     0
  9
$MIRRTEXT
 70
     1
  9
$DRAGMODE
 70
     2
  9
$LTSCALE
 40
1.0
  9
$OSMODE
 70
     0
  9
$ATTMODE
 70
     1
  9
$TEXTSIZE
 40
2.0
  9
$TRACEWID
 40
0.05
  9
$TEXTSTYLE
  7
ROMAND
  9
$CLAYER
  8
0
  9
$CELTYPE
  6
BYLAYER
  9
$CECOLOR
 62
   256
  9
$DIMSCALE
 40
1.0
  9
$DIMASZ
 40
0.18
  9
$DIMEXO
 40
0.0625
  9
$DIMDLI
 40
0.38
  9
$DIMRND
 40
0.0
  9
$DIMDLE
 40
0.0
  9
$DIMEXE
 40
0.18
  9
$DIMTP
 40
0.0
  9
$DIMTM
 40
0.0
  9
$DIMTXT
 40
0.18
  9
$DIMCEN
 40
0.09
  9
$DIMTSZ
 40
0.0
  9
$DIMTOL
 70
     0
  9
$DIMLIM
 70
     0
  9
$DIMTIH
 70
     1
  9
$DIMTOH
 70
     1
  9
$DIMSE1
 70
     0
  9
$DIMSE2
 70
     0
  9
$DIMTAD
 70
     0
  9
$DIMZIN
 70
     0
  9
$DIMBLK
  1

  9
$DIMASO
 70
     1
  9
$DIMSHO
 70
     1
  9
$DIMPOST
  1

  9
$DIMAPOST
  1

  9
$DIMALT
 70
     0
  9
$DIMALTD
 70
     2
  9
$DIMALTF
 40
25.4
  9
$DIMLFAC
 40
1.0
  9
$DIMTOFL
 70
     0
  9
$DIMTVP
 40
0.0
  9
$DIMTIX
 70
     0
  9
$DIMSOXD
 70
     0
  9
$DIMSAH
 70
     0
  9
$DIMBLK1
  1

  9
$DIMBLK2
  1

  9
$DIMSTYLE
  2
*UNNAMED
  9
$DIMCLRD
 70
     0
  9
$DIMCLRE
 70
     0
  9
$DIMCLRT
 70
     0
  9
$DIMTFAC
 40
1.0
  9
$DIMGAP
 40
0.09
  9
$LUNITS
 70
     2
  9
$LUPREC
 70
     4
  9
$SKETCHINC
 40
0.1
  9
$FILLETRAD
 40
0.0
  9
$AUNITS
 70
     0
  9
$AUPREC
 70
     0
  9
$MENU
  1
acad
  9
$ELEVATION
 40
0.0
  9
$PELEVATION
 40
0.0
  9
$THICKNESS
 40
0.0
  9
$LIMCHECK
 70
     0
  9
$BLIPMODE
 70
     1
  9
$CHAMFERA
 40
0.0
  9
$CHAMFERB
 40
0.0
  9
$SKPOLY
 70
     0
  9
$TDCREATE
 40
2451150.381187268
  9
$TDUPDATE
 40
2451150.383437731
  9
$TDINDWG
 40
0.0022504630
  9
$TDUSRTIMER
 40
0.0022504630
  9
$USRTIMER
 70
     1
  9
$ANGBASE
 50
0.0
  9
$ANGDIR
 70
     0
  9
$PDMODE
 70
     0
  9
$PDSIZE
 40
0.0
  9
$PLINEWID
 40
0.0
  9
$COORDS
 70
     1
  9
$SPLFRAME
 70
     0
  9
$SPLINETYPE
 70
     6
  9
$SPLINESEGS
 70
     8
  9
$ATTDIA
 70
     0
  9
$ATTREQ
 70
     1
  9
$HANDLING
 70
     0
  9
$HANDSEED
  5
0
  9
$SURFTAB1
 70
     6
  9
$SURFTAB2
 70
     6
  9
$SURFTYPE
 70
     6
  9
$SURFU
 70
     6
  9
$SURFV
 70
     6
  9
$UCSNAME
  2

  9
$UCSORG
 10
0.0
 20
0.0
 30
0.0
  9
$UCSXDIR
 10
1.0
 20
0.0
 30
0.0
  9
$UCSYDIR
 10
0.0
 20
1.0
 30
0.0
  9
$PUCSNAME
  2

  9
$PUCSORG
 10
0.0
 20
0.0
 30
0.0
  9
$PUCSXDIR
 10
1.0
 20
0.0
 30
0.0
  9
$PUCSYDIR
 10
0.0
 20
1.0
 30
0.0
  9
$USERI1
 70
     0
  9
$USERI2
 70
     0
  9
$USERI3
 70
     0
  9
$USERI4
 70
     0
  9
$USERI5
 70
     0
  9
$USERR1
 40
0.0
  9
$USERR2
 40
0.0
  9
$USERR3
 40
0.0
  9
$USERR4
 40
0.0
  9
$USERR5
 40
0.0
  9
$WORLDVIEW
 70
     1
  9
$SHADEDGE
 70
     3
  9
$SHADEDIF
 70
    70
  9
$TILEMODE
 70
     1
  9
$MAXACTVP
 70
    16
  9
$PINSBASE
 10
0.0
 20
0.0
 30
0.0
  9
$PLIMCHECK
 70
     0
  9
$PEXTMIN
 10
1.000000E+20
 20
1.000000E+20
 30
1.000000E+20
  9
$PEXTMAX
 10
-1.000000E+20
 20
-1.000000E+20
 30
-1.000000E+20
  9
$PLIMMIN
 10
0.0
 20
0.0
  9
$PLIMMAX
 10
12.0
 20
9.0
  9
$UNITMODE
 70
     0
  9
$VISRETAIN
 70
     0
  9
$PLINEGEN
 70
     0
  9
$PSLTSCALE
 70
     1
  9
$TREEDEPTH
 70
  3020
  9
$DWGCODEPAGE
  3
iso8859-1
  0
ENDSEC
  0
SECTION
  2
TABLES
  0
TABLE
  2
VPORT
 70
     2
  0
VPORT
  2
*ACTIVE
 70
     0
 10
0.0
 20
0.0
 11
1.0
 21
1.0
 12
17.181654
 22
12.476951
 13
0.0
 23
0.0
 14
1.0
 24
1.0
 15
0.0
 25
0.0
 16
0.0
 26
0.0
 36
1.0
 17
0.0
 27
0.0
 37
0.0
 40
25.042187
 41
1.379728
 42
50.0
 43
0.0
 44
0.0
 50
0.0
 51
0.0
 71
     0
 72
   100
 73
     1
 74
     0
 75
     0
 76
     0
 77
     0
 78
     0
  0
ENDTAB
  0
TABLE
  2
LTYPE
 70
     2
  0
LTYPE
  2
CONTINUOUS
 70
    64
  3
Solid line
 72
    65
 73
     0
 40
0.0
  0
LTYPE
  2
CENTER2
 70
    64
  3
___ _ ___ _ ___ _ ___ _ ___ _ ___ _ ___ _ ___ _
 72
    65
 73
     4
 40
1.125
 49
0.75
 49
-0.125
 49
0.125
 49
-0.125
  0
ENDTAB
  0
TABLE
  2
LAYER
 70
     2
  0
LAYER
  2
0
 70
    64
 62
     7
  6
CONTINUOUS
  0
LAYER
  2
OBJ
 70
    64
 62
     7
  6
CONTINUOUS
  0
ENDTAB
  0
TABLE
  2
STYLE
 70
     2
  0
STYLE
  2
STANDARD
 70
     0
 40
0.0
 41
1.0
 50
0.0
 71
     0
 42
2.0
  3
txt
  4

  0
STYLE
  2
ROMAND
 70
    64
 40
0.0
 41
1.0
 50
0.0
 71
     0
 42
2.0
  3
romand
  4

  0
ENDTAB
  0
TABLE
  2
VIEW
 70
     0
  0
ENDTAB
  0
TABLE
  2
UCS
 70
     0
  0
ENDTAB
  0
TABLE
  2
APPID
 70
     1
  0
APPID
  2
ACAD
 70
    64
  0
ENDTAB
  0
TABLE
  2
DIMSTYLE
 70
     0
  0
ENDTAB
  0
ENDSEC
  0
SECTION
  2
BLOCKS
  0
ENDSEC
  0
SECTION
  2
ENTITIES
  0
LINE
  8
OBJ
 10
23.623016
 20
6.226378
 30
0.0
 11
23.239655
 21
6.226378
 31
0.0
  0
LINE
  8
OBJ
 10
23.239655
 20
5.562378
 30
0.0
 11
23.623016
 21
5.562378
 31
0.0
  0
LINE
  8
OBJ
 10
23.623016
 20
4.336378
 30
0.0
 11
23.239655
 21
4.336378
 31
0.0
  0
LINE
  8
OBJ
 10
23.239655
 20
3.672378
 30
0.0
 11
23.623016
 21
3.672378
 31
0.0
  0
CIRCLE
  8
OBJ
 10
23.431336
 20
5.894378
 30
0.0
 40
0.169
  0
LINE
  8
OBJ
 10
23.431336
 20
6.358378
 30
0.0
 11
23.901336
 21
6.358378
 31
0.0
  0
CIRCLE
  8
OBJ
 10
23.431336
 20
4.004378
 30
0.0
 40
0.169
  0
CIRCLE
  8
OBJ
 10
23.431336
 20
4.004378
 30
0.0
 40
0.215
  0
CIRCLE
  8
OBJ
 10
23.431336
 20
4.004378
 30
0.0
 40
0.31
  0
ARC
  8
OBJ
 10
23.431336
 20
4.004378
 30
0.0
 40
0.5033
 50
20.958992
 51
147.610572
  0
CIRCLE
  8
OBJ
 10
23.431336
 20
5.894378
 30
0.0
 40
0.215
  0
CIRCLE
  8
OBJ
 10
23.431336
 20
5.894378
 30
0.0
 40
0.31
  0
ARC
  8
OBJ
 10
23.431336
 20
5.894378
 30
0.0
 40
0.5033
 50
212.389428
 51
339.041008
  0
ARC
  8
OBJ
 10
23.710336
 20
7.310178
 30
0.0
 40
0.374
 50
90.0
 51
171.49517
  0
LINE
  8
OBJ
 10
23.431336
 20
3.540378
 30
0.0
 11
23.901336
 21
3.540378
 31
0.0
  0
ARC
  8
OBJ
 10
23.710336
 20
2.588578
 30
0.0
 40
0.374
 50
181.40463
 51
270.0
  0
LINE
  8
OBJ
  6
CENTER2
 10
29.501336
 20
3.650378
 30
0.0
 11
23.431336
 21
3.650378
 31
0.0
  0
LINE
  8
OBJ
  6
CENTER2
 10
18.966336
 20
4.949378
 30
0.0
 11
33.966336
 21
4.949378
 31
0.0
  0
LINE
  8
OBJ
 10
10.188916
 20
13.451015
 30
0.0
 11
10.188916
 21
14.577198
 31
0.0
  0
LINE
  8
OBJ
 10
13.176916
 20
13.724825
 30
0.0
 11
13.176916
 21
13.586517
 31
0.0
  0
ARC
  8
OBJ
 10
13.081167
 20
13.634825
 30
0.0
 40
0.095748
 50
289.954678
 51
70.045322
  0
LINE
  8
OBJ
 10
13.236916
 20
14.105625
 30
0.0
 11
13.236916
 21
13.712025
 31
0.0
  0
LINE
  8
OBJ
 10
13.296916
 20
14.105625
 30
0.0
 11
13.296916
 21
13.712025
 31
0.0
  0
LINE
  8
OBJ
 10
13.296916
 20
13.712025
 30
0.0
 11
13.326916
 21
13.742025
 31
0.0
  0
LINE
  8
OBJ
 10
12.846916
 20
14.272825
 30
0.0
 11
12.846916
 21
13.544825
 31
0.0
  0
LINE
  8
OBJ
  6
CENTER2
 10
15.351416
 20
20.403825
 30
0.0
 11
15.351416
 21
13.483825
 31
0.0
  0
LINE
  8
OBJ
 10
12.766916
 20
14.818825
 30
0.0
 11
12.766916
 21
13.543825
 31
0.0
  0
LINE
  8
OBJ
 10
10.417056
 20
14.029824
 30
0.0
 11
10.904476
 21
13.542404
 31
0.0
  0
LINE
  8
OBJ
 10
12.274916
 20
20.403825
 30
0.0
 11
12.274916
 21
13.483825
 31
0.0
  0
LINE
  8
OBJ
  6
CENTER2
 10
14.354916
 20
20.403825
 30
0.0
 11
14.354916
 21
13.483825
 31
0.0
  0
LINE
  8
OBJ
 10
6.958916
 20
13.164825
 30
0.0
 11
6.958916
 21
13.889678
 31
0.0
  0
ARC
  8
OBJ
 10
2.410916
 20
13.695825
 30
0.0
 40
0.06
 50
0.0
 51
90.0
  0
LINE
  8
OBJ
  6
CENTER2
 10
4.714916
 20
10.150071
 30
0.0
 11
4.714916
 21
16.943825
 31
0.0
  0
LINE
  8
OBJ
 10
6.982836
 20
4.879378
 30
0.0
 11
9.754916
 21
4.879378
 31
0.0
  0
LINE
  8
OBJ
 10
6.982836
 20
5.019378
 30
0.0
 11
10.462916
 21
5.019378
 31
0.0
  0
LINE
  8
OBJ
 10
9.547916
 20
1.631178
 30
0.0
 11
8.961174
 21
2.21792
 31
0.0
  0
LINE
  8
OBJ
 10
2.832916
 20
2.21792
 30
0.0
 11
11.052916
 21
2.21792
 31
0.0
  0
ARC
  8
OBJ
 10
2.378072
 20
39.942509
 30
0.0
 40
37.727331
 50
269.992169
 51
285.231051
  0
ARC
  8
OBJ
 10
3.488482
 20
-25.655988
 30
0.0
 40
33.399802
 50
74.826536
 51
91.914057
  0
LINE
  8
OBJ
  6
CENTER2
 10
4.954916
 20
4.949378
 30
0.0
 11
15.550188
 21
4.949378
 31
0.0
  0
LINE
  8
OBJ
  6
CENTER2
 10
4.714916
 20
4.709378
 30
0.0
 11
4.714916
 21
0.766446
 31
0.0
  0
LINE
  8
OBJ
 10
2.137916
 20
6.968978
 30
0.0
 11
2.137916
 21
3.006378
 31
0.0
  0
ARC
  8
OBJ
 10
13.702382
 20
2.711105
 30
0.0
 40
12.540607
 50
159.767161
 51
174.112893
  0
LINE
  8
OBJ
 10
2.372916
 20
2.215178
 30
0.0
 11
2.372916
 21
7.725178
 31
0.0
  0
LINE
  8
OBJ
 10
2.057916
 20
2.295178
 30
0.0
 11
2.057916
 21
7.645178
 31
0.0
  0
CIRCLE
  8
OBJ
 10
4.714916
 20
4.949378
 30
0.0
 40
1.1615
  0
CIRCLE
  8
OBJ
 10
4.714916
 20
4.949378
 30
0.0
 40
2.269
  0
CIRCLE
  8
OBJ
 10
4.714916
 20
4.949378
 30
0.0
 40
0.89
  0
ARC
  8
OBJ
 10
4.714916
 20
4.949378
 30
0.0
 40
1.38
 50
195.121665
 51
344.878335
  0
LINE
  8
OBJ
  6
CONTINUOUS
 10
2.000316
 20
2.403098
 30
0.0
 11
1.808127
 21
2.403098
 31
0.0
  0
LINE
  8
OBJ
 10
2.057916
 20
2.295178
 30
0.0
 11
1.827945
 21
2.295178
 31
0.0
  0
LINE
  8
OBJ
  6
CONTINUOUS
 10
2.000316
 20
2.927258
 30
0.0
 11
1.808127
 21
2.927258
 31
0.0
  0
LINE
  8
OBJ
  6
CONTINUOUS
 10
2.000316
 20
2.797658
 30
0.0
 11
1.808127
 21
2.797658
 31
0.0
  0
LINE
  8
OBJ
  6
CONTINUOUS
 10
2.000316
 20
2.532698
 30
0.0
 11
1.808127
 21
2.532698
 31
0.0
  0
LINE
  8
OBJ
 10
1.767945
 20
2.901103
 30
0.0
 11
1.767945
 21
3.697378
 31
0.0
  0
LINE
  8
OBJ
 10
1.537716
 20
2.403162
 30
0.0
 11
1.537716
 21
3.127195
 31
0.0
  0
ARC
  8
OBJ
 10
1.874595
 20
2.765178
 30
0.0
 40
0.33688
 50
142.158498
 51
217.841502
  0
ARC
  8
OBJ
 10
1.827945
 20
2.355178
 30
0.0
 40
0.06
 50
180.0
 51
270.0
  0
POINT
  8
OBJ
 10
1.964711
 20
2.481293
 30
0.0
  0
LINE
  8
OBJ
 10
1.762716
 20
2.433116
 30
0.0
 11
1.762716
 21
2.89724
 31
0.0
  0
LINE
  8
OBJ
 10
1.762716
 20
2.433116
 30
0.0
 11
1.790691
 21
2.412449
 31
0.0
  0
LINE
  8
OBJ
 10
1.762716
 20
2.89724
 30
0.0
 11
1.790691
 21
2.917907
 31
0.0
  0
ARC
  8
OBJ
 10
1.831654
 20
2.862458
 30
0.0
 40
0.068939
 50
109.954678
 51
250.045322
  0
LINE
  8
OBJ
  6
CONTINUOUS
 10
1.762716
 20
2.558509
 30
0.0
 11
1.608558
 21
2.558509
 31
0.0
  0
ARC
  8
OBJ
 10
1.978664
 20
2.665178
 30
0.0
 40
0.215949
 50
142.158498
 51
217.841502
  0
LINE
  8
OBJ
 10
1.537716
 20
2.403162
 30
0.0
 11
1.581358
 21
2.370921
 31
0.0
  0
LINE
  8
OBJ
  6
CONTINUOUS
 10
1.762716
 20
2.356333
 30
0.0
 11
1.608558
 21
2.356333
 31
0.0
  0
ARC
  8
OBJ
 10
1.64526
 20
2.457421
 30
0.0
 40
0.107545
 50
109.954678
 51
250.045322
  0
ARC
  8
OBJ
 10
1.831654
 20
2.467898
 30
0.0
 40
0.068939
 50
109.954678
 51
250.045322
  0
LINE
  8
OBJ
 10
1.767945
 20
2.355178
 30
0.0
 11
1.767945
 21
2.429253
 31
0.0
  0
LINE
  8
OBJ
 10
1.537716
 20
3.127195
 30
0.0
 11
1.581358
 21
3.159436
 31
0.0
  0
ARC
  8
OBJ
 10
1.64526
 20
3.072935
 30
0.0
 40
0.107545
 50
109.954678
 51
250.045322
  0
LINE
  8
OBJ
  6
CONTINUOUS
 10
1.762716
 20
3.174023
 30
0.0
 11
1.608558
 21
3.174023
 31
0.0
  0
LINE
  8
OBJ
  6
CONTINUOUS
 10
1.762716
 20
2.971847
 30
0.0
 11
1.608558
 21
2.971847
 31
0.0
  0
LINE
  8
OBJ
 10
1.617945
 20
3.847378
 30
0.0
 11
1.377916
 21
3.847378
 31
0.0
  0
ARC
  8
OBJ
 10
1.377916
 20
3.997378
 30
0.0
 40
0.15
 50
180.0
 51
270.0
  0
ARC
  8
OBJ
 10
1.617945
 20
3.697378
 30
0.0
 40
0.15
 50
0.0
 51
90.0
  0
LINE
  8
OBJ
  6
CENTER2
 10
3.899916
 20
2.447268
 30
0.0
 11
3.899916
 21
0.435089
 31
0.0
  0
LINE
  8
OBJ
 10
2.832916
 20
1.441178
 30
0.0
 11
2.832916
 21
2.21792
 31
0.0
  0
LINE
  8
OBJ
 10
3.309916
 20
1.679378
 30
0.0
 11
3.309916
 21
1.919378
 31
0.0
  0
CIRCLE
  8
OBJ
 10
3.309916
 20
1.799378
 30
0.0
 40
0.1875
  0
LINE
  8
OBJ
 10
4.337916
 20
1.631178
 30
0.0
 11
4.924657
 21
2.21792
 31
0.0
  0
LINE
  8
OBJ
 10
2.832916
 20
1.441178
 30
0.0
 11
4.337916
 21
1.441178
 31
0.0
  0
LINE
  8
OBJ
 10
4.337916
 20
1.441178
 30
0.0
 11
4.337916
 21
1.631178
 31
0.0
  0
ARC
  8
OBJ
 10
2.137916
 20
2.926378
 30
0.0
 40
0.08
 50
90.0
 51
180.0
  0
LINE
  8
OBJ
 10
2.374316
 20
2.668498
 30
0.0
 11
2.374316
 21
3.192658
 31
0.0
  0
ARC
  8
OBJ
 10
2.137916
 20
2.403978
 30
0.0
 40
0.08
 50
180.0
 51
270.0
  0
ARC
  8
OBJ
 10
2.137916
 20
2.295178
 30
0.0
 40
0.08
 50
180.0
 51
270.0
  0
LINE
  8
OBJ
 10
2.137916
 20
2.323978
 30
0.0
 11
2.372916
 21
2.323978
 31
0.0
  0
LINE
  8
OBJ
 10
2.372916
 20
2.215178
 30
0.0
 11
2.137916
 21
2.215178
 31
0.0
  0
LINE
  8
OBJ
  6
CENTER2
 10
2.057916
 20
2.423978
 30
0.0
 11
2.000316
 21
2.423978
 31
0.0
  0
LINE
  8
OBJ
  6
CENTER2
 10
2.057916
 20
2.906378
 30
0.0
 11
2.000316
 21
2.906378
 31
0.0
  0
LINE
  8
OBJ
 10
2.057916
 20
2.606874
 30
0.0
 11
2.000316
 21
2.549274
 31
0.0
  0
LINE
  8
OBJ
 10
2.000316
 20
2.403098
 30
0.0
 11
2.000316
 21
2.927258
 31
0.0
  0
LINE
  8
OBJ
 10
3.189916
 20
1.799378
 30
0.0
 11
3.429916
 21
1.799378
 31
0.0
  0
LINE
  8
OBJ
 10
3.180222
 20
3.728871
 30
0.0
 11
3.065222
 21
3.529685
 31
0.0
  0
LINE
  8
OBJ
 10
3.525222
 20
3.529685
 30
0.0
 11
3.410222
 21
3.728871
 31
0.0
  0
ARC
  8
OBJ
 10
3.175222
 20
3.649685
 30
0.0
 40
0.105
 50
270.0
 51
360.0
  0
ARC
  8
OBJ
 10
3.415222
 20
3.649685
 30
0.0
 40
0.105
 50
180.0
 51
270.0
  0
ARC
  8
OBJ
 10
3.340222
 20
3.574685
 30
0.0
 40
0.03
 50
180.0
 51
270.0
  0
ARC
  8
OBJ
 10
3.250222
 20
3.574685
 30
0.0
 40
0.03
 50
270.0
 51
0.0
  0
CIRCLE
  8
OBJ
 10
3.295222
 20
3.529685
 30
0.0
 40
0.166146
  0
LINE
  8
OBJ
 10
3.295222
 20
3.409685
 30
0.0
 11
3.295222
 21
3.649685
 31
0.0
  0
CIRCLE
  8
OBJ
 10
3.295222
 20
3.529685
 30
0.0
 40
0.185975
  0
CIRCLE
  8
OBJ
 10
3.295222
 20
3.529685
 30
0.0
 40
0.240502
  0
LINE
  8
OBJ
 10
3.180222
 20
3.330499
 30
0.0
 11
3.410222
 21
3.330499
 31
0.0
  0
LINE
  8
OBJ
 10
3.175222
 20
3.529685
 30
0.0
 11
3.415222
 21
3.529685
 31
0.0
  0
LINE
  8
OBJ
 10
3.175222
 20
3.529685
 30
0.0
 11
3.415222
 21
3.529685
 31
0.0
  0
ARC
  8
OBJ
 10
3.340222
 20
3.484685
 30
0.0
 40
0.03
 50
90.0
 51
180.0
  0
ARC
  8
OBJ
 10
3.415222
 20
3.409685
 30
0.0
 40
0.105
 50
90.0
 51
180.0
  0
LINE
  8
OBJ
 10
3.065222
 20
3.529685
 30
0.0
 11
3.180222
 21
3.330499
 31
0.0
  0
LINE
  8
OBJ
 10
3.175222
 20
3.544685
 30
0.0
 11
3.175222
 21
3.514685
 31
0.0
  0
LINE
  8
OBJ
 10
3.175222
 20
3.544685
 30
0.0
 11
3.250222
 21
3.544685
 31
0.0
  0
LINE
  8
OBJ
 10
3.250222
 20
3.514685
 30
0.0
 11
3.175222
 21
3.514685
 31
0.0
  0
LINE
  8
OBJ
 10
3.310222
 20
3.409685
 30
0.0
 11
3.310222
 21
3.484685
 31
0.0
  0
LINE
  8
OBJ
 10
3.280222
 20
3.409685
 30
0.0
 11
3.310222
 21
3.409685
 31
0.0
  0
LINE
  8
OBJ
 10
3.280222
 20
3.409685
 30
0.0
 11
3.280222
 21
3.484685
 31
0.0
  0
LINE
  8
OBJ
 10
3.295222
 20
3.289685
 30
0.0
 11
3.295222
 21
3.169183
 31
0.0
  0
ARC
  8
OBJ
 10
3.250222
 20
3.484685
 30
0.0
 40
0.03
 50
0.0
 51
90.0
  0
ARC
  8
OBJ
 10
3.175222
 20
3.409685
 30
0.0
 40
0.105
 50
0.0
 51
90.0
  0
LINE
  8
OBJ
 10
3.055222
 20
3.529685
 30
0.0
 11
2.93472
 21
3.529685
 31
0.0
  0
LINE
  8
OBJ
 10
3.410222
 20
3.330499
 30
0.0
 11
3.525222
 21
3.529685
 31
0.0
  0
LINE
  8
OBJ
 10
3.535222
 20
3.529685
 30
0.0
 11
3.655725
 21
3.529685
 31
0.0
  0
LINE
  8
OBJ
 10
3.415222
 20
3.514685
 30
0.0
 11
3.415222
 21
3.544685
 31
0.0
  0
LINE
  8
OBJ
 10
3.415222
 20
3.514685
 30
0.0
 11
3.340222
 21
3.514685
 31
0.0
  0
LINE
  8
OBJ
 10
3.340222
 20
3.544685
 30
0.0
 11
3.415222
 21
3.544685
 31
0.0
  0
LINE
  8
OBJ
 10
3.410222
 20
3.728871
 30
0.0
 11
3.180222
 21
3.728871
 31
0.0
  0
LINE
  8
OBJ
 10
3.310222
 20
3.574685
 30
0.0
 11
3.310222
 21
3.649685
 31
0.0
  0
LINE
  8
OBJ
 10
3.280222
 20
3.574685
 30
0.0
 11
3.280222
 21
3.649685
 31
0.0
  0
LINE
  8
OBJ
 10
3.310222
 20
3.649685
 30
0.0
 11
3.280222
 21
3.649685
 31
0.0
  0
LINE
  8
OBJ
 10
3.295222
 20
3.769685
 30
0.0
 11
3.295222
 21
3.890187
 31
0.0
  0
LINE
  8
OBJ
 10
6.374609
 20
3.529685
 30
0.0
 11
6.495111
 21
3.529685
 31
0.0
  0
LINE
  8
OBJ
 10
6.333795
 20
3.414685
 30
0.0
 11
6.333795
 21
3.644685
 31
0.0
  0
LINE
  8
OBJ
 10
5.935423
 20
3.644685
 30
0.0
 11
5.935423
 21
3.414685
 31
0.0
  0
ARC
  8
OBJ
 10
6.254609
 20
3.649685
 30
0.0
 40
0.105
 50
180.0
 51
270.0
  0
ARC
  8
OBJ
 10
6.014609
 20
3.649685
 30
0.0
 40
0.105
 50
270.0
 51
360.0
  0
ARC
  8
OBJ
 10
6.179609
 20
3.574685
 30
0.0
 40
0.03
 50
180.0
 51
270.0
  0
ARC
  8
OBJ
 10
6.089609
 20
3.574685
 30
0.0
 40
0.03
 50
270.0
 51
0.0
  0
LINE
  8
OBJ
 10
6.134609
 20
3.409685
 30
0.0
 11
6.134609
 21
3.649685
 31
0.0
  0
CIRCLE
  8
OBJ
 10
6.134609
 20
3.529685
 30
0.0
 40
0.166146
  0
CIRCLE
  8
OBJ
 10
6.134609
 20
3.529685
 30
0.0
 40
0.185975
  0
CIRCLE
  8
OBJ
 10
6.134609
 20
3.529685
 30
0.0
 40
0.240502
  0
LINE
  8
OBJ
 10
5.935423
 20
3.414685
 30
0.0
 11
6.134609
 21
3.299685
 31
0.0
  0
LINE
  8
OBJ
 10
6.089609
 20
3.514685
 30
0.0
 11
6.014609
 21
3.514685
 31
0.0
  0
LINE
  8
OBJ
 10
6.014609
 20
3.544685
 30
0.0
 11
6.089609
 21
3.544685
 31
0.0
  0
LINE
  8
OBJ
 10
6.014609
 20
3.529685
 30
0.0
 11
6.254609
 21
3.529685
 31
0.0
  0
ARC
  8
OBJ
 10
6.014609
 20
3.409685
 30
0.0
 40
0.105
 50
0.0
 51
90.0
  0
LINE
  8
OBJ
 10
6.014609
 20
3.544685
 30
0.0
 11
6.014609
 21
3.514685
 31
0.0
  0
LINE
  8
OBJ
 10
5.894609
 20
3.529685
 30
0.0
 11
5.774106
 21
3.529685
 31
0.0
  0
LINE
  8
OBJ
 10
6.134609
 20
3.299685
 30
0.0
 11
6.333795
 21
3.414685
 31
0.0
  0
LINE
  8
OBJ
 10
6.179609
 20
3.544685
 30
0.0
 11
6.254609
 21
3.544685
 31
0.0
  0
LINE
  8
OBJ
 10
6.254609
 20
3.514685
 30
0.0
 11
6.179609
 21
3.514685
 31
0.0
  0
LINE
  8
OBJ
 10
6.254609
 20
3.514685
 30
0.0
 11
6.254609
 21
3.544685
 31
0.0
  0
LINE
  8
OBJ
 10
6.149609
 20
3.484685
 30
0.0
 11
6.149609
 21
3.409685
 31
0.0
  0
LINE
  8
OBJ
 10
6.119609
 20
3.409685
 30
0.0
 11
6.119609
 21
3.484685
 31
0.0
  0
LINE
  8
OBJ
 10
6.119609
 20
3.409685
 30
0.0
 11
6.149609
 21
3.409685
 31
0.0
  0
LINE
  8
OBJ
 10
6.134609
 20
3.289685
 30
0.0
 11
6.134609
 21
3.169183
 31
0.0
  0
ARC
  8
OBJ
 10
6.179609
 20
3.484685
 30
0.0
 40
0.03
 50
90.0
 51
180.0
  0
ARC
  8
OBJ
 10
6.254609
 20
3.409685
 30
0.0
 40
0.105
 50
90.0
 51
180.0
  0
ARC
  8
OBJ
 10
6.089609
 20
3.484685
 30
0.0
 40
0.03
 50
0.0
 51
90.0
  0
LINE
  8
OBJ
 10
6.134609
 20
3.759685
 30
0.0
 11
5.935423
 21
3.644685
 31
0.0
  0
LINE
  8
OBJ
 10
6.333795
 20
3.644685
 30
0.0
 11
6.134609
 21
3.759685
 31
0.0
  0
LINE
  8
OBJ
 10
6.149609
 20
3.649685
 30
0.0
 11
6.149609
 21
3.574685
 31
0.0
  0
LINE
  8
OBJ
 10
6.119609
 20
3.574685
 30
0.0
 11
6.119609
 21
3.649685
 31
0.0
  0
LINE
  8
OBJ
 10
6.149609
 20
3.649685
 30
0.0
 11
6.119609
 21
3.649685
 31
0.0
  0
LINE
  8
OBJ
 10
6.134609
 20
3.769685
 30
0.0
 11
6.134609
 21
3.890187
 31
0.0
  0
LINE
  8
OBJ
  6
CONTINUOUS
 10
2.000316
 20
7.048098
 30
0.0
 11
1.808127
 21
7.048098
 31
0.0
  0
LINE
  8
OBJ
  6
CONTINUOUS
 10
2.000316
 20
7.442658
 30
0.0
 11
1.808127
 21
7.442658
 31
0.0
  0
LINE
  8
OBJ
  6
CONTINUOUS
 10
2.000316
 20
7.572258
 30
0.0
 11
1.808127
 21
7.572258
 31
0.0
  0
LINE
  8
OBJ
  6
CONTINUOUS
 10
2.000316
 20
7.177698
 30
0.0
 11
1.808127
 21
7.177698
 31
0.0
  0
LINE
  8
OBJ
  6
CENTER2
 10
4.474916
 20
4.949378
 30
0.0
 11
0.531983
 21
4.949378
 31
0.0
  0
ARC
  8
OBJ
 10
1.107916
 20
5.297378
 30
0.0
 40
0.08
 50
90.0
 51
180.0
  0
LINE
  8
OBJ
 10
1.227916
 20
4.328378
 30
0.0
 11
1.227916
 21
5.570378
 31
0.0
  0
ARC
  8
OBJ
 10
1.107916
 20
4.601378
 30
0.0
 40
0.08
 50
180.0
 51
270.0
  0
LINE
  8
OBJ
 10
1.027916
 20
4.601378
 30
0.0
 11
1.027916
 21
5.297378
 31
0.0
  0
ARC
  8
OBJ
 10
1.287916
 20
4.328378
 30
0.0
 40
0.06
 50
180.0
 51
241.974364
  0
LINE
  8
OBJ
  6
CONTINUOUS
 10
1.227916
 20
4.521378
 30
0.0
 11
1.107916
 21
4.521378
 31
0.0
  0
POINT
  8
OBJ
 10
1.434517
 20
5.312318
 30
0.0
  0
LINE
  8
OBJ
  6
CONTINUOUS
 10
1.50629
 20
5.630378
 30
0.0
 11
1.287916
 21
5.630378
 31
0.0
  0
LINE
  8
OBJ
  6
CONTINUOUS
 10
1.227916
 20
5.377378
 30
0.0
 11
1.107916
 21
5.377378
 31
0.0
  0
ARC
  8
OBJ
 10
1.287916
 20
5.570378
 30
0.0
 40
0.06
 50
90.0
 51
180.0
  0
ARC
  8
OBJ
 10
1.831654
 20
7.112898
 30
0.0
 40
0.068939
 50
109.954678
 51
250.045322
  0
LINE
  8
OBJ
 10
1.762716
 20
7.078116
 30
0.0
 11
1.762716
 21
7.177698
 31
0.0
  0
POINT
  8
OBJ
 10
1.964711
 20
7.126293
 30
0.0
  0
LINE
  8
OBJ
 10
1.762716
 20
7.078116
 30
0.0
 11
1.790691
 21
7.057449
 31
0.0
  0
LINE
  8
OBJ
 10
1.762716
 20
7.310178
 30
0.0
 11
1.439647
 21
7.310178
 31
0.0
  0
ARC
  8
OBJ
 10
1.831654
 20
7.507458
 30
0.0
 40
0.068939
 50
109.954678
 51
250.045322
  0
LINE
  8
OBJ
 10
1.762716
 20
7.54224
 30
0.0
 11
1.790691
 21
7.562907
 31
0.0
  0
LINE
  8
OBJ
 10
1.762716
 20
7.442658
 30
0.0
 11
1.762716
 21
7.54224
 31
0.0
  0
ARC
  8
OBJ
 10
1.978664
 20
7.310178
 30
0.0
 40
0.215949
 50
142.158498
 51
217.841502
  0
LINE
  8
OBJ
 10
1.762716
 20
7.177698
 30
0.0
 11
1.762716
 21
7.442658
 31
0.0
  0
LINE
  8
OBJ
  6
CENTER2
 10
4.714916
 20
5.189378
 30
0.0
 11
4.714916
 21
9.132311
 31
0.0
  0
ARC
  8
OBJ
 10
4.714916
 20
4.949378
 30
0.0
 40
1.38
 50
15.121665
 51
164.878335
  0
LINE
  8
OBJ
 10
3.295222
 20
6.599071
 30
0.0
 11
3.096037
 21
6.484071
 31
0.0
  0
LINE
  8
OBJ
 10
3.494408
 20
6.484071
 30
0.0
 11
3.295222
 21
6.599071
 31
0.0
  0
CIRCLE
  8
OBJ
 10
3.295222
 20
6.369071
 30
0.0
 40
0.185975
  0
CIRCLE
  8
OBJ
 10
3.295222
 20
6.369071
 30
0.0
 40
0.240502
  0
LINE
  8
OBJ
 10
3.610614
 20
4.589378
 30
0.0
 11
2.474656
 21
4.589378
 31
0.0
  0
LINE
  8
OBJ
 10
3.610614
 20
5.309378
 30
0.0
 11
2.474656
 21
5.309378
 31
0.0
  0
LINE
  8
OBJ
 10
3.295222
 20
6.139071
 30
0.0
 11
3.494408
 21
6.254071
 31
0.0
  0
ARC
  8
OBJ
 10
3.340222
 20
6.324071
 30
0.0
 40
0.03
 50
90.0
 51
180.0
  0
ARC
  8
OBJ
 10
3.340222
 20
6.414071
 30
0.0
 40
0.03
 50
180.0
 51
270.0
  0
ARC
  8
OBJ
 10
3.415222
 20
6.489071
 30
0.0
 40
0.105
 50
180.0
 51
270.0
  0
ARC
  8
OBJ
 10
3.415222
 20
6.249071
 30
0.0
 40
0.105
 50
90.0
 51
180.0
  0
LINE
  8
OBJ
 10
3.175222
 20
6.369071
 30
0.0
 11
3.415222
 21
6.369071
 31
0.0
  0
CIRCLE
  8
OBJ
 10
3.295222
 20
6.369071
 30
0.0
 40
0.166146
  0
LINE
  8
OBJ
 10
3.096037
 20
6.484071
 30
0.0
 11
3.096037
 21
6.254071
 31
0.0
  0
LINE
  8
OBJ
 10
3.096037
 20
6.254071
 30
0.0
 11
3.295222
 21
6.139071
 31
0.0
  0
LINE
  8
OBJ
 10
3.310222
 20
6.489071
 30
0.0
 11
3.280222
 21
6.489071
 31
0.0
  0
LINE
  8
OBJ
 10
3.280222
 20
6.249071
 30
0.0
 11
3.310222
 21
6.249071
 31
0.0
  0
LINE
  8
OBJ
 10
3.175222
 20
6.354071
 30
0.0
 11
3.250222
 21
6.354071
 31
0.0
  0
LINE
  8
OBJ
 10
3.175222
 20
6.384071
 30
0.0
 11
3.175222
 21
6.354071
 31
0.0
  0
LINE
  8
OBJ
 10
3.295222
 20
6.489071
 30
0.0
 11
3.295222
 21
6.249071
 31
0.0
  0
LINE
  8
OBJ
 10
3.280222
 20
6.249071
 30
0.0
 11
3.280222
 21
6.324071
 31
0.0
  0
LINE
  8
OBJ
 10
3.310222
 20
6.324071
 30
0.0
 11
3.310222
 21
6.249071
 31
0.0
  0
LINE
  8
OBJ
 10
3.310222
 20
6.489071
 30
0.0
 11
3.310222
 21
6.414071
 31
0.0
  0
LINE
  8
OBJ
 10
3.280222
 20
6.414071
 30
0.0
 11
3.280222
 21
6.489071
 31
0.0
  0
LINE
  8
OBJ
 10
3.175222
 20
6.384071
 30
0.0
 11
3.250222
 21
6.384071
 31
0.0
  0
ARC
  8
OBJ
 10
3.250222
 20
6.414071
 30
0.0
 40
0.03
 50
270.0
 51
0.0
  0
ARC
  8
OBJ
 10
3.250222
 20
6.324071
 30
0.0
 40
0.03
 50
0.0
 51
90.0
  0
ARC
  8
OBJ
 10
3.175222
 20
6.489071
 30
0.0
 40
0.105
 50
270.0
 51
360.0
  0
ARC
  8
OBJ
 10
3.175222
 20
6.249071
 30
0.0
 40
0.105
 50
0.0
 51
90.0
  0
LINE
  8
OBJ
 10
3.295222
 20
6.249071
 30
0.0
 11
3.295222
 21
6.489071
 31
0.0
  0
LINE
  8
OBJ
 10
3.055222
 20
6.369071
 30
0.0
 11
2.93472
 21
6.369071
 31
0.0
  0
LINE
  8
OBJ
 10
3.295222
 20
6.129071
 30
0.0
 11
3.295222
 21
6.008569
 31
0.0
  0
LINE
  8
OBJ
 10
3.494408
 20
6.254071
 30
0.0
 11
3.494408
 21
6.484071
 31
0.0
  0
LINE
  8
OBJ
 10
3.535222
 20
6.369071
 30
0.0
 11
3.655725
 21
6.369071
 31
0.0
  0
LINE
  8
OBJ
 10
3.415222
 20
6.354071
 30
0.0
 11
3.415222
 21
6.384071
 31
0.0
  0
LINE
  8
OBJ
 10
3.340222
 20
6.354071
 30
0.0
 11
3.415222
 21
6.354071
 31
0.0
  0
LINE
  8
OBJ
 10
3.340222
 20
6.384071
 30
0.0
 11
3.415222
 21
6.384071
 31
0.0
  0
ARC
  8
OBJ
 10
4.714916
 20
4.949378
 30
0.0
 40
0.5906
 50
105.416358
 51
74.583642
  0
LINE
  8
OBJ
 10
4.594916
 20
4.949378
 30
0.0
 11
4.834916
 21
4.949378
 31
0.0
  0
LINE
  8
OBJ
 10
4.714916
 20
4.829378
 30
0.0
 11
4.714916
 21
5.069378
 31
0.0
  0
LINE
  8
OBJ
 10
4.557916
 20
5.696978
 30
0.0
 11
4.871916
 21
5.696978
 31
0.0
  0
LINE
  8
OBJ
 10
4.557916
 20
5.382978
 30
0.0
 11
4.871916
 21
5.382978
 31
0.0
  0
LINE
  8
OBJ
 10
4.557916
 20
5.382978
 30
0.0
 11
4.557916
 21
5.696978
 31
0.0
  0
LINE
  8
OBJ
 10
4.871916
 20
5.382978
 30
0.0
 11
4.871916
 21
5.696978
 31
0.0
  0
ARC
  8
OBJ
 10
2.137916
 20
7.645178
 30
0.0
 40
0.08
 50
90.0
 51
180.0
  0
LINE
  8
OBJ
 10
2.000316
 20
7.048098
 30
0.0
 11
2.000316
 21
7.572258
 31
0.0
  0
ARC
  8
OBJ
 10
2.137916
 20
7.048978
 30
0.0
 40
0.08
 50
180.0
 51
270.0
  0
LINE
  8
OBJ
  6
CENTER2
 10
2.057916
 20
7.068978
 30
0.0
 11
2.000316
 21
7.068978
 31
0.0
  0
ARC
  8
OBJ
 10
2.137916
 20
7.571378
 30
0.0
 40
0.08
 50
90.0
 51
180.0
  0
LINE
  8
OBJ
  6
CENTER2
 10
2.057916
 20
7.551378
 30
0.0
 11
2.000316
 21
7.551378
 31
0.0
  0
LINE
  8
OBJ
 10
2.137916
 20
7.651378
 30
0.0
 11
2.372916
 21
7.651378
 31
0.0
  0
LINE
  8
OBJ
 10
2.372916
 20
7.725178
 30
0.0
 11
2.137916
 21
7.725178
 31
0.0
  0
LINE
  8
OBJ
 10
2.057916
 20
7.251874
 30
0.0
 11
2.000316
 21
7.194274
 31
0.0
  0
LINE
  8
OBJ
 10
3.295222
 20
6.609071
 30
0.0
 11
3.295222
 21
6.729574
 31
0.0
  0
LINE
  8
OBJ
 10
6.364609
 20
6.369071
 30
0.0
 11
6.249609
 21
6.568257
 31
0.0
  0
LINE
  8
OBJ
 10
6.019609
 20
6.568257
 30
0.0
 11
5.904609
 21
6.369071
 31
0.0
  0
CIRCLE
  8
OBJ
 10
6.134609
 20
6.369071
 30
0.0
 40
0.240502
  0
CIRCLE
  8
OBJ
 10
6.134609
 20
6.369071
 30
0.0
 40
0.185975
  0
LINE
  8
OBJ
 10
5.819217
 20
5.309378
 30
0.0
 11
6.955175
 21
5.309378
 31
0.0
  0
LINE
  8
OBJ
 10
5.819217
 20
4.589378
 30
0.0
 11
6.955175
 21
4.589378
 31
0.0
  0
LINE
  8
OBJ
 10
6.374609
 20
6.369071
 30
0.0
 11
6.495111
 21
6.369071
 31
0.0
  0
LINE
  8
OBJ
 10
5.904609
 20
6.369071
 30
0.0
 11
6.019609
 21
6.169886
 31
0.0
  0
LINE
  8
OBJ
 10
6.254609
 20
6.369071
 30
0.0
 11
6.014609
 21
6.369071
 31
0.0
  0
LINE
  8
OBJ
 10
6.014609
 20
6.384071
 30
0.0
 11
6.089609
 21
6.384071
 31
0.0
  0
LINE
  8
OBJ
 10
6.089609
 20
6.354071
 30
0.0
 11
6.014609
 21
6.354071
 31
0.0
  0
ARC
  8
OBJ
 10
6.014609
 20
6.489071
 30
0.0
 40
0.105
 50
270.0
 51
360.0
  0
ARC
  8
OBJ
 10
6.014609
 20
6.249071
 30
0.0
 40
0.105
 50
0.0
 51
90.0
  0
LINE
  8
OBJ
 10
6.014609
 20
6.369071
 30
0.0
 11
6.254609
 21
6.369071
 31
0.0
  0
CIRCLE
  8
OBJ
 10
6.134609
 20
6.369071
 30
0.0
 40
0.166146
  0
LINE
  8
OBJ
 10
6.014609
 20
6.384071
 30
0.0
 11
6.014609
 21
6.354071
 31
0.0
  0
LINE
  8
OBJ
 10
5.894609
 20
6.369071
 30
0.0
 11
5.774106
 21
6.369071
 31
0.0
  0
LINE
  8
OBJ
 10
6.249609
 20
6.169886
 30
0.0
 11
6.364609
 21
6.369071
 31
0.0
  0
LINE
  8
OBJ
 10
6.019609
 20
6.169886
 30
0.0
 11
6.249609
 21
6.169886
 31
0.0
  0
LINE
  8
OBJ
 10
6.119609
 20
6.249071
 30
0.0
 11
6.149609
 21
6.249071
 31
0.0
  0
LINE
  8
OBJ
 10
6.119609
 20
6.324071
 30
0.0
 11
6.119609
 21
6.249071
 31
0.0
  0
LINE
  8
OBJ
 10
6.254609
 20
6.384071
 30
0.0
 11
6.254609
 21
6.354071
 31
0.0
  0
LINE
  8
OBJ
 10
6.119609
 20
6.489071
 30
0.0
 11
6.149609
 21
6.489071
 31
0.0
  0
LINE
  8
OBJ
 10
6.119609
 20
6.414071
 30
0.0
 11
6.119609
 21
6.489071
 31
0.0
  0
LINE
  8
OBJ
 10
6.149609
 20
6.324071
 30
0.0
 11
6.149609
 21
6.249071
 31
0.0
  0
LINE
  8
OBJ
 10
6.254609
 20
6.354071
 30
0.0
 11
6.179609
 21
6.354071
 31
0.0
  0
LINE
  8
OBJ
 10
6.179609
 20
6.384071
 30
0.0
 11
6.254609
 21
6.384071
 31
0.0
  0
LINE
  8
OBJ
 10
6.149609
 20
6.489071
 30
0.0
 11
6.149609
 21
6.414071
 31
0.0
  0
ARC
  8
OBJ
 10
6.179609
 20
6.414071
 30
0.0
 40
0.03
 50
180.0
 51
270.0
  0
ARC
  8
OBJ
 10
6.089609
 20
6.414071
 30
0.0
 40
0.03
 50
270.0
 51
0.0
  0
ARC
  8
OBJ
 10
6.089609
 20
6.324071
 30
0.0
 40
0.03
 50
0.0
 51
90.0
  0
ARC
  8
OBJ
 10
6.179609
 20
6.324071
 30
0.0
 40
0.03
 50
90.0
 51
180.0
  0
ARC
  8
OBJ
 10
6.254609
 20
6.249071
 30
0.0
 40
0.105
 50
90.0
 51
180.0
  0
ARC
  8
OBJ
 10
6.254609
 20
6.489071
 30
0.0
 40
0.105
 50
180.0
 51
270.0
  0
LINE
  8
OBJ
 10
6.134609
 20
6.249071
 30
0.0
 11
6.134609
 21
6.489071
 31
0.0
  0
LINE
  8
OBJ
 10
6.134609
 20
6.129071
 30
0.0
 11
6.134609
 21
6.008569
 31
0.0
  0
LINE
  8
OBJ
 10
6.249609
 20
6.568257
 30
0.0
 11
6.019609
 21
6.568257
 31
0.0
  0
LINE
  8
OBJ
 10
6.134609
 20
6.609071
 30
0.0
 11
6.134609
 21
6.729574
 31
0.0
  0
POINT
  8
OBJ
 10
7.126013
 20
7.545143
 30
0.0
  0
LINE
  8
OBJ
 10
2.470916
 20
13.478825
 30
0.0
 11
6.958916
 21
13.478825
 31
0.0
  0
LINE
  8
OBJ
 10
3.632916
 20
12.869825
 30
0.0
 11
5.796916
 21
12.869825
 31
0.0
  0
LINE
  8
OBJ
 10
2.470916
 20
13.478825
 30
0.0
 11
6.958916
 21
13.478825
 31
0.0
  0
LINE
  8
OBJ
 10
2.530916
 20
13.242825
 30
0.0
 11
6.170882
 21
13.242825
 31
0.0
  0
LINE
  8
OBJ
 10
3.782496
 20
13.144825
 30
0.0
 11
5.647336
 21
13.144825
 31
0.0
  0
LINE
  8
OBJ
 10
4.124316
 20
12.869825
 30
0.0
 11
4.124316
 21
10.447825
 31
0.0
  0
LINE
  8
OBJ
 10
5.305516
 20
12.869825
 30
0.0
 11
5.305516
 21
10.447825
 31
0.0
  0
LINE
  8
OBJ
 10
4.124316
 20
10.447825
 30
0.0
 11
5.305516
 21
10.447825
 31
0.0
  0
LINE
  8
OBJ
 10
3.752477
 20
12.947625
 30
0.0
 11
3.773145
 21
12.975601
 31
0.0
  0
ARC
  8
OBJ
 10
3.717696
 20
13.016564
 30
0.0
 40
0.068939
 50
199.954678
 51
340.045322
  0
LINE
  8
OBJ
 10
3.258336
 20
13.185225
 30
0.0
 11
3.782496
 21
13.185225
 31
0.0
  0
LINE
  8
OBJ
 10
3.258336
 20
13.104825
 30
0.0
 11
2.530916
 21
13.104825
 31
0.0
  0
LINE
  8
OBJ
 10
3.258949
 20
13.242825
 30
0.0
 11
2.530916
 21
13.242825
 31
0.0
  0
ARC
  8
OBJ
 10
2.530916
 20
13.164825
 30
0.0
 40
0.06
 50
180.0
 51
270.0
  0
LINE
  8
OBJ
 10
2.470916
 20
13.164825
 30
0.0
 11
2.470916
 21
13.695825
 31
0.0
  0
ARC
  8
OBJ
 10
2.530916
 20
13.302825
 30
0.0
 40
0.06
 50
180.0
 51
270.0
  0
ARC
  8
OBJ
 10
2.530916
 20
13.302825
 30
0.0
 40
0.06
 50
180.0
 51
270.0
  0
LINE
  8
OBJ
  6
CONTINUOUS
 10
3.652896
 20
13.185225
 30
0.0
 11
3.652896
 21
12.993037
 31
0.0
  0
LINE
  8
OBJ
  6
CONTINUOUS
 10
3.258336
 20
13.185225
 30
0.0
 11
3.258336
 21
12.993037
 31
0.0
  0
LINE
  8
OBJ
  6
CONTINUOUS
 10
3.387936
 20
13.185225
 30
0.0
 11
3.387936
 21
12.993037
 31
0.0
  0
LINE
  8
OBJ
 10
3.288354
 20
12.947625
 30
0.0
 11
3.387936
 21
12.947625
 31
0.0
  0
ARC
  8
OBJ
 10
3.323136
 20
13.016564
 30
0.0
 40
0.068939
 50
199.954678
 51
340.045322
  0
LINE
  8
OBJ
 10
3.288354
 20
12.947625
 30
0.0
 11
3.267687
 21
12.975601
 31
0.0
  0
LINE
  8
OBJ
 10
3.572916
 20
12.929825
 30
0.0
 11
3.572916
 21
12.947625
 31
0.0
  0
LINE
  8
OBJ
 10
3.572916
 20
12.929825
 30
0.0
 11
3.572916
 21
12.947625
 31
0.0
  0
ARC
  8
OBJ
 10
3.632916
 20
12.929825
 30
0.0
 40
0.06
 50
180.0
 51
270.0
  0
LINE
  8
OBJ
 10
3.387936
 20
12.947625
 30
0.0
 11
3.652896
 21
12.947625
 31
0.0
  0
ARC
  8
OBJ
 10
3.520416
 20
13.163574
 30
0.0
 40
0.215949
 50
232.158498
 51
307.841502
  0
LINE
  8
OBJ
 10
3.652896
 20
12.947625
 30
0.0
 11
3.752477
 21
12.947625
 31
0.0
  0
LINE
  8
OBJ
  6
CENTER2
 10
3.279216
 20
13.242825
 30
0.0
 11
3.279216
 21
13.185225
 31
0.0
  0
LINE
  8
OBJ
  6
CENTER2
 10
3.761616
 20
13.242825
 30
0.0
 11
3.761616
 21
13.185225
 31
0.0
  0
LINE
  8
OBJ
 10
3.462111
 20
13.242825
 30
0.0
 11
3.404511
 21
13.185225
 31
0.0
  0
LINE
  8
OBJ
 10
4.124316
 20
12.730825
 30
0.0
 11
5.305516
 21
12.730825
 31
0.0
  0
LINE
  8
OBJ
  6
CONTINUOUS
 10
3.782496
 20
13.185225
 30
0.0
 11
3.782496
 21
12.993037
 31
0.0
  0
LINE
  8
OBJ
 10
6.171496
 20
13.104825
 30
0.0
 11
6.898916
 21
13.104825
 31
0.0
  0
LINE
  8
OBJ
 10
6.170882
 20
13.242825
 30
0.0
 11
6.898916
 21
13.242825
 31
0.0
  0
LINE
  8
OBJ
  6
CONTINUOUS
 10
6.171496
 20
13.185225
 30
0.0
 11
6.171496
 21
12.993037
 31
0.0
  0
LINE
  8
OBJ
  6
CONTINUOUS
 10
6.041896
 20
13.185225
 30
0.0
 11
6.041896
 21
12.993037
 31
0.0
  0
LINE
  8
OBJ
  6
CONTINUOUS
 10
5.647336
 20
13.185225
 30
0.0
 11
5.647336
 21
12.993037
 31
0.0
  0
LINE
  8
OBJ
  6
CONTINUOUS
 10
5.776936
 20
13.185225
 30
0.0
 11
5.776936
 21
12.993037
 31
0.0
  0
LINE
  8
OBJ
 10
5.776936
 20
12.947625
 30
0.0
 11
6.041896
 21
12.947625
 31
0.0
  0
ARC
  8
OBJ
 10
5.909416
 20
13.163574
 30
0.0
 40
0.215949
 50
232.158498
 51
307.841502
  0
LINE
  8
OBJ
 10
5.677354
 20
12.947625
 30
0.0
 11
5.776936
 21
12.947625
 31
0.0
  0
ARC
  8
OBJ
 10
5.712136
 20
13.016564
 30
0.0
 40
0.068939
 50
199.954678
 51
340.045322
  0
LINE
  8
OBJ
 10
5.677354
 20
12.947625
 30
0.0
 11
5.656687
 21
12.975601
 31
0.0
  0
LINE
  8
OBJ
 10
5.856916
 20
12.929825
 30
0.0
 11
5.856916
 21
12.947625
 31
0.0
  0
LINE
  8
OBJ
 10
5.856916
 20
12.929825
 30
0.0
 11
5.856916
 21
12.947625
 31
0.0
  0
ARC
  8
OBJ
 10
5.796916
 20
12.929825
 30
0.0
 40
0.06
 50
270.0
 51
0.0
  0
LINE
  8
OBJ
 10
6.041896
 20
12.947625
 30
0.0
 11
6.141477
 21
12.947625
 31
0.0
  0
LINE
  8
OBJ
 10
6.141477
 20
12.947625
 30
0.0
 11
6.162145
 21
12.975601
 31
0.0
  0
ARC
  8
OBJ
 10
6.106696
 20
13.016564
 30
0.0
 40
0.068939
 50
199.954678
 51
340.045322
  0
LINE
  8
OBJ
 10
5.647336
 20
13.185225
 30
0.0
 11
6.171496
 21
13.185225
 31
0.0
  0
LINE
  8
OBJ
  6
CENTER2
 10
5.668216
 20
13.242825
 30
0.0
 11
5.668216
 21
13.185225
 31
0.0
  0
LINE
  8
OBJ
 10
5.851111
 20
13.242825
 30
0.0
 11
5.793511
 21
13.185225
 31
0.0
  0
LINE
  8
OBJ
  6
CENTER2
 10
6.150616
 20
13.242825
 30
0.0
 11
6.150616
 21
13.185225
 31
0.0
  0
ARC
  8
OBJ
 10
6.898916
 20
13.164825
 30
0.0
 40
0.06
 50
270.0
 51
360.0
  0
ARC
  8
OBJ
 10
6.898916
 20
13.302825
 30
0.0
 40
0.06
 50
270.0
 51
0.0
  0
LINE
  8
OBJ
 10
23.239655
 20
4.336378
 30
0.0
 11
23.047975
 21
4.004378
 31
0.0
  0
LINE
  8
OBJ
 10
23.006336
 20
5.933378
 30
0.0
 11
23.006336
 21
3.965378
 31
0.0
  0
LINE
  8
OBJ
 10
22.667336
 20
4.016958
 30
0.0
 11
22.667336
 21
4.644378
 31
0.0
  0
LINE
  8
OBJ
 10
22.392336
 20
3.867378
 30
0.0
 11
22.392336
 21
6.031378
 31
0.0
  0
LINE
  8
OBJ
 10
23.001336
 20
2.705378
 30
0.0
 11
23.001336
 21
7.193378
 31
0.0
  0
LINE
  8
OBJ
 10
22.765336
 20
2.765378
 30
0.0
 11
22.765336
 21
4.614378
 31
0.0
  0
LINE
  8
OBJ
 10
16.625216
 20
2.942838
 30
0.0
 11
16.625216
 21
5.467378
 31
0.0
  0
LINE
  8
OBJ
 10
14.975916
 20
3.650378
 30
0.0
 11
14.975916
 21
4.949378
 31
0.0
  0
LINE
  8
OBJ
 10
16.800216
 20
2.973378
 30
0.0
 11
16.800216
 21
4.327378
 31
0.0
  0
LINE
  8
OBJ
 10
17.090216
 20
3.11486
 30
0.0
 11
17.090216
 21
4.185897
 31
0.0
  0
LINE
  8
OBJ
  6
CONTINUOUS
 10
17.090216
 20
4.185897
 30
0.0
 11
17.090216
 21
3.951878
 31
0.0
  0
ARC
  8
OBJ
 10
16.89289
 20
4.102628
 30
0.0
 40
0.197325
 50
310.184879
 51
49.815121
  0
CIRCLE
  8
OBJ
 10
10.188916
 20
4.299378
 30
0.0
 40
0.232759
  0
LINE
  8
OBJ
 10
12.274916
 20
6.521515
 30
0.0
 11
12.274916
 21
3.540378
 31
0.0
  0
LINE
  8
OBJ
 10
12.628916
 20
6.308378
 30
0.0
 11
12.628916
 21
3.540378
 31
0.0
  0
LINE
  8
OBJ
 10
13.637316
 20
3.592378
 30
0.0
 11
13.637316
 21
4.657278
 31
0.0
  0
LINE
  8
OBJ
 10
13.038916
 20
3.820378
 30
0.0
 11
13.038916
 21
4.188378
 31
0.0
  0
ARC
  8
OBJ
 10
12.738987
 20
4.004378
 30
0.0
 40
0.299929
 50
322.158498
 51
37.841502
  0
LINE
  8
OBJ
 10
13.068916
 20
4.171178
 30
0.0
 11
13.068916
 21
3.837578
 31
0.0
  0
LINE
  8
OBJ
 10
12.708916
 20
4.368378
 30
0.0
 11
12.708916
 21
3.640378
 31
0.0
  0
LINE
  8
OBJ
 10
13.098916
 20
4.201178
 30
0.0
 11
13.098916
 21
3.807578
 31
0.0
  0
LINE
  8
OBJ
 10
13.128916
 20
4.171178
 30
0.0
 11
13.128916
 21
3.837578
 31
0.0
  0
LINE
  8
OBJ
 10
13.158916
 20
4.201178
 30
0.0
 11
13.158916
 21
3.807578
 31
0.0
  0
LINE
  8
OBJ
 10
13.188916
 20
4.171178
 30
0.0
 11
13.188916
 21
3.837578
 31
0.0
  0
LINE
  8
OBJ
 10
14.306616
 20
3.890378
 30
0.0
 11
14.306616
 21
4.439678
 31
0.0
  0
CIRCLE
  8
OBJ
 10
10.188916
 20
4.299378
 30
0.0
 40
0.27
  0
LINE
  8
OBJ
 10
10.834916
 20
5.958378
 30
0.0
 11
10.834916
 21
3.940378
 31
0.0
  0
ARC
  8
OBJ
 10
10.188916
 20
4.299378
 30
0.0
 40
0.354
 50
180.0
 51
0.0
  0
CIRCLE
  8
OBJ
 10
14.306616
 20
3.650378
 30
0.0
 40
0.525
  0
LINE
  8
OBJ
  6
CONTINUOUS
 10
15.830566
 20
2.912838
 30
0.0
 11
16.595216
 21
2.912838
 31
0.0
  0
LINE
  8
OBJ
  6
CENTER2
 10
15.095916
 20
3.650378
 30
0.0
 11
17.861935
 21
3.650378
 31
0.0
  0
LINE
  8
OBJ
  6
CONTINUOUS
 10
12.708916
 20
3.820378
 30
0.0
 11
12.975844
 21
3.820378
 31
0.0
  0
LINE
  8
OBJ
  6
CONTINUOUS
 10
12.708916
 20
3.640378
 30
0.0
 11
12.975844
 21
3.640378
 31
0.0
  0
LINE
  8
OBJ
  6
CONTINUOUS
 10
12.374916
 20
3.492378
 30
0.0
 11
13.537316
 21
3.492378
 31
0.0
  0
LINE
  8
OBJ
  6
CENTER2
 10
11.84836
 20
4.004378
 30
0.0
 11
13.388411
 21
4.004378
 31
0.0
  0
LINE
  8
OBJ
  6
CENTER2
 10
10.591916
 20
2.447268
 30
0.0
 11
10.591916
 21
0.435089
 31
0.0
  0
CIRCLE
  8
OBJ
 10
10.001916
 20
1.799378
 30
0.0
 40
0.1875
  0
LINE
  8
OBJ
 10
10.001916
 20
1.679378
 30
0.0
 11
10.001916
 21
1.919378
 31
0.0
  0
LINE
  8
OBJ
 10
11.052916
 20
1.441178
 30
0.0
 11
11.052916
 21
3.226047
 31
0.0
  0
LINE
  8
OBJ
 10
11.052916
 20
1.441178
 30
0.0
 11
9.547916
 21
1.441178
 31
0.0
  0
LINE
  8
OBJ
 10
9.547916
 20
1.441178
 30
0.0
 11
9.547916
 21
1.631178
 31
0.0
  0
ARC
  8
OBJ
 10
11.234916
 20
3.940378
 30
0.0
 40
0.4
 50
180.0
 51
270.0
  0
LINE
  8
OBJ
 10
10.644916
 20
3.540378
 30
0.0
 11
12.274916
 21
3.540378
 31
0.0
  0
LINE
  8
OBJ
 10
9.881916
 20
1.799378
 30
0.0
 11
10.121916
 21
1.799378
 31
0.0
  0
ARC
  8
OBJ
 10
10.644916
 20
3.940378
 30
0.0
 40
0.4
 50
188.943344
 51
270.0
  0
ARC
  8
OBJ
 10
10.170751
 20
3.865759
 30
0.0
 40
0.08
 50
8.943344
 51
87.60127
  0
ARC
  8
OBJ
 10
12.374916
 20
3.592378
 30
0.0
 40
0.1
 50
211.332251
 51
270.0
  0
LINE
  8
OBJ
 10
12.274916
 20
3.540378
 30
0.0
 11
12.628916
 21
3.540378
 31
0.0
  0
LINE
  8
OBJ
 10
12.628916
 20
3.95548
 30
0.0
 11
12.708916
 21
4.03548
 31
0.0
  0
LINE
  8
OBJ
  6
CONTINUOUS
 10
12.628916
 20
3.669378
 30
0.0
 11
12.708916
 21
3.669378
 31
0.0
  0
LINE
  8
OBJ
 10
14.546616
 20
3.650378
 30
0.0
 11
15.095916
 21
3.650378
 31
0.0
  0
ARC
  8
OBJ
 10
14.306616
 20
3.650378
 30
0.0
 40
0.6693
 50
180.0
 51
0.0
  0
CIRCLE
  8
OBJ
 10
14.306616
 20
3.650378
 30
0.0
 40
0.464576
  0
CIRCLE
  8
OBJ
 10
14.306616
 20
3.650378
 30
0.0
 40
0.408885
  0
LINE
  8
OBJ
 10
14.306616
 20
3.410378
 30
0.0
 11
14.306616
 21
2.861078
 31
0.0
  0
LINE
  8
OBJ
 10
14.066616
 20
3.650378
 30
0.0
 11
13.517316
 21
3.650378
 31
0.0
  0
ARC
  8
OBJ
 10
13.537316
 20
3.592378
 30
0.0
 40
0.1
 50
270.0
 51
0.0
  0
LINE
  8
OBJ
  6
CENTER2
 10
13.038916
 20
3.807578
 30
0.0
 11
13.158916
 21
3.807578
 31
0.0
  0
LINE
  8
OBJ
 10
13.038916
 20
3.68207
 30
0.0
 11
13.00006
 21
3.653366
 31
0.0
  0
ARC
  8
OBJ
 10
12.943167
 20
3.730378
 30
0.0
 40
0.095748
 50
289.954678
 51
70.045322
  0
LINE
  8
OBJ
 10
13.038916
 20
3.68207
 30
0.0
 11
13.038916
 21
3.820378
 31
0.0
  0
LINE
  8
OBJ
 10
13.158916
 20
3.807578
 30
0.0
 11
13.188916
 21
3.837578
 31
0.0
  0
LINE
  8
OBJ
 10
14.306616
 20
3.770378
 30
0.0
 11
14.306616
 21
3.530378
 31
0.0
  0
LINE
  8
OBJ
 10
14.186616
 20
3.650378
 30
0.0
 11
14.426616
 21
3.650378
 31
0.0
  0
LINE
  8
OBJ
 10
15.800566
 20
2.942838
 30
0.0
 11
15.800566
 21
3.029378
 31
0.0
  0
ARC
  8
OBJ
 10
15.830566
 20
2.942838
 30
0.0
 40
0.03
 50
180.0
 51
270.0
  0
LINE
  8
OBJ
  6
CONTINUOUS
 10
14.975916
 20
3.059378
 30
0.0
 11
15.770566
 21
3.059378
 31
0.0
  0
LINE
  8
OBJ
 10
14.975916
 20
3.059378
 30
0.0
 11
14.975916
 21
3.252158
 31
0.0
  0
ARC
  8
OBJ
 10
14.807488
 20
3.233895
 30
0.0
 40
0.169415
 50
6.188759
 51
51.572369
  0
ARC
  8
OBJ
 10
14.875916
 20
3.132962
 30
0.0
 40
0.1
 50
0.0
 51
137.733409
  0
LINE
  8
OBJ
 10
15.800566
 20
3.029378
 30
0.0
 11
15.800566
 21
3.650378
 31
0.0
  0
ARC
  8
OBJ
 10
15.770566
 20
3.029378
 30
0.0
 40
0.03
 50
0.0
 51
90.0
  0
ARC
  8
OBJ
 10
16.595216
 20
2.942838
 30
0.0
 40
0.03
 50
270.0
 51
0.0
  0
LINE
  8
OBJ
  6
CONTINUOUS
 10
17.090216
 20
3.951878
 30
0.0
 11
17.090216
 21
3.348878
 31
0.0
  0
ARC
  8
OBJ
 10
16.405914
 20
3.650378
 30
0.0
 40
0.684302
 50
333.858144
 51
26.141856
  0
LINE
  8
OBJ
  6
CENTER2
 10
16.800216
 20
3.047378
 30
0.0
 11
17.020216
 21
3.047378
 31
0.0
  0
LINE
  8
OBJ
  6
CENTER2
 10
16.800216
 20
3.348878
 30
0.0
 11
17.020216
 21
3.348878
 31
0.0
  0
LINE
  8
OBJ
  6
CONTINUOUS
 10
16.625216
 20
2.973378
 30
0.0
 11
16.800216
 21
2.973378
 31
0.0
  0
LINE
  8
OBJ
  6
CONTINUOUS
 10
17.090216
 20
3.348878
 30
0.0
 11
17.090216
 21
3.11486
 31
0.0
  0
ARC
  8
OBJ
 10
16.89289
 20
3.198128
 30
0.0
 40
0.197325
 50
310.184879
 51
49.815121
  0
LINE
  8
OBJ
 10
17.020216
 20
3.047378
 30
0.0
 11
17.090216
 21
3.11486
 31
0.0
  0
LINE
  8
OBJ
  6
CENTER2
 10
16.800216
 20
3.951878
 30
0.0
 11
17.020216
 21
3.951878
 31
0.0
  0
ARC
  8
OBJ
 10
70.951915
 20
4.932654
 30
0.0
 40
47.673583
 50
181.647742
 51
182.82936
  0
LINE
  8
OBJ
 10
22.765336
 20
3.493412
 30
0.0
 11
22.765336
 21
2.765378
 31
0.0
  0
LINE
  8
OBJ
 10
22.825336
 20
2.705378
 30
0.0
 11
23.244578
 21
2.705378
 31
0.0
  0
ARC
  8
OBJ
 10
22.825336
 20
2.765378
 30
0.0
 40
0.06
 50
180.0
 51
270.0
  0
ARC
  8
OBJ
 10
22.825336
 20
2.765378
 30
0.0
 40
0.06
 50
180.0
 51
270.0
  0
ARC
  8
OBJ
 10
23.244578
 20
2.615378
 30
0.0
 40
0.09
 50
2.780826
 51
90.0
  0
LINE
  8
OBJ
  6
CONTINUOUS
 10
22.707736
 20
3.887358
 30
0.0
 11
22.515547
 21
3.887358
 31
0.0
  0
LINE
  8
OBJ
  6
CONTINUOUS
 10
22.707736
 20
4.016958
 30
0.0
 11
22.515547
 21
4.016958
 31
0.0
  0
LINE
  8
OBJ
  6
CONTINUOUS
 10
22.707736
 20
3.492798
 30
0.0
 11
22.515547
 21
3.492798
 31
0.0
  0
LINE
  8
OBJ
  6
CONTINUOUS
 10
22.707736
 20
3.622398
 30
0.0
 11
22.515547
 21
3.622398
 31
0.0
  0
ARC
  8
OBJ
 10
22.539074
 20
3.557598
 30
0.0
 40
0.068939
 50
109.954678
 51
250.045322
  0
LINE
  8
OBJ
 10
22.470136
 20
3.522816
 30
0.0
 11
22.470136
 21
3.622398
 31
0.0
  0
LINE
  8
OBJ
 10
22.470136
 20
3.522816
 30
0.0
 11
22.498111
 21
3.502149
 31
0.0
  0
ARC
  8
OBJ
 10
22.539074
 20
3.952158
 30
0.0
 40
0.068939
 50
109.954678
 51
250.045322
  0
LINE
  8
OBJ
 10
22.470136
 20
3.887358
 30
0.0
 11
22.470136
 21
3.98694
 31
0.0
  0
LINE
  8
OBJ
 10
22.452336
 20
3.807378
 30
0.0
 11
22.470136
 21
3.807378
 31
0.0
  0
LINE
  8
OBJ
 10
22.470136
 20
3.98694
 30
0.0
 11
22.498111
 21
4.007607
 31
0.0
  0
ARC
  8
OBJ
 10
22.452336
 20
3.867378
 30
0.0
 40
0.06
 50
180.0
 51
270.0
  0
ARC
  8
OBJ
 10
22.686084
 20
3.754878
 30
0.0
 40
0.215949
 50
142.158498
 51
217.841502
  0
LINE
  8
OBJ
 10
22.470136
 20
3.622398
 30
0.0
 11
22.470136
 21
3.887358
 31
0.0
  0
ARC
  8
OBJ
 10
23.431336
 20
3.965378
 30
0.0
 40
0.425
 50
180.0
 51
270.0
  0
LINE
  8
OBJ
 10
22.707736
 20
3.492798
 30
0.0
 11
22.707736
 21
4.016958
 31
0.0
  0
LINE
  8
OBJ
  6
CENTER2
 10
22.765336
 20
3.513678
 30
0.0
 11
22.707736
 21
3.513678
 31
0.0
  0
LINE
  8
OBJ
 10
23.047975
 20
4.004378
 30
0.0
 11
23.239655
 21
3.672378
 31
0.0
  0
LINE
  8
OBJ
  6
CENTER2
 10
22.765336
 20
3.996078
 30
0.0
 11
22.707736
 21
3.996078
 31
0.0
  0
LINE
  8
OBJ
 10
22.765336
 20
3.696574
 30
0.0
 11
22.707736
 21
3.638974
 31
0.0
  0
LINE
  8
OBJ
 10
23.341336
 20
4.004378
 30
0.0
 11
23.521336
 21
4.004378
 31
0.0
  0
LINE
  8
OBJ
 10
23.431336
 20
3.914378
 30
0.0
 11
23.431336
 21
4.094378
 31
0.0
  0
ARC
  8
OBJ
 10
16.547416
 20
6.15598
 30
0.0
 40
0.375
 50
180.0
 51
246.655004
  0
LINE
  8
OBJ
  6
CONTINUOUS
 10
12.708916
 20
6.258378
 30
0.0
 11
12.975844
 21
6.258378
 31
0.0
  0
LINE
  8
OBJ
  6
CONTINUOUS
 10
12.708916
 20
5.710378
 30
0.0
 11
12.975844
 21
5.710378
 31
0.0
  0
LINE
  8
OBJ
  6
CONTINUOUS
 10
12.708916
 20
6.078378
 30
0.0
 11
12.975844
 21
6.078378
 31
0.0
  0
LINE
  8
OBJ
  6
CONTINUOUS
 10
12.708916
 20
5.530378
 30
0.0
 11
12.975844
 21
5.530378
 31
0.0
  0
LINE
  8
OBJ
  6
CONTINUOUS
 10
12.708916
 20
4.368378
 30
0.0
 11
12.975844
 21
4.368378
 31
0.0
  0
LINE
  8
OBJ
  6
CONTINUOUS
 10
12.708916
 20
4.188378
 30
0.0
 11
12.975844
 21
4.188378
 31
0.0
  0
LINE
  8
OBJ
  6
CENTER2
 10
11.84836
 20
5.894378
 30
0.0
 11
13.388411
 21
5.894378
 31
0.0
  0
ARC
  8
OBJ
 10
12.214916
 20
6.521515
 30
0.0
 40
0.06
 50
0.0
 51
74.826536
  0
ARC
  8
OBJ
 10
11.234916
 20
5.958378
 30
0.0
 40
0.4
 50
90.0
 51
180.0
  0
LINE
  8
OBJ
 10
10.644916
 20
6.358378
 30
0.0
 11
12.274916
 21
6.358378
 31
0.0
  0
LINE
  8
OBJ
 10
10.244916
 20
5.099378
 30
0.0
 11
10.244916
 21
5.958378
 31
0.0
  0
LINE
  8
OBJ
 10
9.834916
 20
4.299378
 30
0.0
 11
9.834916
 21
4.799378
 31
0.0
  0
LINE
  8
OBJ
 10
9.834916
 20
4.799378
 30
0.0
 11
9.834916
 21
4.844624
 31
0.0
  0
ARC
  8
OBJ
 10
9.754916
 20
4.844624
 30
0.0
 40
0.08
 50
0.0
 51
90.0
  0
ARC
  8
OBJ
 10
9.754916
 20
4.799378
 30
0.0
 40
0.08
 50
360.0
 51
90.0
  0
LINE
  8
OBJ
 10
10.542916
 20
4.299378
 30
0.0
 11
10.542916
 21
4.844624
 31
0.0
  0
LINE
  8
OBJ
 10
10.251416
 20
4.407631
 30
0.0
 11
10.126416
 21
4.407631
 31
0.0
  0
LINE
  8
OBJ
 10
10.313916
 20
4.299378
 30
0.0
 11
10.251416
 21
4.407631
 31
0.0
  0
LINE
  8
OBJ
 10
10.251416
 20
4.191125
 30
0.0
 11
10.313916
 21
4.299378
 31
0.0
  0
LINE
  8
OBJ
 10
10.126416
 20
4.191125
 30
0.0
 11
10.251416
 21
4.191125
 31
0.0
  0
LINE
  8
OBJ
 10
10.063916
 20
4.299378
 30
0.0
 11
10.126416
 21
4.191125
 31
0.0
  0
LINE
  8
OBJ
 10
10.126416
 20
4.407631
 30
0.0
 11
10.063916
 21
4.299378
 31
0.0
  0
ARC
  8
OBJ
 10
10.462916
 20
5.099378
 30
0.0
 40
0.08
 50
270.0
 51
0.0
  0
ARC
  8
OBJ
 10
10.462916
 20
4.844624
 30
0.0
 40
0.08
 50
0.0
 51
90.0
  0
ARC
  8
OBJ
 10
10.164916
 20
5.099378
 30
0.0
 40
0.08
 50
270.0
 51
0.0
  0
ARC
  8
OBJ
 10
10.644916
 20
5.958378
 30
0.0
 40
0.4
 50
90.0
 51
180.0
  0
LINE
  8
OBJ
  6
CONTINUOUS
 10
12.628916
 20
4.339378
 30
0.0
 11
12.708916
 21
4.339378
 31
0.0
  0
LINE
  8
OBJ
 10
12.708916
 20
6.258378
 30
0.0
 11
12.708916
 21
5.530378
 31
0.0
  0
LINE
  8
OBJ
  6
CENTER2
 10
12.628916
 20
5.559378
 30
0.0
 11
12.708916
 21
5.559378
 31
0.0
  0
LINE
  8
OBJ
 10
12.274916
 20
6.358378
 30
0.0
 11
12.578916
 21
6.358378
 31
0.0
  0
ARC
  8
OBJ
 10
12.578916
 20
6.308378
 30
0.0
 40
0.05
 50
0.0
 51
90.0
  0
LINE
  8
OBJ
 10
12.628916
 20
5.975356
 30
0.0
 11
12.708916
 21
6.055356
 31
0.0
  0
LINE
  8
OBJ
  6
CENTER2
 10
12.628916
 20
6.229378
 30
0.0
 11
12.708916
 21
6.229378
 31
0.0
  0
ARC
  8
OBJ
 10
10.546916
 20
6.497106
 30
0.0
 40
1.252272
 50
63.858144
 51
116.141856
  0
LINE
  8
OBJ
  6
CONTINUOUS
 10
9.995171
 20
7.749378
 30
0.0
 11
11.098661
 21
7.749378
 31
0.0
  0
LINE
  8
OBJ
  6
CONTINUOUS
 10
9.443426
 20
7.389378
 30
0.0
 11
11.650406
 21
7.389378
 31
0.0
  0
ARC
  8
OBJ
 10
10.546916
 20
3.777907
 30
0.0
 40
4.120471
 50
79.786344
 51
100.213656
  0
LINE
  8
OBJ
 10
9.443426
 20
7.621278
 30
0.0
 11
9.566917
 21
7.749378
 31
0.0
  0
ARC
  8
OBJ
 10
9.719298
 20
7.388273
 30
0.0
 40
0.361106
 50
40.184879
 51
139.815121
  0
LINE
  8
OBJ
 10
10.546916
 20
6.623608
 30
0.0
 11
10.546916
 21
8.30057
 31
0.0
  0
ARC
  8
OBJ
 10
9.491916
 20
7.352314
 30
0.0
 40
0.15
 50
259.69192
 51
0.0
  0
LINE
  8
OBJ
 10
9.443426
 20
7.621278
 30
0.0
 11
9.443426
 21
7.389378
 31
0.0
  0
LINE
  8
OBJ
 10
9.995171
 20
7.621278
 30
0.0
 11
9.995171
 21
7.389378
 31
0.0
  0
LINE
  8
OBJ
 10
9.641916
 20
7.352314
 30
0.0
 11
9.641916
 21
7.389378
 31
0.0
  0
LINE
  8
OBJ
  6
CONTINUOUS
 10
9.566917
 20
7.749378
 30
0.0
 11
9.995171
 21
7.749378
 31
0.0
  0
LINE
  8
OBJ
 10
9.766916
 20
7.749378
 30
0.0
 11
9.766916
 21
7.774033
 31
0.0
  0
ARC
  8
OBJ
 10
9.826916
 20
7.774033
 30
0.0
 40
0.06
 50
100.213656
 51
180.0
  0
LINE
  8
OBJ
 10
11.650406
 20
7.621278
 30
0.0
 11
11.526914
 21
7.749378
 31
0.0
  0
ARC
  8
OBJ
 10
11.374533
 20
7.388273
 30
0.0
 40
0.361106
 50
40.184879
 51
139.815121
  0
LINE
  8
OBJ
 10
11.451916
 20
6.897988
 30
0.0
 11
11.451916
 21
7.389378
 31
0.0
  0
ARC
  8
OBJ
 10
11.601916
 20
6.897988
 30
0.0
 40
0.15
 50
180.0
 51
256.005277
  0
LINE
  8
OBJ
 10
11.098661
 20
7.621278
 30
0.0
 11
11.098661
 21
7.389378
 31
0.0
  0
LINE
  8
OBJ
 10
11.650406
 20
7.621278
 30
0.0
 11
11.650406
 21
7.389378
 31
0.0
  0
LINE
  8
OBJ
  6
CONTINUOUS
 10
11.098661
 20
7.749378
 30
0.0
 11
11.526914
 21
7.749378
 31
0.0
  0
LINE
  8
OBJ
 10
11.326916
 20
7.749378
 30
0.0
 11
11.326916
 21
7.774033
 31
0.0
  0
ARC
  8
OBJ
 10
11.266916
 20
7.774033
 30
0.0
 40
0.06
 50
0.0
 51
79.786344
  0
LINE
  8
OBJ
  6
CENTER2
 10
15.384916
 20
8.130137
 30
0.0
 11
15.384916
 21
4.579432
 31
0.0
  0
LINE
  8
OBJ
 10
16.172416
 20
7.232378
 30
0.0
 11
16.172416
 21
6.15598
 31
0.0
  0
LINE
  8
OBJ
 10
14.354916
 20
6.409378
 30
0.0
 11
14.354916
 21
6.879378
 31
0.0
  0
ARC
  8
OBJ
 10
14.354916
 20
6.169378
 30
0.0
 40
0.59
 50
90.0
 51
180.0
  0
CIRCLE
  8
OBJ
 10
14.354916
 20
6.169378
 30
0.0
 40
0.42
  0
CIRCLE
  8
OBJ
 10
14.354916
 20
6.169378
 30
0.0
 40
0.358654
  0
CIRCLE
  8
OBJ
 10
14.354916
 20
6.169378
 30
0.0
 40
0.321682
  0
LINE
  8
OBJ
 10
13.637316
 20
4.657278
 30
0.0
 11
14.915916
 21
4.657278
 31
0.0
  0
ARC
  8
OBJ
 10
13.664916
 20
5.352487
 30
0.0
 40
0.1
 50
270.0
 51
0.0
  0
LINE
  8
OBJ
 10
13.258916
 20
5.993378
 30
0.0
 11
13.258916
 21
4.387219
 31
0.0
  0
LINE
  8
OBJ
  6
CENTER2
 10
13.038916
 20
4.201178
 30
0.0
 11
13.158916
 21
4.201178
 31
0.0
  0
LINE
  8
OBJ
 10
13.038916
 20
4.188378
 30
0.0
 11
13.038916
 21
4.326686
 31
0.0
  0
ARC
  8
OBJ
 10
12.943167
 20
4.278378
 30
0.0
 40
0.095748
 50
289.954678
 51
70.045322
  0
LINE
  8
OBJ
 10
13.038916
 20
4.326686
 30
0.0
 11
13.00006
 21
4.355391
 31
0.0
  0
LINE
  8
OBJ
 10
13.158916
 20
4.201178
 30
0.0
 11
13.188916
 21
4.171178
 31
0.0
  0
ARC
  8
OBJ
 10
13.577316
 20
4.267219
 30
0.0
 40
0.06
 50
0.0
 51
90.0
  0
ARC
  8
OBJ
 10
13.318916
 20
4.387219
 30
0.0
 40
0.06
 50
180.0
 51
270.0
  0
LINE
  8
OBJ
 10
13.318916
 20
4.327219
 30
0.0
 11
13.577316
 21
4.327219
 31
0.0
  0
LINE
  8
OBJ
 10
13.911973
 20
5.210091
 30
0.0
 11
13.911973
 21
4.657278
 31
0.0
  0
LINE
  8
OBJ
 10
13.854614
 20
5.252487
 30
0.0
 11
13.854614
 21
4.657278
 31
0.0
  0
LINE
  8
OBJ
 10
14.096564
 20
5.210091
 30
0.0
 11
13.911973
 21
5.210091
 31
0.0
  0
LINE
  8
OBJ
 10
13.854614
 20
5.252487
 30
0.0
 11
13.664916
 21
5.252487
 31
0.0
  0
ARC
  8
OBJ
 10
13.911973
 20
5.270091
 30
0.0
 40
0.06
 50
197.061077
 51
270.0
  0
LINE
  8
OBJ
  6
CONTINUOUS
 10
13.312053
 20
5.973378
 30
0.0
 11
13.704916
 21
5.973378
 31
0.0
  0
LINE
  8
OBJ
 10
14.114916
 20
6.169378
 30
0.0
 11
13.644916
 21
6.169378
 31
0.0
  0
LINE
  8
OBJ
 10
13.038916
 20
6.078378
 30
0.0
 11
13.038916
 21
5.710378
 31
0.0
  0
ARC
  8
OBJ
 10
12.738987
 20
5.894378
 30
0.0
 40
0.299929
 50
322.158498
 51
37.841502
  0
LINE
  8
OBJ
 10
13.098916
 20
6.091178
 30
0.0
 11
13.098916
 21
5.697578
 31
0.0
  0
LINE
  8
OBJ
 10
13.068916
 20
6.061178
 30
0.0
 11
13.068916
 21
5.727578
 31
0.0
  0
LINE
  8
OBJ
 10
13.128916
 20
6.061178
 30
0.0
 11
13.128916
 21
5.727578
 31
0.0
  0
LINE
  8
OBJ
 10
13.158916
 20
6.091178
 30
0.0
 11
13.158916
 21
5.697578
 31
0.0
  0
LINE
  8
OBJ
 10
13.188916
 20
6.061178
 30
0.0
 11
13.188916
 21
5.727578
 31
0.0
  0
LINE
  8
OBJ
  6
CENTER2
 10
13.038916
 20
5.697578
 30
0.0
 11
13.158916
 21
5.697578
 31
0.0
  0
LINE
  8
OBJ
 10
13.158916
 20
5.697578
 30
0.0
 11
13.188916
 21
5.727578
 31
0.0
  0
LINE
  8
OBJ
 10
13.038916
 20
5.57207
 30
0.0
 11
13.00006
 21
5.543366
 31
0.0
  0
LINE
  8
OBJ
 10
13.038916
 20
5.710378
 30
0.0
 11
13.038916
 21
5.57207
 31
0.0
  0
ARC
  8
OBJ
 10
12.943167
 20
5.620378
 30
0.0
 40
0.095748
 50
289.954678
 51
70.045322
  0
ARC
  8
OBJ
 10
13.198916
 20
5.993378
 30
0.0
 40
0.06
 50
19.471221
 51
90.0
  0
LINE
  8
OBJ
  6
CENTER2
 10
13.038916
 20
6.091178
 30
0.0
 11
13.158916
 21
6.091178
 31
0.0
  0
LINE
  8
OBJ
 10
13.038916
 20
6.216686
 30
0.0
 11
13.038916
 21
6.078378
 31
0.0
  0
LINE
  8
OBJ
  6
CONTINUOUS
 10
13.188916
 20
6.053378
 30
0.0
 11
13.198916
 21
6.053378
 31
0.0
  0
LINE
  8
OBJ
 10
13.158916
 20
6.091178
 30
0.0
 11
13.188916
 21
6.061178
 31
0.0
  0
LINE
  8
OBJ
 10
13.038916
 20
6.216686
 30
0.0
 11
13.00006
 21
6.245391
 31
0.0
  0
ARC
  8
OBJ
 10
12.943167
 20
6.168378
 30
0.0
 40
0.095748
 50
289.954678
 51
70.045322
  0
ARC
  8
OBJ
 10
13.312053
 20
6.033378
 30
0.0
 40
0.06
 50
199.471221
 51
270.0
  0
LINE
  8
OBJ
 10
13.764916
 20
6.169378
 30
0.0
 11
13.764916
 21
5.352487
 31
0.0
  0
LINE
  8
OBJ
 10
14.354916
 20
5.929378
 30
0.0
 11
14.354916
 21
5.459378
 31
0.0
  0
ARC
  8
OBJ
 10
13.704916
 20
6.033378
 30
0.0
 40
0.06
 50
270.0
 51
0.0
  0
LINE
  8
OBJ
 10
14.234916
 20
6.169378
 30
0.0
 11
14.474916
 21
6.169378
 31
0.0
  0
LINE
  8
OBJ
 10
14.354916
 20
6.049378
 30
0.0
 11
14.354916
 21
6.289378
 31
0.0
  0
LINE
  8
OBJ
 10
15.670123
 20
5.256918
 30
0.0
 11
16.138435
 21
5.821148
 31
0.0
  0
ARC
  8
OBJ
 10
14.915916
 20
4.717278
 30
0.0
 40
0.06
 50
270.0
 51
0.0
  0
LINE
  8
OBJ
 10
14.594916
 20
6.169378
 30
0.0
 11
15.064916
 21
6.169378
 31
0.0
  0
ARC
  8
OBJ
 10
14.537416
 20
6.819378
 30
0.0
 40
0.06
 50
270.0
 51
0.0
  0
LINE
  8
OBJ
 10
14.354916
 20
6.759378
 30
0.0
 11
14.884916
 21
6.759378
 31
0.0
  0
LINE
  8
OBJ
  6
CONTINUOUS
 10
15.083416
 20
7.697378
 30
0.0
 11
15.686416
 21
7.697378
 31
0.0
  0
ARC
  8
OBJ
 10
15.384916
 20
7.013076
 30
0.0
 40
0.684302
 50
63.858144
 51
116.141856
  0
LINE
  8
OBJ
  6
CONTINUOUS
 10
14.707916
 20
7.407378
 30
0.0
 11
16.061916
 21
7.407378
 31
0.0
  0
LINE
  8
OBJ
  6
CONTINUOUS
 10
14.597416
 20
7.232378
 30
0.0
 11
16.172416
 21
7.232378
 31
0.0
  0
LINE
  8
OBJ
 10
14.597416
 20
7.232378
 30
0.0
 11
14.597416
 21
6.819378
 31
0.0
  0
ARC
  8
OBJ
 10
14.884916
 20
6.819378
 30
0.0
 40
0.06
 50
270.0
 51
0.0
  0
LINE
  8
OBJ
  6
CONTINUOUS
 10
14.849397
 20
7.697378
 30
0.0
 11
15.083416
 21
7.697378
 31
0.0
  0
ARC
  8
OBJ
 10
14.932666
 20
7.500053
 30
0.0
 40
0.197325
 50
40.184879
 51
139.815121
  0
LINE
  8
OBJ
 10
14.781916
 20
7.627378
 30
0.0
 11
14.781916
 21
7.407378
 31
0.0
  0
LINE
  8
OBJ
 10
14.781916
 20
7.627378
 30
0.0
 11
14.849397
 21
7.697378
 31
0.0
  0
LINE
  8
OBJ
 10
14.707916
 20
7.407378
 30
0.0
 11
14.707916
 21
7.232378
 31
0.0
  0
LINE
  8
OBJ
 10
15.083416
 20
7.627378
 30
0.0
 11
15.083416
 21
7.407378
 31
0.0
  0
ARC
  8
OBJ
 10
15.837166
 20
7.500053
 30
0.0
 40
0.197325
 50
40.184879
 51
139.815121
  0
LINE
  8
OBJ
  6
CONTINUOUS
 10
15.686416
 20
7.697378
 30
0.0
 11
15.920434
 21
7.697378
 31
0.0
  0
LINE
  8
OBJ
 10
15.686416
 20
7.627378
 30
0.0
 11
15.686416
 21
7.407378
 31
0.0
  0
LINE
  8
OBJ
 10
15.987916
 20
7.627378
 30
0.0
 11
15.920434
 21
7.697378
 31
0.0
  0
LINE
  8
OBJ
 10
15.987916
 20
7.627378
 30
0.0
 11
15.987916
 21
7.407378
 31
0.0
  0
LINE
  8
OBJ
 10
16.061916
 20
7.407378
 30
0.0
 11
16.061916
 21
7.232378
 31
0.0
  0
ARC
  8
OBJ
 10
12.706916
 20
13.543825
 30
0.0
 40
0.06
 50
270.0
 51
0.0
  0
ARC
  8
OBJ
 10
11.045898
 20
13.683825
 30
0.0
 40
0.2
 50
225.0
 51
270.0
  0
LINE
  8
OBJ
 10
11.045898
 20
13.483825
 30
0.0
 11
12.706916
 21
13.483825
 31
0.0
  0
LINE
  8
OBJ
 10
12.274916
 20
13.483825
 30
0.0
 11
12.706916
 21
13.483825
 31
0.0
  0
LINE
  8
OBJ
  6
CENTER2
 10
13.176916
 20
13.712025
 30
0.0
 11
13.296916
 21
13.712025
 31
0.0
  0
LINE
  8
OBJ
  6
CONTINUOUS
 10
12.846916
 20
13.544825
 30
0.0
 11
13.113844
 21
13.544825
 31
0.0
  0
LINE
  8
OBJ
  6
CENTER2
 10
12.766916
 20
13.573825
 30
0.0
 11
12.846916
 21
13.573825
 31
0.0
  0
LINE
  8
OBJ
 10
13.176916
 20
13.586517
 30
0.0
 11
13.13806
 21
13.557813
 31
0.0
  0
LINE
  8
OBJ
  6
CENTER2
 10
16.800216
 20
4.253378
 30
0.0
 11
17.020216
 21
4.253378
 31
0.0
  0
LINE
  8
OBJ
  6
CONTINUOUS
 10
16.625216
 20
4.327378
 30
0.0
 11
16.800216
 21
4.327378
 31
0.0
  0
LINE
  8
OBJ
 10
17.020216
 20
4.253378
 30
0.0
 11
17.090216
 21
4.185897
 31
0.0
  0
ARC
  8
OBJ
 10
16.250216
 20
5.467378
 30
0.0
 40
0.375
 50
0.0
 51
66.655004
  0
ARC
  8
OBJ
 10
70.951915
 20
4.932654
 30
0.0
 40
47.673583
 50
177.074861
 51
178.311651
  0
LINE
  8
OBJ
 10
22.765336
 20
6.405344
 30
0.0
 11
22.765336
 21
7.133378
 31
0.0
  0
LINE
  8
OBJ
 10
20.010336
 20
4.358778
 30
0.0
 11
22.253336
 21
4.358778
 31
0.0
  0
LINE
  8
OBJ
 10
20.010336
 20
5.539978
 30
0.0
 11
22.253336
 21
5.539978
 31
0.0
  0
LINE
  8
OBJ
 10
19.970336
 20
4.398778
 30
0.0
 11
19.970336
 21
5.499978
 31
0.0
  0
LINE
  8
OBJ
 10
20.010336
 20
5.539978
 30
0.0
 11
20.010336
 21
4.358778
 31
0.0
  0
LINE
  8
OBJ
 10
19.970336
 20
4.398778
 30
0.0
 11
20.010336
 21
4.358778
 31
0.0
  0
LINE
  8
OBJ
 10
19.970336
 20
5.499978
 30
0.0
 11
20.010336
 21
5.539978
 31
0.0
  0
LINE
  8
OBJ
 10
22.667336
 20
5.254378
 30
0.0
 11
22.667336
 21
5.881798
 31
0.0
  0
LINE
  8
OBJ
 10
22.765336
 20
5.284378
 30
0.0
 11
22.765336
 21
6.405344
 31
0.0
  0
LINE
  8
OBJ
 10
22.293336
 20
4.318778
 30
0.0
 11
22.293336
 21
5.579978
 31
0.0
  0
LINE
  8
OBJ
 10
22.253336
 20
4.358778
 30
0.0
 11
22.253336
 21
5.539978
 31
0.0
  0
ARC
  8
OBJ
 62
     7
 10
22.657336
 20
5.224378
 30
0.0
 40
0.03
 50
90.0
 51
180.0
  0
ARC
  8
OBJ
 62
     7
 10
22.657336
 20
4.674378
 30
0.0
 40
0.03
 50
180.0
 51
270.0
  0
LINE
  8
OBJ
 10
22.627336
 20
5.224378
 30
0.0
 11
22.627336
 21
4.674378
 31
0.0
  0
LINE
  8
OBJ
 10
22.293336
 20
4.318778
 30
0.0
 11
22.392336
 21
4.318778
 31
0.0
  0
LINE
  8
OBJ
 10
22.253336
 20
4.358778
 30
0.0
 11
22.293336
 21
4.318778
 31
0.0
  0
ARC
  8
OBJ
 62
     7
 10
22.735336
 20
4.614378
 30
0.0
 40
0.03
 50
360.0
 51
90.0
  0
LINE
  8
OBJ
  6
CONTINUOUS
 62
     7
 10
22.735336
 20
4.644378
 30
0.0
 11
22.657336
 21
4.644378
 31
0.0
  0
LINE
  8
OBJ
  6
CONTINUOUS
 62
     7
 10
22.735336
 20
5.254378
 30
0.0
 11
22.657336
 21
5.254378
 31
0.0
  0
ARC
  8
OBJ
 62
     7
 10
22.735336
 20
5.284378
 30
0.0
 40
0.03
 50
270.0
 51
0.0
  0
LINE
  8
OBJ
  6
CONTINUOUS
 62
     7
 10
23.001336
 20
5.114378
 30
0.0
 11
22.857336
 21
5.114378
 31
0.0
  0
LINE
  8
OBJ
  6
CONTINUOUS
 62
     7
 10
23.001336
 20
4.784378
 30
0.0
 11
22.857336
 21
4.784378
 31
0.0
  0
LINE
  8
OBJ
 62
     7
 10
22.857336
 20
4.784378
 30
0.0
 11
22.857336
 21
5.114378
 31
0.0
  0
LINE
  8
OBJ
  6
CONTINUOUS
 10
22.707736
 20
6.405958
 30
0.0
 11
22.515547
 21
6.405958
 31
0.0
  0
LINE
  8
OBJ
  6
CONTINUOUS
 10
22.707736
 20
6.276358
 30
0.0
 11
22.515547
 21
6.276358
 31
0.0
  0
LINE
  8
OBJ
  6
CONTINUOUS
 10
22.707736
 20
6.011398
 30
0.0
 11
22.515547
 21
6.011398
 31
0.0
  0
LINE
  8
OBJ
  6
CONTINUOUS
 10
22.707736
 20
5.881798
 30
0.0
 11
22.515547
 21
5.881798
 31
0.0
  0
ARC
  8
OBJ
 10
22.539074
 20
5.946598
 30
0.0
 40
0.068939
 50
109.954678
 51
250.045322
  0
LINE
  8
OBJ
 10
22.470136
 20
5.911816
 30
0.0
 11
22.470136
 21
6.011398
 31
0.0
  0
LINE
  8
OBJ
 10
22.470136
 20
5.911816
 30
0.0
 11
22.498111
 21
5.891149
 31
0.0
  0
LINE
  8
OBJ
 10
22.293336
 20
5.579978
 30
0.0
 11
22.392336
 21
5.579978
 31
0.0
  0
LINE
  8
OBJ
 10
22.253336
 20
5.539978
 30
0.0
 11
22.293336
 21
5.579978
 31
0.0
  0
ARC
  8
OBJ
 10
22.539074
 20
6.341158
 30
0.0
 40
0.068939
 50
109.954678
 51
250.045322
  0
LINE
  8
OBJ
 10
22.470136
 20
6.276358
 30
0.0
 11
22.470136
 21
6.37594
 31
0.0
  0
LINE
  8
OBJ
 10
22.470136
 20
6.37594
 30
0.0
 11
22.498111
 21
6.396607
 31
0.0
  0
LINE
  8
OBJ
 10
22.452336
 20
6.091378
 30
0.0
 11
22.470136
 21
6.091378
 31
0.0
  0
ARC
  8
OBJ
 10
22.452336
 20
6.031378
 30
0.0
 40
0.06
 50
90.0
 51
180.0
  0
ARC
  8
OBJ
 10
22.686084
 20
6.143878
 30
0.0
 40
0.215949
 50
142.158498
 51
217.841502
  0
LINE
  8
OBJ
 10
22.470136
 20
6.011398
 30
0.0
 11
22.470136
 21
6.276358
 31
0.0
  0
LINE
  8
OBJ
 10
23.239655
 20
6.226378
 30
0.0
 11
23.047975
 21
5.894378
 31
0.0
  0
LINE
  8
OBJ
 10
23.431336
 20
5.804378
 30
0.0
 11
23.431336
 21
5.984378
 31
0.0
  0
ARC
  8
OBJ
 10
23.431336
 20
5.933378
 30
0.0
 40
0.425
 50
90.0
 51
180.0
  0
LINE
  8
OBJ
 10
22.707736
 20
5.881798
 30
0.0
 11
22.707736
 21
6.405958
 31
0.0
  0
LINE
  8
OBJ
 10
23.047975
 20
5.894378
 30
0.0
 11
23.239655
 21
5.562378
 31
0.0
  0
LINE
  8
OBJ
  6
CENTER2
 10
22.765336
 20
5.902678
 30
0.0
 11
22.707736
 21
5.902678
 31
0.0
  0
LINE
  8
OBJ
 10
23.341336
 20
5.894378
 30
0.0
 11
23.521336
 21
5.894378
 31
0.0
  0
LINE
  8
OBJ
  6
CENTER2
 10
22.765336
 20
6.385078
 30
0.0
 11
22.707736
 21
6.385078
 31
0.0
  0
LINE
  8
OBJ
 10
22.765336
 20
6.085574
 30
0.0
 11
22.707736
 21
6.027974
 31
0.0
  0
ARC
  8
OBJ
 10
22.825336
 20
7.133378
 30
0.0
 40
0.06
 50
90.0
 51
180.0
  0
LINE
  8
OBJ
 10
22.825336
 20
7.193378
 30
0.0
 11
23.246214
 21
7.193378
 31
0.0
  0
ARC
  8
OBJ
 10
23.246214
 20
7.283378
 30
0.0
 40
0.09
 50
270.0
 51
357.179001
  0
LINE
  8
OBJ
 10
7.01636
 20
13.949623
 30
0.0
 11
11.767846
 21
14.152206
 31
0.0
  0
LINE
  8
OBJ
 10
7.018312
 20
13.84501
 30
0.0
 11
10.540967
 21
13.880454
 31
0.0
  0
LINE
  8
OBJ
 10
7.018312
 20
20.04264
 30
0.0
 11
10.540967
 21
20.007196
 31
0.0
  0
LINE
  8
OBJ
 10
7.01636
 20
19.938027
 30
0.0
 11
11.767846
 21
19.735444
 31
0.0
  0
LINE
  8
OBJ
 10
5.305516
 20
23.439825
 30
0.0
 11
5.305516
 21
21.017825
 31
0.0
  0
LINE
  8
OBJ
  6
CENTER2
 10
4.714916
 20
23.73758
 30
0.0
 11
4.714916
 21
16.943825
 31
0.0
  0
LINE
  8
OBJ
 10
4.124316
 20
23.439825
 30
0.0
 11
4.124316
 21
21.017825
 31
0.0
  0
LINE
  8
OBJ
  6
CONTINUOUS
 10
2.000316
 20
19.832305
 30
0.0
 11
1.808127
 21
19.832305
 31
0.0
  0
LINE
  8
OBJ
  6
CONTINUOUS
 10
2.000316
 20
19.567345
 30
0.0
 11
1.808127
 21
19.567345
 31
0.0
  0
LINE
  8
OBJ
  6
CONTINUOUS
 10
2.000316
 20
19.437745
 30
0.0
 11
1.808127
 21
19.437745
 31
0.0
  0
LINE
  8
OBJ
  6
CONTINUOUS
 10
2.000316
 20
19.961905
 30
0.0
 11
1.808127
 21
19.961905
 31
0.0
  0
LINE
  8
OBJ
  6
CONTINUOUS
 10
2.000316
 20
13.925745
 30
0.0
 11
1.808127
 21
13.925745
 31
0.0
  0
LINE
  8
OBJ
  6
CONTINUOUS
 10
2.000316
 20
14.320305
 30
0.0
 11
1.808127
 21
14.320305
 31
0.0
  0
LINE
  8
OBJ
  6
CONTINUOUS
 10
2.000316
 20
14.055345
 30
0.0
 11
1.808127
 21
14.055345
 31
0.0
  0
LINE
  8
OBJ
  6
CONTINUOUS
 10
2.000316
 20
14.449905
 30
0.0
 11
1.808127
 21
14.449905
 31
0.0
  0
ARC
  8
OBJ
 10
25.412245
 20
16.943825
 30
0.0
 40
24.16133
 50
173.599509
 51
178.400814
  0
ARC
  8
OBJ
 10
25.412245
 20
16.943825
 30
0.0
 40
24.16133
 50
181.599186
 51
186.400491
  0
LINE
  8
OBJ
 10
1.762716
 20
14.320305
 30
0.0
 11
1.762716
 21
14.055345
 31
0.0
  0
ARC
  8
OBJ
 10
1.978664
 20
14.187825
 30
0.0
 40
0.215949
 50
142.158498
 51
217.841502
  0
ARC
  8
OBJ
 10
1.699644
 20
14.283825
 30
0.0
 40
0.3
 50
186.400491
 51
270.0
  0
LINE
  8
OBJ
 10
1.699644
 20
13.983825
 30
0.0
 11
1.762716
 21
13.983825
 31
0.0
  0
LINE
  8
OBJ
 10
1.762716
 20
14.055345
 30
0.0
 11
1.762716
 21
13.955763
 31
0.0
  0
LINE
  8
OBJ
 10
1.699644
 20
13.983825
 30
0.0
 11
1.762716
 21
13.983825
 31
0.0
  0
LINE
  8
OBJ
 10
1.762716
 20
13.955763
 30
0.0
 11
1.790691
 21
13.935096
 31
0.0
  0
ARC
  8
OBJ
 10
1.831654
 20
13.990545
 30
0.0
 40
0.068939
 50
109.954678
 51
250.045322
  0
POINT
  8
OBJ
 10
1.964711
 20
14.371711
 30
0.0
  0
LINE
  8
OBJ
 10
1.762716
 20
14.419887
 30
0.0
 11
1.762716
 21
14.320305
 31
0.0
  0
ARC
  8
OBJ
 10
1.831654
 20
14.385105
 30
0.0
 40
0.068939
 50
109.954678
 51
250.045322
  0
LINE
  8
OBJ
 10
1.762716
 20
14.419887
 30
0.0
 11
1.790691
 21
14.440554
 31
0.0
  0
ARC
  8
OBJ
 10
-0.994691
 20
17.100978
 30
0.0
 40
2.492397
 50
3.797744
 51
9.104601
  0
ARC
  8
OBJ
 10
1.107916
 20
17.291825
 30
0.0
 40
0.08
 50
90.0
 51
180.0
  0
LINE
  8
OBJ
 10
1.227916
 20
16.322825
 30
0.0
 11
1.227916
 21
17.564825
 31
0.0
  0
ARC
  8
OBJ
 10
1.107916
 20
16.595825
 30
0.0
 40
0.08
 50
180.0
 51
270.0
  0
LINE
  8
OBJ
 10
1.027916
 20
16.595825
 30
0.0
 11
1.027916
 21
17.291825
 31
0.0
  0
ARC
  8
OBJ
 10
-3.362154
 20
16.943825
 30
0.0
 40
4.865069
 50
356.202256
 51
0.0
  0
ARC
  8
OBJ
 10
-0.994691
 20
16.786672
 30
0.0
 40
2.492397
 50
350.895399
 51
356.202256
  0
ARC
  8
OBJ
 10
0.462006
 20
16.553227
 30
0.0
 40
1.017112
 50
338.848885
 51
350.895399
  0
ARC
  8
OBJ
 10
1.377916
 20
16.198868
 30
0.0
 40
0.035043
 50
270.0
 51
338.848885
  0
ARC
  8
OBJ
 10
1.377916
 20
16.198868
 30
0.0
 40
0.035043
 50
201.151115
 51
270.0
  0
ARC
  8
OBJ
 10
2.293825
 20
16.553227
 30
0.0
 40
1.017112
 50
196.589699
 51
201.151115
  0
LINE
  8
OBJ
  6
CONTINUOUS
 10
1.43678
 20
16.262825
 30
0.0
 11
1.287916
 21
16.262825
 31
0.0
  0
ARC
  8
OBJ
 10
1.287916
 20
16.322825
 30
0.0
 40
0.06
 50
180.0
 51
270.0
  0
LINE
  8
OBJ
  6
CONTINUOUS
 10
1.227916
 20
16.515825
 30
0.0
 11
1.107916
 21
16.515825
 31
0.0
  0
ARC
  8
OBJ
 10
-3.362154
 20
16.943825
 30
0.0
 40
4.865069
 50
0.0
 51
3.797744
  0
ARC
  8
OBJ
 10
2.293825
 20
17.334423
 30
0.0
 40
1.017112
 50
158.848885
 51
163.410301
  0
ARC
  8
OBJ
 10
1.377916
 20
17.688782
 30
0.0
 40
0.035043
 50
90.0
 51
158.848885
  0
ARC
  8
OBJ
 10
1.377916
 20
17.688782
 30
0.0
 40
0.035043
 50
21.151115
 51
90.0
  0
ARC
  8
OBJ
 10
0.462006
 20
17.334423
 30
0.0
 40
1.017112
 50
9.104601
 51
21.151115
  0
LINE
  8
OBJ
  6
CONTINUOUS
 10
1.43678
 20
17.624825
 30
0.0
 11
1.287916
 21
17.624825
 31
0.0
  0
LINE
  8
OBJ
  6
CONTINUOUS
 10
1.227916
 20
17.371825
 30
0.0
 11
1.107916
 21
17.371825
 31
0.0
  0
ARC
  8
OBJ
 10
1.287916
 20
17.564825
 30
0.0
 40
0.06
 50
90.0
 51
180.0
  0
ARC
  8
OBJ
 10
1.978664
 20
19.699825
 30
0.0
 40
0.215949
 50
142.158498
 51
217.841502
  0
LINE
  8
OBJ
 10
1.762716
 20
19.567345
 30
0.0
 11
1.762716
 21
19.832305
 31
0.0
  0
ARC
  8
OBJ
 10
1.699644
 20
19.603825
 30
0.0
 40
0.3
 50
90.0
 51
173.599509
  0
POINT
  8
OBJ
 10
1.964711
 20
19.51594
 30
0.0
  0
ARC
  8
OBJ
 10
1.831654
 20
19.502545
 30
0.0
 40
0.068939
 50
109.954678
 51
250.045322
  0
LINE
  8
OBJ
 10
1.762716
 20
19.467763
 30
0.0
 11
1.762716
 21
19.567345
 31
0.0
  0
LINE
  8
OBJ
 10
1.762716
 20
19.467763
 30
0.0
 11
1.790691
 21
19.447096
 31
0.0
  0
LINE
  8
OBJ
 10
1.699644
 20
19.903825
 30
0.0
 11
1.762716
 21
19.903825
 31
0.0
  0
LINE
  8
OBJ
 10
1.762716
 20
19.832305
 30
0.0
 11
1.762716
 21
19.931887
 31
0.0
  0
ARC
  8
OBJ
 10
1.831654
 20
19.897105
 30
0.0
 40
0.068939
 50
109.954678
 51
250.045322
  0
LINE
  8
OBJ
 10
1.762716
 20
19.931887
 30
0.0
 11
1.790691
 21
19.952554
 31
0.0
  0
LINE
  8
OBJ
  6
CONTINUOUS
 10
2.057916
 20
13.815825
 30
0.0
 11
2.057916
 21
20.071825
 31
0.0
  0
LINE
  8
OBJ
  6
CONTINUOUS
 10
2.372916
 20
13.755825
 30
0.0
 11
2.372916
 21
20.131825
 31
0.0
  0
LINE
  8
OBJ
 10
7.01636
 20
13.949623
 30
0.0
 11
2.410916
 21
13.755825
 31
0.0
  0
LINE
  8
OBJ
 10
2.000316
 20
14.449905
 30
0.0
 11
2.000316
 21
13.925745
 31
0.0
  0
LINE
  8
OBJ
 10
2.117916
 20
13.755825
 30
0.0
 11
2.470916
 21
13.755825
 31
0.0
  0
LINE
  8
OBJ
  6
CENTER2
 10
2.057916
 20
13.946625
 30
0.0
 11
2.000316
 21
13.946625
 31
0.0
  0
LINE
  8
OBJ
 10
2.057916
 20
14.246129
 30
0.0
 11
2.000316
 21
14.303729
 31
0.0
  0
ARC
  8
OBJ
 10
2.117916
 20
13.815825
 30
0.0
 40
0.06
 50
180.0
 51
270.0
  0
LINE
  8
OBJ
  6
CENTER2
 10
2.057916
 20
14.429025
 30
0.0
 11
2.000316
 21
14.429025
 31
0.0
  0
ARC
  8
OBJ
 10
7.018916
 20
13.785013
 30
0.0
 40
0.06
 50
90.576468
 51
180.0
  0
ARC
  8
OBJ
 10
7.018916
 20
13.889678
 30
0.0
 40
0.06
 50
92.441365
 51
180.0
  0
LINE
  8
OBJ
 10
7.01636
 20
19.938027
 30
0.0
 11
2.410916
 21
20.131825
 31
0.0
  0
LINE
  8
OBJ
 10
2.530916
 20
20.644825
 30
0.0
 11
6.170882
 21
20.644825
 31
0.0
  0
LINE
  8
OBJ
 10
2.470916
 20
20.408825
 30
0.0
 11
6.958916
 21
20.408825
 31
0.0
  0
LINE
  8
OBJ
 10
3.632916
 20
21.017825
 30
0.0
 11
5.796916
 21
21.017825
 31
0.0
  0
LINE
  8
OBJ
 10
3.782496
 20
20.742825
 30
0.0
 11
5.647336
 21
20.742825
 31
0.0
  0
LINE
  8
OBJ
  6
CONTINUOUS
 10
3.782496
 20
20.702425
 30
0.0
 11
3.782496
 21
20.894613
 31
0.0
  0
LINE
  8
OBJ
  6
CONTINUOUS
 10
3.652896
 20
20.702425
 30
0.0
 11
3.652896
 21
20.894613
 31
0.0
  0
LINE
  8
OBJ
  6
CONTINUOUS
 10
3.387936
 20
20.702425
 30
0.0
 11
3.387936
 21
20.894613
 31
0.0
  0
LINE
  8
OBJ
  6
CONTINUOUS
 10
3.258336
 20
20.702425
 30
0.0
 11
3.258336
 21
20.894613
 31
0.0
  0
LINE
  8
OBJ
 10
3.258336
 20
20.702425
 30
0.0
 11
3.782496
 21
20.702425
 31
0.0
  0
LINE
  8
OBJ
 10
2.000316
 20
19.437745
 30
0.0
 11
2.000316
 21
19.961905
 31
0.0
  0
LINE
  8
OBJ
 10
2.057916
 20
19.641521
 30
0.0
 11
2.000316
 21
19.583921
 31
0.0
  0
LINE
  8
OBJ
  6
CENTER2
 10
2.057916
 20
19.458625
 30
0.0
 11
2.000316
 21
19.458625
 31
0.0
  0
LINE
  8
OBJ
 10
3.258949
 20
20.644825
 30
0.0
 11
2.530916
 21
20.644825
 31
0.0
  0
LINE
  8
OBJ
 10
3.258336
 20
20.782825
 30
0.0
 11
2.530916
 21
20.782825
 31
0.0
  0
LINE
  8
OBJ
 10
2.470916
 20
20.722825
 30
0.0
 11
2.470916
 21
20.191825
 31
0.0
  0
ARC
  8
OBJ
 10
2.410916
 20
20.191825
 30
0.0
 40
0.06
 50
270.0
 51
360.0
  0
ARC
  8
OBJ
 10
2.117916
 20
20.071825
 30
0.0
 40
0.06
 50
90.0
 51
180.0
  0
LINE
  8
OBJ
 10
2.117916
 20
20.131825
 30
0.0
 11
2.410916
 21
20.131825
 31
0.0
  0
LINE
  8
OBJ
  6
CENTER2
 10
2.057916
 20
19.941025
 30
0.0
 11
2.000316
 21
19.941025
 31
0.0
  0
ARC
  8
OBJ
 10
2.530916
 20
20.722825
 30
0.0
 40
0.06
 50
90.0
 51
180.0
  0
ARC
  8
OBJ
 10
2.530916
 20
20.584825
 30
0.0
 40
0.06
 50
90.0
 51
180.0
  0
ARC
  8
OBJ
 10
2.530916
 20
20.584825
 30
0.0
 40
0.06
 50
90.0
 51
180.0
  0
LINE
  8
OBJ
  6
CENTER2
 10
3.279216
 20
20.644825
 30
0.0
 11
3.279216
 21
20.702425
 31
0.0
  0
LINE
  8
OBJ
  6
CENTER2
 10
3.761616
 20
20.644825
 30
0.0
 11
3.761616
 21
20.702425
 31
0.0
  0
LINE
  8
OBJ
 10
3.462111
 20
20.644825
 30
0.0
 11
3.404511
 21
20.702425
 31
0.0
  0
LINE
  8
OBJ
 10
3.752477
 20
20.940025
 30
0.0
 11
3.773145
 21
20.912049
 31
0.0
  0
ARC
  8
OBJ
 10
3.717696
 20
20.871086
 30
0.0
 40
0.068939
 50
19.954678
 51
160.045322
  0
ARC
  8
OBJ
 10
3.323136
 20
20.871086
 30
0.0
 40
0.068939
 50
19.954678
 51
160.045322
  0
LINE
  8
OBJ
 10
3.288354
 20
20.940025
 30
0.0
 11
3.387936
 21
20.940025
 31
0.0
  0
LINE
  8
OBJ
 10
3.288354
 20
20.940025
 30
0.0
 11
3.267687
 21
20.912049
 31
0.0
  0
LINE
  8
OBJ
 10
3.572916
 20
20.957825
 30
0.0
 11
3.572916
 21
20.940025
 31
0.0
  0
ARC
  8
OBJ
 10
3.632916
 20
20.957825
 30
0.0
 40
0.06
 50
90.0
 51
180.0
  0
ARC
  8
OBJ
 10
3.520416
 20
20.724077
 30
0.0
 40
0.215949
 50
52.158498
 51
127.841502
  0
LINE
  8
OBJ
 10
3.387936
 20
20.940025
 30
0.0
 11
3.652896
 21
20.940025
 31
0.0
  0
LINE
  8
OBJ
 10
3.652896
 20
20.940025
 30
0.0
 11
3.752477
 21
20.940025
 31
0.0
  0
LINE
  8
OBJ
 10
4.124316
 20
21.156825
 30
0.0
 11
5.305516
 21
21.156825
 31
0.0
  0
LINE
  8
OBJ
  6
CONTINUOUS
 10
6.041896
 20
20.702425
 30
0.0
 11
6.041896
 21
20.894613
 31
0.0
  0
LINE
  8
OBJ
  6
CONTINUOUS
 10
6.171496
 20
20.702425
 30
0.0
 11
6.171496
 21
20.894613
 31
0.0
  0
LINE
  8
OBJ
  6
CONTINUOUS
 10
5.647336
 20
20.702425
 30
0.0
 11
5.647336
 21
20.894613
 31
0.0
  0
LINE
  8
OBJ
  6
CONTINUOUS
 10
5.776936
 20
20.702425
 30
0.0
 11
5.776936
 21
20.894613
 31
0.0
  0
LINE
  8
OBJ
 10
6.170882
 20
20.644825
 30
0.0
 11
6.898916
 21
20.644825
 31
0.0
  0
LINE
  8
OBJ
 10
6.171496
 20
20.782825
 30
0.0
 11
6.898916
 21
20.782825
 31
0.0
  0
LINE
  8
OBJ
 10
5.647336
 20
20.702425
 30
0.0
 11
6.171496
 21
20.702425
 31
0.0
  0
LINE
  8
OBJ
  6
CENTER2
 10
5.668216
 20
20.644825
 30
0.0
 11
5.668216
 21
20.702425
 31
0.0
  0
LINE
  8
OBJ
 10
5.851111
 20
20.644825
 30
0.0
 11
5.793511
 21
20.702425
 31
0.0
  0
LINE
  8
OBJ
  6
CENTER2
 10
6.150616
 20
20.644825
 30
0.0
 11
6.150616
 21
20.702425
 31
0.0
  0
LINE
  8
OBJ
 10
6.958916
 20
20.722825
 30
0.0
 11
6.958916
 21
19.997973
 31
0.0
  0
ARC
  8
OBJ
 10
7.018916
 20
20.102637
 30
0.0
 40
0.06
 50
180.0
 51
269.423532
  0
ARC
  8
OBJ
 10
7.018916
 20
19.997973
 30
0.0
 40
0.06
 50
180.0
 51
267.558635
  0
ARC
  8
OBJ
 10
6.898916
 20
20.722825
 30
0.0
 40
0.06
 50
0.0
 51
90.0
  0
ARC
  8
OBJ
 10
6.898916
 20
20.584825
 30
0.0
 40
0.06
 50
0.0
 51
90.0
  0
ARC
  8
OBJ
 10
5.909416
 20
20.724077
 30
0.0
 40
0.215949
 50
52.158498
 51
127.841502
  0
LINE
  8
OBJ
 10
5.776936
 20
20.940025
 30
0.0
 11
6.041896
 21
20.940025
 31
0.0
  0
ARC
  8
OBJ
 10
5.712136
 20
20.871086
 30
0.0
 40
0.068939
 50
19.954678
 51
160.045322
  0
LINE
  8
OBJ
 10
5.677354
 20
20.940025
 30
0.0
 11
5.776936
 21
20.940025
 31
0.0
  0
LINE
  8
OBJ
 10
5.677354
 20
20.940025
 30
0.0
 11
5.656687
 21
20.912049
 31
0.0
  0
LINE
  8
OBJ
 10
5.856916
 20
20.957825
 30
0.0
 11
5.856916
 21
20.940025
 31
0.0
  0
ARC
  8
OBJ
 10
5.796916
 20
20.957825
 30
0.0
 40
0.06
 50
360.0
 51
90.0
  0
ARC
  8
OBJ
 10
6.106696
 20
20.871086
 30
0.0
 40
0.068939
 50
19.954678
 51
160.045322
  0
LINE
  8
OBJ
 10
6.141477
 20
20.940025
 30
0.0
 11
6.162145
 21
20.912049
 31
0.0
  0
LINE
  8
OBJ
 10
6.041896
 20
20.940025
 30
0.0
 11
6.141477
 21
20.940025
 31
0.0
  0
LINE
  8
OBJ
 10
4.124316
 20
23.439825
 30
0.0
 11
5.305516
 21
23.439825
 31
0.0
  0
LINE
  8
OBJ
 10
16.609916
 20
17.808825
 30
0.0
 11
15.733142
 21
17.808825
 31
0.0
  0
LINE
  8
OBJ
  6
CENTER2
 10
14.519539
 20
18.673825
 30
0.0
 11
17.688529
 21
18.673825
 31
0.0
  0
LINE
  8
OBJ
 10
16.609916
 20
16.078825
 30
0.0
 11
15.733142
 21
16.078825
 31
0.0
  0
LINE
  8
OBJ
  6
CENTER2
 10
14.519539
 20
15.213825
 30
0.0
 11
17.688529
 21
15.213825
 31
0.0
  0
LINE
  8
OBJ
  6
CENTER2
 10
13.728115
 20
16.943825
 30
0.0
 11
17.688529
 21
16.943825
 31
0.0
  0
LINE
  8
OBJ
 10
13.57
 20
19.633825
 30
0.0
 11
16.609916
 21
19.633825
 31
0.0
  0
LINE
  8
OBJ
 10
13.57
 20
14.253825
 30
0.0
 11
16.609916
 21
14.253825
 31
0.0
  0
LINE
  8
OBJ
 10
15.668916
 20
18.123899
 30
0.0
 11
15.986416
 21
18.673825
 31
0.0
  0
LINE
  8
OBJ
 10
14.716416
 20
18.673825
 30
0.0
 11
15.033916
 21
18.123899
 31
0.0
  0
ARC
  8
OBJ
 10
15.351416
 20
18.673825
 30
0.0
 40
0.785
 50
298.577296
 51
241.422704
  0
CIRCLE
  8
OBJ
 10
15.351416
 20
18.673825
 30
0.0
 40
0.688
  0
ARC
  8
OBJ
 10
12.520916
 20
18.673825
 30
0.0
 40
0.3
 50
293.578178
 51
66.421822
  0
LINE
  8
OBJ
 10
13.57
 20
18.673825
 30
0.0
 11
14.467685
 21
17.77614
 31
0.0
  0
LINE
  8
OBJ
 10
13.274916
 20
19.782025
 30
0.0
 11
13.274916
 21
17.888825
 31
0.0
  0
LINE
  8
OBJ
 10
12.520916
 20
19.008825
 30
0.0
 11
12.520916
 21
14.878825
 31
0.0
  0
LINE
  8
OBJ
 10
12.134916
 20
18.928825
 30
0.0
 11
12.134916
 21
14.958825
 31
0.0
  0
ARC
  8
OBJ
 10
12.520916
 20
16.943825
 30
0.0
 40
0.3
 50
293.578178
 51
66.421822
  0
LINE
  8
OBJ
 10
14.435
 20
17.808825
 30
0.0
 11
12.520916
 21
17.808825
 31
0.0
  0
ARC
  8
OBJ
 10
12.826916
 20
14.033825
 30
0.0
 40
0.06
 50
90.0
 51
180.0
  0
LINE
  8
OBJ
 10
12.580916
 20
14.818825
 30
0.0
 11
12.766916
 21
14.818825
 31
0.0
  0
ARC
  8
OBJ
 10
12.520916
 20
15.213825
 30
0.0
 40
0.3
 50
293.578178
 51
66.421822
  0
LINE
  8
OBJ
 10
14.435
 20
16.078825
 30
0.0
 11
12.520916
 21
16.078825
 31
0.0
  0
LINE
  8
OBJ
 10
11.109416
 20
15.969547
 30
0.0
 11
11.671916
 21
16.943825
 31
0.0
  0
LINE
  8
OBJ
 10
9.421916
 20
16.943825
 30
0.0
 11
9.984416
 21
15.969547
 31
0.0
  0
CIRCLE
  8
OBJ
 10
10.546916
 20
16.943825
 30
0.0
 40
0.864576
  0
LINE
  8
OBJ
 10
9.984416
 20
15.969547
 30
0.0
 11
11.109416
 21
15.969547
 31
0.0
  0
ARC
  8
OBJ
 10
10.275635
 20
13.888403
 30
0.0
 40
0.2
 50
45.0
 51
92.441365
  0
ARC
  8
OBJ
 10
10.54157
 20
13.820457
 30
0.0
 40
0.06
 50
45.0
 51
90.576468
  0
ARC
  8
OBJ
 10
12.214916
 20
14.958825
 30
0.0
 40
0.08
 50
180.0
 51
270.0
  0
ARC
  8
OBJ
 10
12.720916
 20
14.755568
 30
0.0
 40
0.2
 50
113.578178
 51
156.050025
  0
ARC
  8
OBJ
 10
11.681601
 20
15.193477
 30
0.0
 40
1.044836
 50
274.734801
 51
302.82987
  0
LINE
  8
OBJ
 10
12.274916
 20
14.878825
 30
0.0
 11
12.214916
 21
14.878825
 31
0.0
  0
ARC
  8
OBJ
 10
12.274468
 20
14.274599
 30
0.0
 40
0.048703
 50
89.473921
 51
122.842808
  0
ARC
  8
OBJ
 10
12.580916
 20
14.878825
 30
0.0
 40
0.06
 50
180.0
 51
270.0
  0
ARC
  8
OBJ
 10
12.720916
 20
15.672083
 30
0.0
 40
0.2
 50
180.0
 51
246.421822
  0
CIRCLE
  8
OBJ
 10
12.615916
 20
15.213825
 30
0.0
 40
0.095
  0
LINE
  8
OBJ
 10
11.109416
 20
17.918104
 30
0.0
 11
9.984416
 21
17.918104
 31
0.0
  0
LINE
  8
OBJ
 10
9.984416
 20
17.918104
 30
0.0
 11
9.421916
 21
16.943825
 31
0.0
  0
CIRCLE
  8
OBJ
 10
10.546916
 20
16.943825
 30
0.0
 40
0.055
  0
LINE
  8
OBJ
 10
11.671916
 20
16.943825
 30
0.0
 11
11.109416
 21
17.918104
 31
0.0
  0
ARC
  8
OBJ
 10
12.720916
 20
17.402083
 30
0.0
 40
0.2
 50
180.0
 51
246.421822
  0
ARC
  8
OBJ
 10
12.720916
 20
16.485568
 30
0.0
 40
0.2
 50
113.578178
 51
180.0
  0
CIRCLE
  8
OBJ
 10
12.615916
 20
16.943825
 30
0.0
 40
0.095
  0
ARC
  8
OBJ
 10
12.720916
 20
18.215568
 30
0.0
 40
0.2
 50
113.578178
 51
180.0
  0
ARC
  8
OBJ
 10
15.822584
 20
16.078825
 30
0.0
 40
0.2
 50
118.577296
 51
241.422704
  0
ARC
  8
OBJ
 10
14.880247
 20
16.078825
 30
0.0
 40
0.2
 50
298.577296
 51
61.422704
  0
ARC
  8
OBJ
 10
15.733142
 20
16.158825
 30
0.0
 40
0.08
 50
138.189685
 51
270.0
  0
LINE
  8
OBJ
 10
13.57
 20
15.213825
 30
0.0
 11
14.467685
 21
16.111511
 31
0.0
  0
ARC
  8
OBJ
 10
13.194916
 20
16.158825
 30
0.0
 40
0.08
 50
270.0
 51
0.0
  0
LINE
  8
OBJ
 10
14.566416
 20
15.213825
 30
0.0
 11
13.57
 21
15.213825
 31
0.0
  0
LINE
  8
OBJ
 10
13.57
 20
15.213825
 30
0.0
 11
13.57
 21
14.253825
 31
0.0
  0
LINE
  8
OBJ
 10
13.274916
 20
15.998825
 30
0.0
 11
13.274916
 21
14.093825
 31
0.0
  0
LINE
  8
OBJ
 10
13.334916
 20
14.163825
 30
0.0
 11
13.860826
 21
14.163825
 31
0.0
  0
LINE
  8
OBJ
  6
CENTER2
 10
13.176916
 20
14.105625
 30
0.0
 11
13.296916
 21
14.105625
 31
0.0
  0
LINE
  8
OBJ
 10
12.826916
 20
14.093825
 30
0.0
 11
13.274916
 21
14.093825
 31
0.0
  0
LINE
  8
OBJ
  6
CONTINUOUS
 10
12.846916
 20
14.272825
 30
0.0
 11
13.113844
 21
14.272825
 31
0.0
  0
LINE
  8
OBJ
  6
CENTER2
 10
12.766916
 20
14.243825
 30
0.0
 11
12.846916
 21
14.243825
 31
0.0
  0
LINE
  8
OBJ
 10
13.176916
 20
14.231133
 30
0.0
 11
13.13806
 21
14.259838
 31
0.0
  0
LINE
  8
OBJ
  6
CONTINUOUS
 10
12.846916
 20
13.724825
 30
0.0
 11
13.113844
 21
13.724825
 31
0.0
  0
LINE
  8
OBJ
  6
CONTINUOUS
 10
12.846916
 20
14.092825
 30
0.0
 11
13.113844
 21
14.092825
 31
0.0
  0
LINE
  8
OBJ
 10
12.766916
 20
13.989803
 30
0.0
 11
12.846916
 21
14.069803
 31
0.0
  0
LINE
  8
OBJ
 10
13.176916
 20
14.092825
 30
0.0
 11
13.176916
 21
13.724825
 31
0.0
  0
ARC
  8
OBJ
 10
12.876987
 20
13.908825
 30
0.0
 40
0.299929
 50
322.158498
 51
37.841502
  0
LINE
  8
OBJ
 10
13.206916
 20
14.075625
 30
0.0
 11
13.206916
 21
13.742025
 31
0.0
  0
LINE
  8
OBJ
 10
13.176916
 20
14.231133
 30
0.0
 11
13.176916
 21
14.092825
 31
0.0
  0
ARC
  8
OBJ
 10
13.081167
 20
14.182825
 30
0.0
 40
0.095748
 50
289.954678
 51
70.045322
  0
LINE
  8
OBJ
  6
CONTINUOUS
 10
13.326916
 20
14.067825
 30
0.0
 11
13.336916
 21
14.067825
 31
0.0
  0
LINE
  8
OBJ
 10
13.266916
 20
14.075625
 30
0.0
 11
13.266916
 21
13.742025
 31
0.0
  0
LINE
  8
OBJ
 10
13.326916
 20
14.075625
 30
0.0
 11
13.326916
 21
13.742025
 31
0.0
  0
LINE
  8
OBJ
 10
13.296916
 20
14.105625
 30
0.0
 11
13.326916
 21
14.075625
 31
0.0
  0
ARC
  8
OBJ
 10
13.334916
 20
14.103825
 30
0.0
 40
0.06
 50
90.0
 51
180.0
  0
LINE
  8
OBJ
 10
13.274916
 20
14.103825
 30
0.0
 11
13.274916
 21
14.093825
 31
0.0
  0
ARC
  8
OBJ
 10
13.977015
 20
14.193825
 30
0.0
 40
0.06
 50
90.0
 51
165.522488
  0
ARC
  8
OBJ
 10
13.860826
 20
14.223825
 30
0.0
 40
0.06
 50
270.0
 51
345.522488
  0
ARC
  8
OBJ
 10
13.194916
 20
15.998825
 30
0.0
 40
0.08
 50
0.0
 51
90.0
  0
LINE
  8
OBJ
 10
15.668916
 20
14.663899
 30
0.0
 11
15.986416
 21
15.213825
 31
0.0
  0
LINE
  8
OBJ
 10
14.716416
 20
15.213825
 30
0.0
 11
15.033916
 21
14.663899
 31
0.0
  0
ARC
  8
OBJ
 10
15.351416
 20
15.213825
 30
0.0
 40
0.785
 50
118.577296
 51
61.422704
  0
CIRCLE
  8
OBJ
 10
15.351416
 20
15.213825
 30
0.0
 40
0.688
  0
LINE
  8
OBJ
 10
15.033916
 20
14.663899
 30
0.0
 11
15.668916
 21
14.663899
 31
0.0
  0
LINE
  8
OBJ
 10
15.668916
 20
15.763751
 30
0.0
 11
15.033916
 21
15.763751
 31
0.0
  0
LINE
  8
OBJ
 10
15.033916
 20
15.763751
 30
0.0
 11
14.716416
 21
15.213825
 31
0.0
  0
LINE
  8
OBJ
 10
15.986416
 20
15.213825
 30
0.0
 11
15.668916
 21
15.763751
 31
0.0
  0
ARC
  8
OBJ
 10
15.733142
 20
15.998825
 30
0.0
 40
0.08
 50
90.0
 51
221.810315
  0
LINE
  8
OBJ
 10
13.274916
 20
17.728825
 30
0.0
 11
13.274916
 21
16.158825
 31
0.0
  0
LINE
  8
OBJ
 10
14.467685
 20
17.77614
 30
0.0
 11
14.467685
 21
16.111511
 31
0.0
  0
ARC
  8
OBJ
 10
13.194916
 20
17.888825
 30
0.0
 40
0.08
 50
270.0
 51
0.0
  0
ARC
  8
OBJ
 10
13.194916
 20
17.728825
 30
0.0
 40
0.08
 50
0.0
 51
90.0
  0
LINE
  8
OBJ
 10
15.986416
 20
16.943825
 30
0.0
 11
15.668916
 21
17.493751
 31
0.0
  0
LINE
  8
OBJ
 10
15.033916
 20
17.493751
 30
0.0
 11
14.716416
 21
16.943825
 31
0.0
  0
ARC
  8
OBJ
 10
15.351416
 20
16.943825
 30
0.0
 40
0.785
 50
118.577296
 51
241.422704
  0
CIRCLE
  8
OBJ
 10
15.351416
 20
16.943825
 30
0.0
 40
0.688
  0
ARC
  8
OBJ
 10
15.351416
 20
16.943825
 30
0.0
 40
0.785
 50
298.577296
 51
61.422704
  0
LINE
  8
OBJ
 10
15.033916
 20
16.393899
 30
0.0
 11
15.668916
 21
16.393899
 31
0.0
  0
LINE
  8
OBJ
 10
14.716416
 20
16.943825
 30
0.0
 11
15.033916
 21
16.393899
 31
0.0
  0
LINE
  8
OBJ
 10
15.668916
 20
16.393899
 30
0.0
 11
15.986416
 21
16.943825
 31
0.0
  0
LINE
  8
OBJ
 10
15.033916
 20
18.123899
 30
0.0
 11
15.668916
 21
18.123899
 31
0.0
  0
LINE
  8
OBJ
 10
15.668916
 20
17.493751
 30
0.0
 11
15.033916
 21
17.493751
 31
0.0
  0
ARC
  8
OBJ
 10
14.880247
 20
17.808825
 30
0.0
 40
0.2
 50
298.577296
 51
61.422704
  0
ARC
  8
OBJ
 10
15.733142
 20
17.888825
 30
0.0
 40
0.08
 50
138.189685
 51
270.0
  0
ARC
  8
OBJ
 10
15.822584
 20
17.808825
 30
0.0
 40
0.2
 50
138.189685
 51
221.810315
  0
POINT
  8
OBJ
 10
15.822584
 20
17.808825
 30
0.0
  0
ARC
  8
OBJ
 10
15.822584
 20
17.808825
 30
0.0
 40
0.2
 50
221.810315
 51
241.422704
  0
ARC
  8
OBJ
 10
15.733142
 20
17.728825
 30
0.0
 40
0.08
 50
90.0
 51
221.810315
  0
ARC
  8
OBJ
 10
15.822584
 20
17.808825
 30
0.0
 40
0.2
 50
118.577296
 51
138.189685
  0
ARC
  8
OBJ
 10
12.706916
 20
20.343825
 30
0.0
 40
0.06
 50
0.0
 51
90.0
  0
LINE
  8
OBJ
 10
12.580916
 20
19.068825
 30
0.0
 11
12.766916
 21
19.068825
 31
0.0
  0
ARC
  8
OBJ
 10
11.045898
 20
20.203825
 30
0.0
 40
0.2
 50
90.0
 51
135.0
  0
LINE
  8
OBJ
 10
10.417056
 20
19.857826
 30
0.0
 11
10.904476
 21
20.345247
 31
0.0
  0
ARC
  8
OBJ
 10
10.275635
 20
19.999247
 30
0.0
 40
0.2
 50
267.558635
 51
315.0
  0
ARC
  8
OBJ
 10
10.54157
 20
20.067193
 30
0.0
 40
0.06
 50
269.423532
 51
315.0
  0
ARC
  8
OBJ
 10
11.681601
 20
18.694174
 30
0.0
 40
1.044836
 50
57.17013
 51
85.265199
  0
LINE
  8
OBJ
 10
12.274916
 20
19.008825
 30
0.0
 11
12.214916
 21
19.008825
 31
0.0
  0
ARC
  8
OBJ
 10
12.214916
 20
18.928825
 30
0.0
 40
0.08
 50
90.0
 51
180.0
  0
ARC
  8
OBJ
 10
12.580916
 20
19.008825
 30
0.0
 40
0.06
 50
90.0
 51
180.0
  0
ARC
  8
OBJ
 10
12.720916
 20
19.132083
 30
0.0
 40
0.2
 50
203.949975
 51
246.421822
  0
CIRCLE
  8
OBJ
 10
12.615916
 20
18.673825
 30
0.0
 40
0.095
  0
ARC
  8
OBJ
 10
12.274468
 20
19.613051
 30
0.0
 40
0.048703
 50
237.157192
 51
270.526079
  0
LINE
  8
OBJ
 10
11.045898
 20
20.403825
 30
0.0
 11
12.706916
 21
20.403825
 31
0.0
  0
LINE
  8
OBJ
 10
14.566416
 20
18.673825
 30
0.0
 11
13.57
 21
18.673825
 31
0.0
  0
ARC
  8
OBJ
 10
13.860826
 20
19.663825
 30
0.0
 40
0.06
 50
14.477512
 51
90.0
  0
LINE
  8
OBJ
 10
13.176916
 20
19.794825
 30
0.0
 11
13.176916
 21
19.656517
 31
0.0
  0
ARC
  8
OBJ
 10
13.081167
 20
19.704825
 30
0.0
 40
0.095748
 50
289.954678
 51
70.045322
  0
LINE
  8
OBJ
 10
12.846916
 20
20.342825
 30
0.0
 11
12.846916
 21
19.614825
 31
0.0
  0
LINE
  8
OBJ
 10
12.766916
 20
20.343825
 30
0.0
 11
12.766916
 21
19.068825
 31
0.0
  0
LINE
  8
OBJ
 10
13.57
 20
19.633825
 30
0.0
 11
13.57
 21
18.673825
 31
0.0
  0
LINE
  8
OBJ
 10
13.176916
 20
19.656517
 30
0.0
 11
13.13806
 21
19.627813
 31
0.0
  0
LINE
  8
OBJ
  6
CENTER2
 10
12.766916
 20
19.643825
 30
0.0
 11
12.846916
 21
19.643825
 31
0.0
  0
LINE
  8
OBJ
  6
CONTINUOUS
 10
12.846916
 20
19.614825
 30
0.0
 11
13.113844
 21
19.614825
 31
0.0
  0
ARC
  8
OBJ
 10
13.977015
 20
19.693825
 30
0.0
 40
0.06
 50
194.477512
 51
270.0
  0
LINE
  8
OBJ
 10
13.334916
 20
19.723825
 30
0.0
 11
13.860826
 21
19.723825
 31
0.0
  0
LINE
  8
OBJ
 10
13.176916
 20
20.301133
 30
0.0
 11
13.176916
 21
20.162825
 31
0.0
  0
ARC
  8
OBJ
 10
13.081167
 20
20.252825
 30
0.0
 40
0.095748
 50
289.954678
 51
70.045322
  0
LINE
  8
OBJ
  6
CENTER2
 10
13.176916
 20
20.175625
 30
0.0
 11
13.296916
 21
20.175625
 31
0.0
  0
LINE
  8
OBJ
  6
CENTER2
 10
13.176916
 20
19.782025
 30
0.0
 11
13.296916
 21
19.782025
 31
0.0
  0
LINE
  8
OBJ
 10
12.766916
 20
20.059803
 30
0.0
 11
12.846916
 21
20.139803
 31
0.0
  0
LINE
  8
OBJ
  6
CONTINUOUS
 10
12.846916
 20
20.162825
 30
0.0
 11
13.113844
 21
20.162825
 31
0.0
  0
LINE
  8
OBJ
  6
CONTINUOUS
 10
12.846916
 20
19.794825
 30
0.0
 11
13.113844
 21
19.794825
 31
0.0
  0
LINE
  8
OBJ
 10
13.176916
 20
20.162825
 30
0.0
 11
13.176916
 21
19.794825
 31
0.0
  0
ARC
  8
OBJ
 10
12.876987
 20
19.978825
 30
0.0
 40
0.299929
 50
322.158498
 51
37.841502
  0
LINE
  8
OBJ
 10
13.206916
 20
20.145625
 30
0.0
 11
13.206916
 21
19.812025
 31
0.0
  0
LINE
  8
OBJ
 10
13.296916
 20
20.175625
 30
0.0
 11
13.326916
 21
20.145625
 31
0.0
  0
LINE
  8
OBJ
 10
13.296916
 20
19.782025
 30
0.0
 11
13.326916
 21
19.812025
 31
0.0
  0
ARC
  8
OBJ
 10
13.334916
 20
19.783825
 30
0.0
 40
0.06
 50
180.0
 51
270.0
  0
LINE
  8
OBJ
 10
13.236916
 20
20.175625
 30
0.0
 11
13.236916
 21
19.782025
 31
0.0
  0
LINE
  8
OBJ
 10
13.266916
 20
20.145625
 30
0.0
 11
13.266916
 21
19.812025
 31
0.0
  0
LINE
  8
OBJ
 10
13.296916
 20
20.175625
 30
0.0
 11
13.296916
 21
19.782025
 31
0.0
  0
LINE
  8
OBJ
 10
13.326916
 20
20.145625
 30
0.0
 11
13.326916
 21
19.812025
 31
0.0
  0
LINE
  8
OBJ
 10
13.176916
 20
20.301133
 30
0.0
 11
13.13806
 21
20.329838
 31
0.0
  0
LINE
  8
OBJ
  6
CENTER2
 10
12.766916
 20
20.313825
 30
0.0
 11
12.846916
 21
20.313825
 31
0.0
  0
LINE
  8
OBJ
  6
CONTINUOUS
 10
12.846916
 20
20.342825
 30
0.0
 11
13.113844
 21
20.342825
 31
0.0
  0
LINE
  8
OBJ
 10
15.668916
 20
19.223751
 30
0.0
 11
15.033916
 21
19.223751
 31
0.0
  0
LINE
  8
OBJ
 10
15.033916
 20
19.223751
 30
0.0
 11
14.716416
 21
18.673825
 31
0.0
  0
LINE
  8
OBJ
 10
15.986416
 20
18.673825
 30
0.0
 11
15.668916
 21
19.223751
 31
0.0
  0
ARC
  8
OBJ
 10
16.470614
 20
18.673825
 30
0.0
 40
0.684302
 50
333.858144
 51
26.141856
  0
LINE
  8
OBJ
  6
CONTINUOUS
 10
17.154916
 20
18.975325
 30
0.0
 11
17.154916
 21
18.372325
 31
0.0
  0
LINE
  8
OBJ
 10
17.154916
 20
18.138307
 30
0.0
 11
17.154916
 21
19.209343
 31
0.0
  0
LINE
  8
OBJ
 10
16.864916
 20
17.996825
 30
0.0
 11
16.864916
 21
19.350825
 31
0.0
  0
LINE
  8
OBJ
 10
16.689916
 20
19.553825
 30
0.0
 11
16.689916
 21
14.333825
 31
0.0
  0
ARC
  8
OBJ
 10
16.609916
 20
16.158825
 30
0.0
 40
0.08
 50
270.0
 51
360.0
  0
LINE
  8
OBJ
  6
CONTINUOUS
 10
17.154916
 20
14.912325
 30
0.0
 11
17.154916
 21
14.678307
 31
0.0
  0
ARC
  8
OBJ
 10
16.95759
 20
14.761575
 30
0.0
 40
0.197325
 50
310.184879
 51
49.815121
  0
LINE
  8
OBJ
 10
17.154916
 20
14.678307
 30
0.0
 11
17.154916
 21
15.749343
 31
0.0
  0
LINE
  8
OBJ
 10
16.864916
 20
14.536825
 30
0.0
 11
16.864916
 21
15.890825
 31
0.0
  0
ARC
  8
OBJ
 10
16.609916
 20
14.333825
 30
0.0
 40
0.08
 50
270.0
 51
360.0
  0
LINE
  8
OBJ
  6
CONTINUOUS
 10
16.689916
 20
14.536825
 30
0.0
 11
16.864916
 21
14.536825
 31
0.0
  0
LINE
  8
OBJ
 10
17.084916
 20
14.610825
 30
0.0
 11
17.154916
 21
14.678307
 31
0.0
  0
LINE
  8
OBJ
  6
CENTER2
 10
16.864916
 20
14.610825
 30
0.0
 11
17.084916
 21
14.610825
 31
0.0
  0
ARC
  8
OBJ
 10
16.470614
 20
15.213825
 30
0.0
 40
0.684302
 50
333.858144
 51
26.141856
  0
LINE
  8
OBJ
  6
CONTINUOUS
 10
17.154916
 20
15.515325
 30
0.0
 11
17.154916
 21
14.912325
 31
0.0
  0
LINE
  8
OBJ
  6
CENTER2
 10
16.864916
 20
14.912325
 30
0.0
 11
17.084916
 21
14.912325
 31
0.0
  0
LINE
  8
OBJ
  6
CONTINUOUS
 10
16.689916
 20
15.890825
 30
0.0
 11
16.864916
 21
15.890825
 31
0.0
  0
ARC
  8
OBJ
 10
16.609916
 20
15.998825
 30
0.0
 40
0.08
 50
360.0
 51
90.0
  0
LINE
  8
OBJ
 10
17.084916
 20
15.816825
 30
0.0
 11
17.154916
 21
15.749343
 31
0.0
  0
LINE
  8
OBJ
  6
CONTINUOUS
 10
17.154916
 20
15.749343
 30
0.0
 11
17.154916
 21
15.515325
 31
0.0
  0
ARC
  8
OBJ
 10
16.95759
 20
15.666075
 30
0.0
 40
0.197325
 50
310.184879
 51
49.815121
  0
LINE
  8
OBJ
  6
CENTER2
 10
16.864916
 20
15.816825
 30
0.0
 11
17.084916
 21
15.816825
 31
0.0
  0
LINE
  8
OBJ
  6
CENTER2
 10
16.864916
 20
15.515325
 30
0.0
 11
17.084916
 21
15.515325
 31
0.0
  0
LINE
  8
OBJ
  6
CONTINUOUS
 10
17.154916
 20
17.479343
 30
0.0
 11
17.154916
 21
17.245325
 31
0.0
  0
ARC
  8
OBJ
 10
16.95759
 20
17.396075
 30
0.0
 40
0.197325
 50
310.184879
 51
49.815121
  0
LINE
  8
OBJ
 10
17.154916
 20
16.408307
 30
0.0
 11
17.154916
 21
17.479343
 31
0.0
  0
LINE
  8
OBJ
 10
16.864916
 20
16.266825
 30
0.0
 11
16.864916
 21
17.620825
 31
0.0
  0
ARC
  8
OBJ
 10
16.470614
 20
16.943825
 30
0.0
 40
0.684302
 50
333.858144
 51
26.141856
  0
LINE
  8
OBJ
  6
CONTINUOUS
 10
17.154916
 20
17.245325
 30
0.0
 11
17.154916
 21
16.642325
 31
0.0
  0
LINE
  8
OBJ
  6
CONTINUOUS
 10
16.689916
 20
16.266825
 30
0.0
 11
16.864916
 21
16.266825
 31
0.0
  0
LINE
  8
OBJ
  6
CONTINUOUS
 10
17.154916
 20
16.642325
 30
0.0
 11
17.154916
 21
16.408307
 31
0.0
  0
ARC
  8
OBJ
 10
16.95759
 20
16.491575
 30
0.0
 40
0.197325
 50
310.184879
 51
49.815121
  0
LINE
  8
OBJ
 10
17.084916
 20
16.340825
 30
0.0
 11
17.154916
 21
16.408307
 31
0.0
  0
LINE
  8
OBJ
  6
CENTER2
 10
16.864916
 20
16.340825
 30
0.0
 11
17.084916
 21
16.340825
 31
0.0
  0
LINE
  8
OBJ
  6
CENTER2
 10
16.864916
 20
16.642325
 30
0.0
 11
17.084916
 21
16.642325
 31
0.0
  0
LINE
  8
OBJ
  6
CENTER2
 10
16.864916
 20
17.245325
 30
0.0
 11
17.084916
 21
17.245325
 31
0.0
  0
LINE
  8
OBJ
  6
CONTINUOUS
 10
16.689916
 20
17.620825
 30
0.0
 11
16.864916
 21
17.620825
 31
0.0
  0
ARC
  8
OBJ
 10
16.609916
 20
17.888825
 30
0.0
 40
0.08
 50
270.0
 51
360.0
  0
ARC
  8
OBJ
 10
16.609916
 20
17.728825
 30
0.0
 40
0.08
 50
360.0
 51
90.0
  0
LINE
  8
OBJ
 10
17.084916
 20
17.546825
 30
0.0
 11
17.154916
 21
17.479343
 31
0.0
  0
LINE
  8
OBJ
  6
CENTER2
 10
16.864916
 20
17.546825
 30
0.0
 11
17.084916
 21
17.546825
 31
0.0
  0
LINE
  8
OBJ
  6
CONTINUOUS
 10
16.689916
 20
17.996825
 30
0.0
 11
16.864916
 21
17.996825
 31
0.0
  0
LINE
  8
OBJ
 10
17.084916
 20
18.070825
 30
0.0
 11
17.154916
 21
18.138307
 31
0.0
  0
LINE
  8
OBJ
  6
CONTINUOUS
 10
17.154916
 20
18.372325
 30
0.0
 11
17.154916
 21
18.138307
 31
0.0
  0
ARC
  8
OBJ
 10
16.95759
 20
18.221575
 30
0.0
 40
0.197325
 50
310.184879
 51
49.815121
  0
LINE
  8
OBJ
  6
CENTER2
 10
16.864916
 20
18.070825
 30
0.0
 11
17.084916
 21
18.070825
 31
0.0
  0
LINE
  8
OBJ
  6
CENTER2
 10
16.864916
 20
18.372325
 30
0.0
 11
17.084916
 21
18.372325
 31
0.0
  0
LINE
  8
OBJ
  6
CONTINUOUS
 10
17.154916
 20
19.209343
 30
0.0
 11
17.154916
 21
18.975325
 31
0.0
  0
ARC
  8
OBJ
 10
16.95759
 20
19.126075
 30
0.0
 40
0.197325
 50
310.184879
 51
49.815121
  0
LINE
  8
OBJ
  6
CENTER2
 10
16.864916
 20
18.975325
 30
0.0
 11
17.084916
 21
18.975325
 31
0.0
  0
LINE
  8
OBJ
 10
16.939916
 20
18.673825
 30
0.0
 11
17.239916
 21
18.673825
 31
0.0
  0
LINE
  8
OBJ
  6
CONTINUOUS
 10
16.689916
 20
19.350825
 30
0.0
 11
16.864916
 21
19.350825
 31
0.0
  0
ARC
  8
OBJ
 10
16.609916
 20
19.553825
 30
0.0
 40
0.08
 50
360.0
 51
90.0
  0
LINE
  8
OBJ
 10
17.084916
 20
19.276825
 30
0.0
 11
17.154916
 21
19.209343
 31
0.0
  0
LINE
  8
OBJ
  6
CENTER2
 10
16.864916
 20
19.276825
 30
0.0
 11
17.084916
 21
19.276825
 31
0.0
  0
LINE
  8
OBJ
  6
CENTER2
 10
28.196336
 20
4.656468
 30
0.0
 11
28.196336
 21
2.644289
 31
0.0
  0
LINE
  8
OBJ
 10
28.196336
 20
4.285378
 30
0.0
 11
27.646409
 21
3.967878
 31
0.0
  0
LINE
  8
OBJ
 10
28.746262
 20
3.967878
 30
0.0
 11
28.196336
 21
4.285378
 31
0.0
  0
LINE
  8
OBJ
 10
29.884696
 20
4.004378
 30
0.0
 11
29.693016
 21
4.336378
 31
0.0
  0
LINE
  8
OBJ
 10
29.309655
 20
4.336378
 30
0.0
 11
29.117975
 21
4.004378
 31
0.0
  0
LINE
  8
OBJ
 10
26.466336
 20
4.285378
 30
0.0
 11
25.916409
 21
3.967878
 31
0.0
  0
LINE
  8
OBJ
 10
27.016262
 20
3.967878
 30
0.0
 11
26.466336
 21
4.285378
 31
0.0
  0
LINE
  8
OBJ
 10
23.814696
 20
4.004378
 30
0.0
 11
23.623016
 21
4.336378
 31
0.0
  0
LINE
  8
OBJ
 10
24.736336
 20
4.285378
 30
0.0
 11
24.186409
 21
3.967878
 31
0.0
  0
LINE
  8
OBJ
 10
25.286262
 20
3.967878
 30
0.0
 11
24.736336
 21
4.285378
 31
0.0
  0
CIRCLE
  8
OBJ
 10
29.501336
 20
4.004378
 30
0.0
 40
0.169
  0
CIRCLE
  8
OBJ
 10
29.501336
 20
4.004378
 30
0.0
 40
0.215
  0
CIRCLE
  8
OBJ
 10
29.501336
 20
4.004378
 30
0.0
 40
0.31
  0
LINE
  8
OBJ
 10
29.926336
 20
5.933378
 30
0.0
 11
29.926336
 21
3.965378
 31
0.0
  0
LINE
  8
OBJ
 10
30.265336
 20
4.016958
 30
0.0
 11
30.265336
 21
4.644378
 31
0.0
  0
LINE
  8
OBJ
 10
30.540336
 20
3.867378
 30
0.0
 11
30.540336
 21
6.031378
 31
0.0
  0
CIRCLE
  8
OBJ
 10
28.196336
 20
3.650378
 30
0.0
 40
0.688
  0
CIRCLE
  8
OBJ
 10
24.736336
 20
3.650378
 30
0.0
 40
0.688
  0
CIRCLE
  8
OBJ
 10
26.466336
 20
3.650378
 30
0.0
 40
0.688
  0
ARC
  8
OBJ
 10
28.196336
 20
3.650378
 30
0.0
 40
0.785
 50
208.577296
 51
50.509914
  0
LINE
  8
OBJ
 10
23.901336
 20
7.152378
 30
0.0
 11
23.901336
 21
2.815378
 31
0.0
  0
LINE
  8
OBJ
 10
29.031336
 20
7.152378
 30
0.0
 11
29.031336
 21
2.815378
 31
0.0
  0
ARC
  8
OBJ
 10
24.736336
 20
3.650378
 30
0.0
 40
0.785
 50
129.490086
 51
331.422704
  0
LINE
  8
OBJ
 10
30.167336
 20
2.765378
 30
0.0
 11
30.167336
 21
4.614378
 31
0.0
  0
LINE
  8
OBJ
 10
29.931336
 20
2.705378
 30
0.0
 11
29.931336
 21
7.193378
 31
0.0
  0
LINE
  8
OBJ
 10
29.931336
 20
2.705378
 30
0.0
 11
29.931336
 21
7.193378
 31
0.0
  0
LINE
  8
OBJ
  6
CENTER2
 10
24.736336
 20
4.656468
 30
0.0
 11
24.736336
 21
2.644289
 31
0.0
  0
LINE
  8
OBJ
  6
CENTER2
 10
26.466336
 20
8.30057
 30
0.0
 11
26.466336
 21
2.652811
 31
0.0
  0
ARC
  8
OBJ
 10
26.466336
 20
3.650378
 30
0.0
 40
0.785
 50
208.577296
 51
331.422704
  0
ARC
  8
OBJ
 10
26.466336
 20
3.650378
 30
0.0
 40
0.835
 50
208.577296
 51
331.422704
  0
LINE
  8
OBJ
 10
25.451336
 20
1.649178
 30
0.0
 11
27.481336
 21
1.649178
 31
0.0
  0
LINE
  8
OBJ
 10
27.069879
 20
3.073351
 30
0.0
 11
27.592792
 21
3.073351
 31
0.0
  0
LINE
  8
OBJ
  6
CENTER2
 10
23.710336
 20
1.799378
 30
0.0
 11
29.222336
 21
1.799378
 31
0.0
  0
LINE
  8
OBJ
  6
CENTER2
 10
24.736336
 20
2.447268
 30
0.0
 11
24.736336
 21
0.435089
 31
0.0
  0
LINE
  8
OBJ
 10
26.586336
 20
2.824046
 30
0.0
 11
26.586336
 21
1.649178
 31
0.0
  0
LINE
  8
OBJ
 10
26.346336
 20
2.824046
 30
0.0
 11
26.346336
 21
1.649178
 31
0.0
  0
LINE
  8
OBJ
 10
25.186336
 20
2.947011
 30
0.0
 11
25.186336
 21
1.441178
 31
0.0
  0
LINE
  8
OBJ
 10
24.385336
 20
2.21792
 30
0.0
 11
24.385336
 21
1.441178
 31
0.0
  0
ARC
  8
OBJ
 10
25.451336
 20
1.449178
 30
0.0
 40
0.2
 50
90.0
 51
180.0
  0
LINE
  8
OBJ
 10
24.385336
 20
1.441178
 30
0.0
 11
25.251336
 21
1.441178
 31
0.0
  0
LINE
  8
OBJ
 10
25.251336
 20
1.449178
 30
0.0
 11
25.251336
 21
1.441178
 31
0.0
  0
LINE
  8
OBJ
 10
25.339879
 20
3.073351
 30
0.0
 11
25.862792
 21
3.073351
 31
0.0
  0
ARC
  8
OBJ
 10
24.736336
 20
3.650378
 30
0.0
 40
0.835
 50
180.0
 51
331.422704
  0
LINE
  8
OBJ
 10
24.736336
 20
2.815378
 30
0.0
 11
23.901336
 21
2.815378
 31
0.0
  0
LINE
  8
OBJ
 10
24.246336
 20
2.815378
 30
0.0
 11
24.246336
 21
2.21792
 31
0.0
  0
ARC
  8
OBJ
 10
26.466336
 20
94.822566
 30
0.0
 40
92.648988
 50
268.295389
 51
268.712964
  0
LINE
  8
OBJ
 10
24.246336
 20
2.21792
 30
0.0
 11
24.385336
 21
2.21792
 31
0.0
  0
LINE
  8
OBJ
 10
24.186409
 20
3.332878
 30
0.0
 11
24.736336
 21
3.015378
 31
0.0
  0
CIRCLE
  8
OBJ
 10
24.736336
 20
3.650378
 30
0.0
 40
0.495
  0
LINE
  8
OBJ
 10
24.186409
 20
3.967878
 30
0.0
 11
24.186409
 21
3.332878
 31
0.0
  0
ARC
  8
OBJ
 10
23.431336
 20
4.004378
 30
0.0
 40
0.5033
 50
292.79228
 51
339.041008
  0
LINE
  8
OBJ
 10
23.623016
 20
3.672378
 30
0.0
 11
23.814696
 21
4.004378
 31
0.0
  0
LINE
  8
OBJ
 10
25.286262
 20
3.332878
 30
0.0
 11
25.286262
 21
3.967878
 31
0.0
  0
LINE
  8
OBJ
 10
24.736336
 20
3.015378
 30
0.0
 11
25.286262
 21
3.332878
 31
0.0
  0
LINE
  8
OBJ
 10
26.346336
 20
2.069178
 30
0.0
 11
26.586336
 21
2.069178
 31
0.0
  0
LINE
  8
OBJ
 10
25.916409
 20
3.332878
 30
0.0
 11
26.466336
 21
3.015378
 31
0.0
  0
CIRCLE
  8
OBJ
 10
26.466336
 20
3.650378
 30
0.0
 40
0.495
  0
LINE
  8
OBJ
 10
25.916409
 20
3.967878
 30
0.0
 11
25.916409
 21
3.332878
 31
0.0
  0
ARC
  8
OBJ
 10
25.601336
 20
3.179209
 30
0.0
 40
0.2
 50
28.577296
 51
151.422704
  0
ARC
  8
OBJ
 10
25.601336
 20
3.179209
 30
0.0
 40
0.15
 50
28.577296
 51
151.422704
  0
LINE
  8
OBJ
 10
27.016262
 20
3.332878
 30
0.0
 11
27.016262
 21
3.967878
 31
0.0
  0
LINE
  8
OBJ
 10
26.466336
 20
3.015378
 30
0.0
 11
27.016262
 21
3.332878
 31
0.0
  0
LINE
  8
OBJ
  6
CENTER2
 10
28.196336
 20
2.447268
 30
0.0
 11
28.196336
 21
0.435089
 31
0.0
  0
LINE
  8
OBJ
 10
27.746336
 20
2.947011
 30
0.0
 11
27.746336
 21
1.441178
 31
0.0
  0
LINE
  8
OBJ
 10
28.547336
 20
2.21792
 30
0.0
 11
28.547336
 21
1.441178
 31
0.0
  0
LINE
  8
OBJ
 10
27.681336
 20
1.441178
 30
0.0
 11
28.547336
 21
1.441178
 31
0.0
  0
ARC
  8
OBJ
 10
27.481336
 20
1.449178
 30
0.0
 40
0.2
 50
0.0
 51
90.0
  0
LINE
  8
OBJ
 10
27.681336
 20
1.449178
 30
0.0
 11
27.681336
 21
1.441178
 31
0.0
  0
LINE
  8
OBJ
 10
28.196336
 20
2.815378
 30
0.0
 11
29.031336
 21
2.815378
 31
0.0
  0
ARC
  8
OBJ
 10
26.466336
 20
94.822566
 30
0.0
 40
92.648988
 50
271.287036
 51
271.704611
  0
ARC
  8
OBJ
 10
28.196336
 20
3.650378
 30
0.0
 40
0.835
 50
208.577296
 51
0.0
  0
LINE
  8
OBJ
 10
28.686336
 20
2.815378
 30
0.0
 11
28.686336
 21
2.21792
 31
0.0
  0
LINE
  8
OBJ
 10
28.547336
 20
2.21792
 30
0.0
 11
28.686336
 21
2.21792
 31
0.0
  0
LINE
  8
OBJ
 10
27.646409
 20
3.332878
 30
0.0
 11
28.196336
 21
3.015378
 31
0.0
  0
CIRCLE
  8
OBJ
 10
28.196336
 20
3.650378
 30
0.0
 40
0.495
  0
LINE
  8
OBJ
 10
27.646409
 20
3.967878
 30
0.0
 11
27.646409
 21
3.332878
 31
0.0
  0
ARC
  8
OBJ
 10
27.331336
 20
3.179209
 30
0.0
 40
0.2
 50
48.189685
 51
131.810315
  0
ARC
  8
OBJ
 10
27.331336
 20
3.179209
 30
0.0
 40
0.2
 50
131.810315
 51
151.422704
  0
ARC
  8
OBJ
 10
27.331336
 20
3.179209
 30
0.0
 40
0.2
 50
28.577296
 51
48.189685
  0
ARC
  8
OBJ
 10
27.331336
 20
3.179209
 30
0.0
 40
0.15
 50
28.577296
 51
151.422704
  0
LINE
  8
OBJ
 10
28.746262
 20
3.332878
 30
0.0
 11
28.746262
 21
3.967878
 31
0.0
  0
LINE
  8
OBJ
 10
28.196336
 20
3.015378
 30
0.0
 11
28.746262
 21
3.332878
 31
0.0
  0
LINE
  8
OBJ
 10
30.167336
 20
3.493412
 30
0.0
 11
30.167336
 21
2.765378
 31
0.0
  0
ARC
  8
OBJ
 10
-18.019244
 20
4.932654
 30
0.0
 40
47.673583
 50
357.17064
 51
358.352258
  0
LINE
  8
OBJ
 10
30.107336
 20
2.705378
 30
0.0
 11
29.688093
 21
2.705378
 31
0.0
  0
ARC
  8
OBJ
 10
29.222336
 20
2.588578
 30
0.0
 40
0.374
 50
270.0
 51
358.59537
  0
ARC
  8
OBJ
 10
-18.019244
 20
4.932654
 30
0.0
 40
47.673583
 50
357.17064
 51
357.219174
  0
ARC
  8
OBJ
 10
29.688093
 20
2.615378
 30
0.0
 40
0.09
 50
90.0
 51
177.219174
  0
ARC
  8
OBJ
 10
30.107336
 20
2.765378
 30
0.0
 40
0.06
 50
270.0
 51
0.0
  0
ARC
  8
OBJ
 10
30.107336
 20
2.765378
 30
0.0
 40
0.06
 50
270.0
 51
360.0
  0
LINE
  8
OBJ
 10
29.693016
 20
3.672378
 30
0.0
 11
29.884696
 21
4.004378
 31
0.0
  0
ARC
  8
OBJ
 10
29.501336
 20
3.965378
 30
0.0
 40
0.425
 50
270.0
 51
0.0
  0
ARC
  8
OBJ
 10
29.501336
 20
4.004378
 30
0.0
 40
0.5033
 50
200.958992
 51
247.20772
  0
LINE
  8
OBJ
 10
29.031336
 20
3.540378
 30
0.0
 11
29.501336
 21
3.540378
 31
0.0
  0
LINE
  8
OBJ
 10
29.309655
 20
3.672378
 30
0.0
 11
29.693016
 21
3.672378
 31
0.0
  0
LINE
  8
OBJ
 10
29.117975
 20
4.004378
 30
0.0
 11
29.309655
 21
3.672378
 31
0.0
  0
LINE
  8
OBJ
 10
29.501336
 20
3.914378
 30
0.0
 11
29.501336
 21
4.094378
 31
0.0
  0
LINE
  8
OBJ
 10
29.411336
 20
4.004378
 30
0.0
 11
29.591336
 21
4.004378
 31
0.0
  0
ARC
  8
OBJ
 10
30.393597
 20
3.557598
 30
0.0
 40
0.068939
 50
289.954678
 51
70.045322
  0
LINE
  8
OBJ
 10
30.462536
 20
3.522816
 30
0.0
 11
30.462536
 21
3.622398
 31
0.0
  0
LINE
  8
OBJ
 10
30.224936
 20
3.492798
 30
0.0
 11
30.224936
 21
4.016958
 31
0.0
  0
LINE
  8
OBJ
  6
CONTINUOUS
 10
30.224936
 20
3.492798
 30
0.0
 11
30.417124
 21
3.492798
 31
0.0
  0
LINE
  8
OBJ
  6
CENTER2
 10
30.167336
 20
3.513678
 30
0.0
 11
30.224936
 21
3.513678
 31
0.0
  0
LINE
  8
OBJ
 10
30.462536
 20
3.522816
 30
0.0
 11
30.43456
 21
3.502149
 31
0.0
  0
LINE
  8
OBJ
  6
CONTINUOUS
 10
30.224936
 20
3.887358
 30
0.0
 11
30.417124
 21
3.887358
 31
0.0
  0
LINE
  8
OBJ
  6
CONTINUOUS
 10
30.224936
 20
4.016958
 30
0.0
 11
30.417124
 21
4.016958
 31
0.0
  0
LINE
  8
OBJ
  6
CONTINUOUS
 10
30.224936
 20
3.622398
 30
0.0
 11
30.417124
 21
3.622398
 31
0.0
  0
LINE
  8
OBJ
  6
CENTER2
 10
30.167336
 20
3.996078
 30
0.0
 11
30.224936
 21
3.996078
 31
0.0
  0
LINE
  8
OBJ
 10
30.167336
 20
3.696574
 30
0.0
 11
30.224936
 21
3.638974
 31
0.0
  0
ARC
  8
OBJ
 10
30.393597
 20
3.952158
 30
0.0
 40
0.068939
 50
289.954678
 51
70.045322
  0
LINE
  8
OBJ
 10
30.462536
 20
3.887358
 30
0.0
 11
30.462536
 21
3.98694
 31
0.0
  0
ARC
  8
OBJ
 10
30.480336
 20
3.867378
 30
0.0
 40
0.06
 50
270.0
 51
0.0
  0
LINE
  8
OBJ
 10
30.480336
 20
3.807378
 30
0.0
 11
30.462536
 21
3.807378
 31
0.0
  0
LINE
  8
OBJ
 10
30.480336
 20
3.807378
 30
0.0
 11
30.462536
 21
3.807378
 31
0.0
  0
LINE
  8
OBJ
 10
30.462536
 20
3.98694
 30
0.0
 11
30.43456
 21
4.007607
 31
0.0
  0
ARC
  8
OBJ
 10
30.246587
 20
3.754878
 30
0.0
 40
0.215949
 50
322.158498
 51
37.841502
  0
LINE
  8
OBJ
 10
30.462536
 20
3.622398
 30
0.0
 11
30.462536
 21
3.887358
 31
0.0
  0
LINE
  8
OBJ
 10
30.679336
 20
5.539978
 30
0.0
 11
32.922336
 21
5.539978
 31
0.0
  0
LINE
  8
OBJ
 10
30.679336
 20
4.358778
 30
0.0
 11
32.922336
 21
4.358778
 31
0.0
  0
LINE
  8
OBJ
  6
CONTINUOUS
 10
27.018081
 20
7.749378
 30
0.0
 11
27.446334
 21
7.749378
 31
0.0
  0
ARC
  8
OBJ
 10
26.466336
 20
3.777907
 30
0.0
 40
4.120471
 50
79.786344
 51
100.213656
  0
LINE
  8
OBJ
  6
CONTINUOUS
 10
27.143336
 20
7.389378
 30
0.0
 11
27.519336
 21
7.389378
 31
0.0
  0
LINE
  8
OBJ
 10
26.929304
 20
5.155684
 30
0.0
 11
27.733367
 21
5.155684
 31
0.0
  0
ARC
  8
OBJ
 10
27.331336
 20
6.673695
 30
0.0
 40
1.0
 50
241.875461
 51
298.124539
  0
ARC
  8
OBJ
 10
27.293953
 20
7.388273
 30
0.0
 40
0.361106
 50
40.184879
 51
133.278223
  0
LINE
  8
OBJ
 10
23.981336
 20
7.232378
 30
0.0
 11
28.951336
 21
7.232378
 31
0.0
  0
LINE
  8
OBJ
 10
25.601336
 20
7.152378
 30
0.0
 11
25.601336
 21
6.100873
 31
0.0
  0
LINE
  8
OBJ
 10
25.199304
 20
5.155684
 30
0.0
 11
26.003367
 21
5.155684
 31
0.0
  0
ARC
  8
OBJ
 10
25.601336
 20
6.673695
 30
0.0
 40
1.0
 50
241.875461
 51
298.124539
  0
ARC
  8
OBJ
 10
24.736336
 20
5.055362
 30
0.0
 40
0.835
 50
61.875461
 51
180.0
  0
ARC
  8
OBJ
 10
24.646336
 20
4.950994
 30
0.0
 40
0.3
 50
100.694192
 51
180.0
  0
LINE
  8
OBJ
 10
24.346336
 20
4.950994
 30
0.0
 11
24.346336
 21
4.48771
 31
0.0
  0
ARC
  8
OBJ
 10
24.046336
 20
4.48771
 30
0.0
 40
0.3
 50
309.490086
 51
360.0
  0
ARC
  8
OBJ
 10
24.736336
 20
4.474417
 30
0.0
 40
0.785
 50
64.741753
 51
100.694192
  0
ARC
  8
OBJ
 10
25.199304
 20
5.455684
 30
0.0
 40
0.3
 50
244.741753
 51
270.0
  0
LINE
  8
OBJ
 10
23.814696
 20
5.894378
 30
0.0
 11
23.623016
 21
6.226378
 31
0.0
  0
LINE
  8
OBJ
 10
23.623016
 20
5.562378
 30
0.0
 11
23.814696
 21
5.894378
 31
0.0
  0
ARC
  8
OBJ
 10
23.431336
 20
5.894378
 30
0.0
 40
0.5033
 50
20.958992
 51
67.20772
  0
ARC
  8
OBJ
 10
26.466336
 20
4.474417
 30
0.0
 40
0.785
 50
64.741753
 51
115.258247
  0
ARC
  8
OBJ
 10
26.003367
 20
5.455684
 30
0.0
 40
0.3
 50
270.0
 51
295.258247
  0
ARC
  8
OBJ
 10
26.929304
 20
5.455684
 30
0.0
 40
0.3
 50
244.741753
 51
270.0
  0
ARC
  8
OBJ
 10
26.466336
 20
5.055362
 30
0.0
 40
0.835
 50
61.875461
 51
118.124539
  0
ARC
  8
OBJ
 10
25.351336
 20
6.100873
 30
0.0
 40
0.25
 50
296.465041
 51
0.0
  0
ARC
  8
OBJ
 10
25.851336
 20
6.100873
 30
0.0
 40
0.25
 50
180.0
 51
243.534959
  0
LINE
  8
OBJ
 10
25.413336
 20
7.407378
 30
0.0
 11
24.059336
 21
7.407378
 31
0.0
  0
ARC
  8
OBJ
 10
26.466336
 20
-84.92381
 30
0.0
 40
92.648988
 50
90.623761
 51
91.704611
  0
LINE
  8
OBJ
  6
CONTINUOUS
 10
24.434836
 20
7.697378
 30
0.0
 11
25.037836
 21
7.697378
 31
0.0
  0
ARC
  8
OBJ
 10
24.736336
 20
7.013076
 30
0.0
 40
0.684302
 50
63.858144
 51
116.141856
  0
LINE
  8
OBJ
 10
25.271854
 20
7.697378
 30
0.0
 11
24.200817
 21
7.697378
 31
0.0
  0
ARC
  8
OBJ
 10
23.981336
 20
7.152378
 30
0.0
 40
0.08
 50
90.0
 51
180.0
  0
LINE
  8
OBJ
  6
CENTER2
 10
24.434836
 20
7.407378
 30
0.0
 11
24.434836
 21
7.627378
 31
0.0
  0
LINE
  8
OBJ
  6
CENTER2
 10
24.133336
 20
7.407378
 30
0.0
 11
24.133336
 21
7.627378
 31
0.0
  0
LINE
  8
OBJ
  6
CONTINUOUS
 10
24.059336
 20
7.232378
 30
0.0
 11
24.059336
 21
7.407378
 31
0.0
  0
LINE
  8
OBJ
 10
24.133336
 20
7.627378
 30
0.0
 11
24.200817
 21
7.697378
 31
0.0
  0
ARC
  8
OBJ
 10
24.284086
 20
7.500053
 30
0.0
 40
0.197325
 50
40.184879
 51
139.815121
  0
LINE
  8
OBJ
  6
CONTINUOUS
 10
24.200817
 20
7.697378
 30
0.0
 11
24.434836
 21
7.697378
 31
0.0
  0
LINE
  8
OBJ
  6
CENTER2
 10
25.339336
 20
7.407378
 30
0.0
 11
25.339336
 21
7.627378
 31
0.0
  0
LINE
  8
OBJ
 10
25.339336
 20
7.627378
 30
0.0
 11
25.271854
 21
7.697378
 31
0.0
  0
LINE
  8
OBJ
  6
CENTER2
 10
25.037836
 20
7.407378
 30
0.0
 11
25.037836
 21
7.627378
 31
0.0
  0
ARC
  8
OBJ
 10
25.188586
 20
7.500053
 30
0.0
 40
0.197325
 50
40.184879
 51
139.815121
  0
LINE
  8
OBJ
  6
CONTINUOUS
 10
25.037836
 20
7.697378
 30
0.0
 11
25.271854
 21
7.697378
 31
0.0
  0
ARC
  8
OBJ
 10
25.638718
 20
7.388273
 30
0.0
 40
0.361106
 50
46.626627
 51
139.815121
  0
LINE
  8
OBJ
 10
25.362846
 20
7.621278
 30
0.0
 11
25.486337
 21
7.749378
 31
0.0
  0
ARC
  8
OBJ
 10
26.466336
 20
6.497106
 30
0.0
 40
1.252272
 50
73.430694
 51
106.569306
  0
ARC
  8
OBJ
 10
26.466336
 20
7.013076
 30
0.0
 40
0.684302
 50
63.858144
 51
116.141856
  0
LINE
  8
OBJ
 10
27.143336
 20
7.407378
 30
0.0
 11
25.789336
 21
7.407378
 31
0.0
  0
LINE
  8
OBJ
 10
27.001854
 20
7.697378
 30
0.0
 11
25.930817
 21
7.697378
 31
0.0
  0
LINE
  8
OBJ
  6
CONTINUOUS
 10
25.789336
 20
7.232378
 30
0.0
 11
25.789336
 21
7.407378
 31
0.0
  0
LINE
  8
OBJ
  6
CONTINUOUS
 10
25.413336
 20
7.232378
 30
0.0
 11
25.413336
 21
7.407378
 31
0.0
  0
LINE
  8
OBJ
 10
25.362846
 20
7.621278
 30
0.0
 11
25.362846
 21
7.407378
 31
0.0
  0
LINE
  8
OBJ
 10
25.561336
 20
7.232378
 30
0.0
 11
25.561336
 21
7.389378
 31
0.0
  0
LINE
  8
OBJ
  6
CONTINUOUS
 10
25.413336
 20
7.389378
 30
0.0
 11
25.789336
 21
7.389378
 31
0.0
  0
ARC
  8
OBJ
 10
25.521336
 20
7.152378
 30
0.0
 40
0.08
 50
360.0
 51
90.0
  0
ARC
  8
OBJ
 10
25.681336
 20
7.152378
 30
0.0
 40
0.08
 50
90.0
 51
180.0
  0
LINE
  8
OBJ
  6
CENTER2
 10
26.164836
 20
7.407378
 30
0.0
 11
26.164836
 21
7.627378
 31
0.0
  0
LINE
  8
OBJ
  6
CENTER2
 10
25.863336
 20
7.407378
 30
0.0
 11
25.863336
 21
7.627378
 31
0.0
  0
LINE
  8
OBJ
 10
25.863336
 20
7.627378
 30
0.0
 11
25.930817
 21
7.697378
 31
0.0
  0
ARC
  8
OBJ
 10
26.014086
 20
7.500053
 30
0.0
 40
0.197325
 50
40.184879
 51
139.815121
  0
LINE
  8
OBJ
  6
CONTINUOUS
 10
25.930817
 20
7.697378
 30
0.0
 11
26.164836
 21
7.697378
 31
0.0
  0
LINE
  8
OBJ
  6
CONTINUOUS
 10
27.143336
 20
7.232378
 30
0.0
 11
27.143336
 21
7.407378
 31
0.0
  0
LINE
  8
OBJ
  6
CENTER2
 10
26.767836
 20
7.407378
 30
0.0
 11
26.767836
 21
7.627378
 31
0.0
  0
LINE
  8
OBJ
  6
CENTER2
 10
27.069336
 20
7.407378
 30
0.0
 11
27.069336
 21
7.627378
 31
0.0
  0
LINE
  8
OBJ
 10
27.069336
 20
7.627378
 30
0.0
 11
27.001854
 21
7.697378
 31
0.0
  0
ARC
  8
OBJ
 10
26.918586
 20
7.500053
 30
0.0
 40
0.197325
 50
40.184879
 51
139.815121
  0
LINE
  8
OBJ
  6
CONTINUOUS
 10
26.767836
 20
7.697378
 30
0.0
 11
27.001854
 21
7.697378
 31
0.0
  0
LINE
  8
OBJ
  6
CONTINUOUS
 10
25.914591
 20
7.749378
 30
0.0
 11
27.018081
 21
7.749378
 31
0.0
  0
LINE
  8
OBJ
  6
CONTINUOUS
 10
25.486337
 20
7.749378
 30
0.0
 11
25.914591
 21
7.749378
 31
0.0
  0
ARC
  8
OBJ
 10
25.746336
 20
7.774033
 30
0.0
 40
0.06
 50
100.213656
 51
180.0
  0
LINE
  8
OBJ
 10
25.686336
 20
7.749378
 30
0.0
 11
25.686336
 21
7.774033
 31
0.0
  0
LINE
  8
OBJ
 10
30.167336
 20
6.405344
 30
0.0
 11
30.167336
 21
7.133378
 31
0.0
  0
ARC
  8
OBJ
 10
-18.019244
 20
4.932654
 30
0.0
 40
47.673583
 50
1.688349
 51
2.837044
  0
LINE
  8
OBJ
 10
27.331336
 20
7.152378
 30
0.0
 11
27.331336
 21
6.100873
 31
0.0
  0
ARC
  8
OBJ
 10
28.196336
 20
5.055362
 30
0.0
 40
0.835
 50
0.0
 51
118.124539
  0
ARC
  8
OBJ
 10
28.196336
 20
4.474417
 30
0.0
 40
0.785
 50
79.305808
 51
115.258247
  0
ARC
  8
OBJ
 10
27.733367
 20
5.455684
 30
0.0
 40
0.3
 50
270.0
 51
295.258247
  0
LINE
  8
OBJ
 10
28.586336
 20
4.950994
 30
0.0
 11
28.586336
 21
4.48771
 31
0.0
  0
ARC
  8
OBJ
 10
28.886336
 20
4.48771
 30
0.0
 40
0.3
 50
180.0
 51
230.509914
  0
ARC
  8
OBJ
 10
28.286336
 20
4.950994
 30
0.0
 40
0.3
 50
0.0
 51
79.305808
  0
ARC
  8
OBJ
 10
27.081336
 20
6.100873
 30
0.0
 40
0.25
 50
296.465041
 51
0.0
  0
ARC
  8
OBJ
 10
27.581336
 20
6.100873
 30
0.0
 40
0.25
 50
180.0
 51
243.534959
  0
LINE
  8
OBJ
 10
30.167336
 20
5.284378
 30
0.0
 11
30.167336
 21
6.405344
 31
0.0
  0
LINE
  8
OBJ
 10
30.265336
 20
5.254378
 30
0.0
 11
30.265336
 21
5.881798
 31
0.0
  0
LINE
  8
OBJ
 10
30.679336
 20
4.358778
 30
0.0
 11
30.679336
 21
5.539978
 31
0.0
  0
LINE
  8
OBJ
 10
30.679336
 20
4.358778
 30
0.0
 11
30.679336
 21
5.539978
 31
0.0
  0
LINE
  8
OBJ
 10
30.639336
 20
4.318778
 30
0.0
 11
30.639336
 21
5.579978
 31
0.0
  0
ARC
  8
OBJ
 10
29.501336
 20
4.004378
 30
0.0
 40
0.5033
 50
32.389428
 51
159.041008
  0
LINE
  8
OBJ
 10
29.693016
 20
4.336378
 30
0.0
 11
29.309655
 21
4.336378
 31
0.0
  0
LINE
  8
OBJ
 10
30.305336
 20
5.224378
 30
0.0
 11
30.305336
 21
4.674378
 31
0.0
  0
ARC
  8
OBJ
 62
     7
 10
30.275336
 20
4.674378
 30
0.0
 40
0.03
 50
270.0
 51
0.0
  0
ARC
  8
OBJ
 62
     7
 10
30.197336
 20
4.614378
 30
0.0
 40
0.03
 50
90.0
 51
180.0
  0
LINE
  8
OBJ
  6
CONTINUOUS
 62
     7
 10
30.197336
 20
4.644378
 30
0.0
 11
30.275336
 21
4.644378
 31
0.0
  0
LINE
  8
OBJ
 10
30.639336
 20
4.318778
 30
0.0
 11
30.540336
 21
4.318778
 31
0.0
  0
LINE
  8
OBJ
 10
30.679336
 20
4.358778
 30
0.0
 11
30.639336
 21
4.318778
 31
0.0
  0
ARC
  8
OBJ
 62
     7
 10
30.275336
 20
5.224378
 30
0.0
 40
0.03
 50
0.0
 51
90.0
  0
LINE
  8
OBJ
  6
CONTINUOUS
 62
     7
 10
30.197336
 20
5.254378
 30
0.0
 11
30.275336
 21
5.254378
 31
0.0
  0
ARC
  8
OBJ
 62
     7
 10
30.197336
 20
5.284378
 30
0.0
 40
0.03
 50
180.0
 51
270.0
  0
LINE
  8
OBJ
 62
     7
 10
30.075336
 20
4.784378
 30
0.0
 11
30.075336
 21
5.114378
 31
0.0
  0
LINE
  8
OBJ
  6
CONTINUOUS
 62
     7
 10
29.931336
 20
5.114378
 30
0.0
 11
30.075336
 21
5.114378
 31
0.0
  0
LINE
  8
OBJ
  6
CONTINUOUS
 62
     7
 10
29.931336
 20
4.784378
 30
0.0
 11
30.075336
 21
4.784378
 31
0.0
  0
LINE
  8
OBJ
 10
29.884696
 20
5.894378
 30
0.0
 11
29.693016
 21
6.226378
 31
0.0
  0
LINE
  8
OBJ
 10
29.693016
 20
5.562378
 30
0.0
 11
29.884696
 21
5.894378
 31
0.0
  0
ARC
  8
OBJ
 10
29.501336
 20
5.933378
 30
0.0
 40
0.425
 50
0.0
 51
90.0
  0
ARC
  8
OBJ
 10
29.501336
 20
5.894378
 30
0.0
 40
0.503251
 50
200.944287
 51
327.61945
  0
LINE
  8
OBJ
 10
29.309655
 20
6.226378
 30
0.0
 11
29.117975
 21
5.894378
 31
0.0
  0
LINE
  8
OBJ
 10
29.501336
 20
5.804378
 30
0.0
 11
29.501336
 21
5.984378
 31
0.0
  0
CIRCLE
  8
OBJ
 10
29.501336
 20
5.894378
 30
0.0
 40
0.168985
  0
CIRCLE
  8
OBJ
 10
29.501336
 20
5.894378
 30
0.0
 40
0.215
  0
CIRCLE
  8
OBJ
 10
29.501336
 20
5.894378
 30
0.0
 40
0.31
  0
LINE
  8
OBJ
 10
29.309655
 20
5.562378
 30
0.0
 11
29.693016
 21
5.562378
 31
0.0
  0
LINE
  8
OBJ
 10
29.117975
 20
5.894378
 30
0.0
 11
29.309655
 21
5.562378
 31
0.0
  0
LINE
  8
OBJ
 10
29.411336
 20
5.894378
 30
0.0
 11
29.591336
 21
5.894378
 31
0.0
  0
LINE
  8
OBJ
 10
29.693016
 20
6.226378
 30
0.0
 11
29.309655
 21
6.226378
 31
0.0
  0
LINE
  8
OBJ
 10
29.031336
 20
6.358378
 30
0.0
 11
29.501336
 21
6.358378
 31
0.0
  0
ARC
  8
OBJ
 10
29.501336
 20
5.894378
 30
0.0
 40
0.503251
 50
112.778875
 51
159.055713
  0
ARC
  8
OBJ
 10
30.393597
 20
5.946598
 30
0.0
 40
0.068939
 50
289.954678
 51
70.045322
  0
LINE
  8
OBJ
 10
30.462536
 20
5.911816
 30
0.0
 11
30.462536
 21
6.011398
 31
0.0
  0
LINE
  8
OBJ
 10
30.224936
 20
5.881798
 30
0.0
 11
30.224936
 21
6.405958
 31
0.0
  0
LINE
  8
OBJ
  6
CONTINUOUS
 10
30.224936
 20
5.881798
 30
0.0
 11
30.417124
 21
5.881798
 31
0.0
  0
LINE
  8
OBJ
  6
CENTER2
 10
30.167336
 20
5.902678
 30
0.0
 11
30.224936
 21
5.902678
 31
0.0
  0
LINE
  8
OBJ
 10
30.462536
 20
5.911816
 30
0.0
 11
30.43456
 21
5.891149
 31
0.0
  0
LINE
  8
OBJ
 10
30.639336
 20
5.579978
 30
0.0
 11
30.540336
 21
5.579978
 31
0.0
  0
LINE
  8
OBJ
 10
30.679336
 20
5.539978
 30
0.0
 11
30.639336
 21
5.579978
 31
0.0
  0
LINE
  8
OBJ
  6
CONTINUOUS
 10
30.224936
 20
6.276358
 30
0.0
 11
30.417124
 21
6.276358
 31
0.0
  0
LINE
  8
OBJ
  6
CONTINUOUS
 10
30.224936
 20
6.405958
 30
0.0
 11
30.417124
 21
6.405958
 31
0.0
  0
LINE
  8
OBJ
  6
CONTINUOUS
 10
30.224936
 20
6.011398
 30
0.0
 11
30.417124
 21
6.011398
 31
0.0
  0
LINE
  8
OBJ
  6
CENTER2
 10
30.167336
 20
6.385078
 30
0.0
 11
30.224936
 21
6.385078
 31
0.0
  0
LINE
  8
OBJ
 10
30.167336
 20
6.085574
 30
0.0
 11
30.224936
 21
6.027974
 31
0.0
  0
ARC
  8
OBJ
 10
30.393597
 20
6.341158
 30
0.0
 40
0.068939
 50
289.954678
 51
70.045322
  0
LINE
  8
OBJ
 10
30.462536
 20
6.37594
 30
0.0
 11
30.43456
 21
6.396607
 31
0.0
  0
LINE
  8
OBJ
 10
30.462536
 20
6.276358
 30
0.0
 11
30.462536
 21
6.37594
 31
0.0
  0
ARC
  8
OBJ
 10
30.480336
 20
6.031378
 30
0.0
 40
0.06
 50
0.0
 51
90.0
  0
LINE
  8
OBJ
 10
30.480336
 20
6.091378
 30
0.0
 11
30.462536
 21
6.091378
 31
0.0
  0
LINE
  8
OBJ
 10
30.480336
 20
6.091378
 30
0.0
 11
30.462536
 21
6.091378
 31
0.0
  0
ARC
  8
OBJ
 10
30.246587
 20
6.143878
 30
0.0
 40
0.215949
 50
322.158498
 51
37.841502
  0
LINE
  8
OBJ
 10
30.462536
 20
6.011398
 30
0.0
 11
30.462536
 21
6.276358
 31
0.0
  0
ARC
  8
OBJ
 10
26.466336
 20
-84.92381
 30
0.0
 40
92.648988
 50
88.295389
 51
89.376239
  0
LINE
  8
OBJ
 10
27.569826
 20
7.621278
 30
0.0
 11
27.446334
 21
7.749378
 31
0.0
  0
LINE
  8
OBJ
 10
28.731854
 20
7.697378
 30
0.0
 11
27.660817
 21
7.697378
 31
0.0
  0
LINE
  8
OBJ
  6
CONTINUOUS
 10
27.894836
 20
7.697378
 30
0.0
 11
28.497836
 21
7.697378
 31
0.0
  0
ARC
  8
OBJ
 10
28.196336
 20
7.013076
 30
0.0
 40
0.684302
 50
63.858144
 51
116.141856
  0
LINE
  8
OBJ
 10
28.873336
 20
7.407378
 30
0.0
 11
27.519336
 21
7.407378
 31
0.0
  0
ARC
  8
OBJ
 10
27.744086
 20
7.500053
 30
0.0
 40
0.197325
 50
40.184879
 51
139.815121
  0
LINE
  8
OBJ
 10
27.593336
 20
7.627378
 30
0.0
 11
27.660817
 21
7.697378
 31
0.0
  0
LINE
  8
OBJ
  6
CENTER2
 10
27.593336
 20
7.407378
 30
0.0
 11
27.593336
 21
7.627378
 31
0.0
  0
LINE
  8
OBJ
 10
27.569826
 20
7.621278
 30
0.0
 11
27.569826
 21
7.407378
 31
0.0
  0
LINE
  8
OBJ
  6
CONTINUOUS
 10
27.519336
 20
7.232378
 30
0.0
 11
27.519336
 21
7.407378
 31
0.0
  0
LINE
  8
OBJ
 10
27.371336
 20
7.232378
 30
0.0
 11
27.371336
 21
7.389378
 31
0.0
  0
ARC
  8
OBJ
 10
27.411336
 20
7.152378
 30
0.0
 40
0.08
 50
90.0
 51
180.0
  0
ARC
  8
OBJ
 10
27.251336
 20
7.152378
 30
0.0
 40
0.08
 50
360.0
 51
90.0
  0
LINE
  8
OBJ
  6
CENTER2
 10
27.894836
 20
7.407378
 30
0.0
 11
27.894836
 21
7.627378
 31
0.0
  0
LINE
  8
OBJ
  6
CONTINUOUS
 10
27.660817
 20
7.697378
 30
0.0
 11
27.894836
 21
7.697378
 31
0.0
  0
LINE
  8
OBJ
  6
CENTER2
 10
28.799336
 20
7.407378
 30
0.0
 11
28.799336
 21
7.627378
 31
0.0
  0
LINE
  8
OBJ
  6
CONTINUOUS
 10
28.873336
 20
7.232378
 30
0.0
 11
28.873336
 21
7.407378
 31
0.0
  0
LINE
  8
OBJ
 10
28.799336
 20
7.627378
 30
0.0
 11
28.731854
 21
7.697378
 31
0.0
  0
LINE
  8
OBJ
  6
CENTER2
 10
28.497836
 20
7.407378
 30
0.0
 11
28.497836
 21
7.627378
 31
0.0
  0
ARC
  8
OBJ
 10
28.648586
 20
7.500053
 30
0.0
 40
0.197325
 50
40.184879
 51
139.815121
  0
LINE
  8
OBJ
  6
CONTINUOUS
 10
28.497836
 20
7.697378
 30
0.0
 11
28.731854
 21
7.697378
 31
0.0
  0
ARC
  8
OBJ
 10
27.186336
 20
7.774033
 30
0.0
 40
0.06
 50
0.0
 51
79.786344
  0
LINE
  8
OBJ
 10
27.246336
 20
7.749378
 30
0.0
 11
27.246336
 21
7.774033
 31
0.0
  0
ARC
  8
OBJ
 10
29.222336
 20
7.310178
 30
0.0
 40
0.374
 50
8.50483
 51
90.0
  0
LINE
  8
OBJ
 10
30.107336
 20
7.193378
 30
0.0
 11
29.686457
 21
7.193378
 31
0.0
  0
ARC
  8
OBJ
 10
28.951336
 20
7.152378
 30
0.0
 40
0.08
 50
0.0
 51
90.0
  0
ARC
  8
OBJ
 10
-18.019244
 20
4.932654
 30
0.0
 40
47.673583
 50
2.820999
 51
2.925139
  0
ARC
  8
OBJ
 10
29.686457
 20
7.283378
 30
0.0
 40
0.09
 50
182.820999
 51
270.0
  0
ARC
  8
OBJ
 10
30.107336
 20
7.133378
 30
0.0
 40
0.06
 50
360.0
 51
90.0
  0
LINE
  8
OBJ
 10
32.962336
 20
4.398778
 30
0.0
 11
32.962336
 21
5.499978
 31
0.0
  0
LINE
  8
OBJ
 10
32.922336
 20
5.539978
 30
0.0
 11
32.922336
 21
4.358778
 31
0.0
  0
LINE
  8
OBJ
 10
32.922336
 20
4.358778
 30
0.0
 11
32.962336
 21
4.398778
 31
0.0
  0
LINE
  8
OBJ
 10
32.922336
 20
5.539978
 30
0.0
 11
32.962336
 21
5.499978
 31
0.0
  0
TEXT
  8
0
 10
8.954029
 20
10.279435
 30
0.0
 40
1.5
  1
MODEL 1051
  7
ROMAND
  0
ENDSEC
  0
EOF
