  0
SECTION
  2
HEADER
  9
$ACADVER
  1
AC1015
  9
$ACADMAINTVER
 70
     6
  9
$DWGCODEPAGE
  3
ANSI_1252
  9
$INSBASE
 10
0.0
 20
0.0
 30
0.0
  9
$EXTMIN
 10
12.5514173544129
 20
0.9920562769743701
 30
0.0
  9
$EXTMAX
 10
17.0514173544129
 20
13.76106698658186
 30
0.0
  9
$LIMMIN
 10
0.0
 20
0.0
  9
$LIMMAX
 10
12.0
 20
9.0
  9
$ORTHOMODE
 70
     1
  9
$REGENMODE
 70
     1
  9
$FILLMODE
 70
     1
  9
$QTEXTMODE
 70
     0
  9
$MIRRTEXT
 70
     1
  9
$LTSCALE
 40
1.0
  9
$ATTMODE
 70
     1
  9
$TEXTSIZE
 40
0.5
  9
$TRACEWID
 40
0.05
  9
$TEXTSTYLE
  7
ROMAND
  9
$CLAYER
  8
0
  9
$CELTYPE
  6
ByLayer
  9
$CECOLOR
 62
   256
  9
$CELTSCALE
 40
1.0
  9
$DISPSILH
 70
     0
  9
$DIMSCALE
 40
1.0
  9
$DIMASZ
 40
0.5
  9
$DIMEXO
 40
0.25
  9
$DIMDLI
 40
1.0
  9
$DIMRND
 40
0.0
  9
$DIMDLE
 40
0.0
  9
$DIMEXE
 40
0.5
  9
$DIMTP
 40
0.0
  9
$DIMTM
 40
0.0
  9
$DIMTXT
 40
0.5
  9
$DIMCEN
 40
-0.25
  9
$DIMTSZ
 40
0.0
  9
$DIMTOL
 70
     0
  9
$DIMLIM
 70
     0
  9
$DIMTIH
 70
     1
  9
$DIMTOH
 70
     1
  9
$DIMSE1
 70
     0
  9
$DIMSE2
 70
     0
  9
$DIMTAD
 70
     0
  9
$DIMZIN
 70
     0
  9
$DIMBLK
  1

  9
$DIMASO
 70
     1
  9
$DIMSHO
 70
     1
  9
$DIMPOST
  1

  9
$DIMAPOST
  1

  9
$DIMALT
 70
     0
  9
$DIMALTD
 70
     2
  9
$DIMALTF
 40
25.4
  9
$DIMLFAC
 40
1.0
  9
$DIMTOFL
 70
     0
  9
$DIMTVP
 40
0.0
  9
$DIMTIX
 70
     0
  9
$DIMSOXD
 70
     0
  9
$DIMSAH
 70
     0
  9
$DIMBLK1
  1

  9
$DIMBLK2
  1

  9
$DIMSTYLE
  2
Standard
  9
$DIMCLRD
 70
     0
  9
$DIMCLRE
 70
     0
  9
$DIMCLRT
 70
     0
  9
$DIMTFAC
 40
1.0
  9
$DIMGAP
 40
0.25
  9
$DIMJUST
 70
     0
  9
$DIMSD1
 70
     0
  9
$DIMSD2
 70
     0
  9
$DIMTOLJ
 70
     1
  9
$DIMTZIN
 70
     0
  9
$DIMALTZ
 70
     0
  9
$DIMALTTZ
 70
     0
  9
$DIMUPT
 70
     0
  9
$DIMDEC
 70
     4
  9
$DIMTDEC
 70
     4
  9
$DIMALTU
 70
     2
  9
$DIMALTTD
 70
     2
  9
$DIMTXSTY
  7
STANDARD
  9
$DIMAUNIT
 70
     0
  9
$DIMADEC
 70
     0
  9
$DIMALTRND
 40
0.0
  9
$DIMAZIN
 70
     0
  9
$DIMDSEP
 70
    46
  9
$DIMATFIT
 70
     3
  9
$DIMFRAC
 70
     0
  9
$DIMLDRBLK
  1

  9
$DIMLUNIT
 70
     2
  9
$DIMLWD
 70
    -2
  9
$DIMLWE
 70
    -2
  9
$DIMTMOVE
 70
     2
  9
$LUNITS
 70
     2
  9
$LUPREC
 70
     4
  9
$SKETCHINC
 40
0.1
  9
$FILLETRAD
 40
0.03
  9
$AUNITS
 70
     0
  9
$AUPREC
 70
     0
  9
$MENU
  1
acad
  9
$ELEVATION
 40
0.0
  9
$PELEVATION
 40
0.0
  9
$THICKNESS
 40
0.0
  9
$LIMCHECK
 70
     0
  9
$CHAMFERA
 40
0.06
  9
$CHAMFERB
 40
0.06
  9
$CHAMFERC
 40
0.0
  9
$CHAMFERD
 40
0.0
  9
$SKPOLY
 70
     0
  9
$TDCREATE
 40
2449472.608604977
  9
$TDUCREATE
 40
2449472.816938310
  9
$TDUPDATE
 40
2454364.392546042
  9
$TDUUPDATE
 40
2454364.600879375
  9
$TDINDWG
 40
0.0725669097
  9
$TDUSRTIMER
 40
0.0725669097
  9
$USRTIMER
 70
     1
  9
$ANGBASE
 50
0.0
  9
$ANGDIR
 70
     0
  9
$PDMODE
 70
     0
  9
$PDSIZE
 40
0.0
  9
$PLINEWID
 40
0.0
  9
$SPLFRAME
 70
     0
  9
$SPLINETYPE
 70
     6
  9
$SPLINESEGS
 70
     8
  9
$HANDSEED
  5
7EC
  9
$SURFTAB1
 70
     6
  9
$SURFTAB2
 70
     6
  9
$SURFTYPE
 70
     6
  9
$SURFU
 70
     6
  9
$SURFV
 70
     6
  9
$UCSBASE
  2

  9
$UCSNAME
  2

  9
$UCSORG
 10
0.0
 20
0.0
 30
0.0
  9
$UCSXDIR
 10
1.0
 20
0.0
 30
0.0
  9
$UCSYDIR
 10
0.0
 20
1.0
 30
0.0
  9
$UCSORTHOREF
  2

  9
$UCSORTHOVIEW
 70
     0
  9
$UCSORGTOP
 10
0.0
 20
0.0
 30
0.0
  9
$UCSORGBOTTOM
 10
0.0
 20
0.0
 30
0.0
  9
$UCSORGLEFT
 10
0.0
 20
0.0
 30
0.0
  9
$UCSORGRIGHT
 10
0.0
 20
0.0
 30
0.0
  9
$UCSORGFRONT
 10
0.0
 20
0.0
 30
0.0
  9
$UCSORGBACK
 10
0.0
 20
0.0
 30
0.0
  9
$PUCSBASE
  2

  9
$PUCSNAME
  2

  9
$PUCSORG
 10
0.0
 20
0.0
 30
0.0
  9
$PUCSXDIR
 10
1.0
 20
0.0
 30
0.0
  9
$PUCSYDIR
 10
0.0
 20
1.0
 30
0.0
  9
$PUCSORTHOREF
  2

  9
$PUCSORTHOVIEW
 70
     0
  9
$PUCSORGTOP
 10
0.0
 20
0.0
 30
0.0
  9
$PUCSORGBOTTOM
 10
0.0
 20
0.0
 30
0.0
  9
$PUCSORGLEFT
 10
0.0
 20
0.0
 30
0.0
  9
$PUCSORGRIGHT
 10
0.0
 20
0.0
 30
0.0
  9
$PUCSORGFRONT
 10
0.0
 20
0.0
 30
0.0
  9
$PUCSORGBACK
 10
0.0
 20
0.0
 30
0.0
  9
$USERI1
 70
     0
  9
$USERI2
 70
     0
  9
$USERI3
 70
     0
  9
$USERI4
 70
     0
  9
$USERI5
 70
     0
  9
$USERR1
 40
0.0
  9
$USERR2
 40
0.0
  9
$USERR3
 40
0.0
  9
$USERR4
 40
0.0
  9
$USERR5
 40
0.0
  9
$WORLDVIEW
 70
     1
  9
$SHADEDGE
 70
     3
  9
$SHADEDIF
 70
    70
  9
$TILEMODE
 70
     1
  9
$MAXACTVP
 70
    16
  9
$PINSBASE
 10
0.0
 20
0.0
 30
0.0
  9
$PLIMCHECK
 70
     0
  9
$PEXTMIN
 10
1.000000000000000E+20
 20
1.000000000000000E+20
 30
1.000000000000000E+20
  9
$PEXTMAX
 10
-1.000000000000000E+20
 20
-1.000000000000000E+20
 30
-1.000000000000000E+20
  9
$PLIMMIN
 10
0.0
 20
0.0
  9
$PLIMMAX
 10
12.0
 20
9.0
  9
$UNITMODE
 70
     0
  9
$VISRETAIN
 70
     0
  9
$PLINEGEN
 70
     0
  9
$PSLTSCALE
 70
     1
  9
$TREEDEPTH
 70
  3020
  9
$CMLSTYLE
  2
Standard
  9
$CMLJUST
 70
     0
  9
$CMLSCALE
 40
1.0
  9
$PROXYGRAPHICS
 70
     1
  9
$MEASUREMENT
 70
     0
  9
$CELWEIGHT
370
    -1
  9
$ENDCAPS
280
     0
  9
$JOINSTYLE
280
     0
  9
$LWDISPLAY
290
     0
  9
$INSUNITS
 70
     0
  9
$HYPERLINKBASE
  1

  9
$STYLESHEET
  1

  9
$XEDIT
290
     1
  9
$CEPSNTYPE
380
     0
  9
$PSTYLEMODE
290
     1
  9
$FINGERPRINTGUID
  2
{D915B08A-195E-462E-9D75-689C0F8A4461}
  9
$VERSIONGUID
  2
{E4212227-1CA2-4015-B0FF-E1DF9B2C0B8D}
  9
$EXTNAMES
290
     1
  9
$PSVPSCALE
 40
0.0
  9
$OLESTARTUP
290
     0
  0
ENDSEC
  0
SECTION
  2
CLASSES
  0
CLASS
  1
ACDBDICTIONARYWDFLT
  2
AcDbDictionaryWithDefault
  3
AutoCAD 2000
 90
        0
280
     0
281
     0
  0
CLASS
  1
ACDBPLACEHOLDER
  2
AcDbPlaceHolder
  3
AutoCAD 2000
 90
        0
280
     0
281
     0
  0
CLASS
  1
LAYOUT
  2
AcDbLayout
  3
AutoCAD 2000
 90
        0
280
     0
281
     0
  0
CLASS
  1
ACME_DOCUMENT
  2
AcMeDbDoc
  3
AcMeServices
 90
    32768
280
     0
281
     0
  0
CLASS
  1
ACMESCOPE
  2
AcMeScope
  3
AcMeServices
 90
        0
280
     0
281
     0
  0
CLASS
  1
ACMECOMMANDHISTORY
  2
AcMeCommandHistory
  3
AcMeServices
 90
        0
280
     0
281
     0
  0
CLASS
  1
DICTIONARYVAR
  2
AcDbDictionaryVar
  3
AutoCAD 2000
 90
        0
280
     0
281
     0
  0
CLASS
  1
ACIMSYSVARMAN
  2
AcImSysVarManager
  3
AcMeServices
 90
        0
280
     0
281
     0
  0
CLASS
  1
ACIMREALSYSVAR
  2
AcImRealSysVar
  3
AcMeServices
 90
        0
280
     0
281
     0
  0
CLASS
  1
ACIMINTSYSVAR
  2
AcImIntSysVar
  3
AcMeServices
 90
        0
280
     0
281
     0
  0
CLASS
  1
ACMEDRAWINGMAN
  2
AcMeDrawingMan
  3
AcMeServices
 90
        0
280
     0
281
     0
  0
CLASS
  1
ACMEVIEW
  2
AcMeView
  3
AcMeServices
 90
        0
280
     0
281
     0
  0
CLASS
  1
ACDBENTITYCACHE
  2
AcMeEntityCache
  3
AcMeServices
 90
    32768
280
     0
281
     0
  0
CLASS
  1
GSMANAGER
  2
AcMeGSManager
  3
AcMeServices
 90
    32768
280
     0
281
     0
  0
CLASS
  1
AmdtInternalReactor
  2
AmdtInternalReactor
  3
AcMeServices
 90
    32768
280
     0
281
     0
  0
CLASS
  1
ACMESTATEMGR
  2
AcMeStateMgr
  3
AcMeServices
 90
        0
280
     0
281
     0
  0
CLASS
  1
ACME_DATABASE
  2
AcMeDbDatabase
  3
AcMeServices
 90
    32768
280
     0
281
     0
  0
CLASS
  1
ACRFINSADJUSTERMGR
  2
AcRfInsAdjusterMgr
  3
AcMeServices
 90
    32768
280
     0
281
     0
  0
CLASS
  1
AMGSETTINGSOBJ
  2
AmgSettingsObj
  3
"AcadM|Product Description: AutoCAD Mechanical 2000|Company: Autodesk"
 90
        0
280
     0
281
     0
  0
CLASS
  1
ACMDATADICTIONARY
  2
AcmDataDictionary
  3
"AcmSymBB|Product Description: AutoCAD Mechanical 2000|Company: Autodesk"
 90
        0
280
     0
281
     0
  0
CLASS
  1
ACMDATAENTRYBLOCK
  2
AcmDataEntryBlock
  3
"AcmSymBB|Product Description: AutoCAD Mechanical 2000|Company: Autodesk"
 90
        0
280
     0
281
     0
  0
CLASS
  1
AMGOBJPROPCFG
  2
AmgObjPropCfg
  3
"AmgLay|Product Description: AutoCAD Mechanical 2000|Company: Autodesk"
 90
        1
280
     0
281
     0
  0
CLASS
  1
ACAMGFILTERDAT
  2
AcAmgFilterDat
  3
"AcadM|Product Description: AutoCAD Mechanical 2000|Company: Autodesk"
 90
        0
280
     0
281
     0
  0
CLASS
  1
LAYER_INDEX
  2
AcDbLayerIndex
  3
AutoCAD 2000
 90
        0
280
     0
281
     0
  0
CLASS
  1
IDBUFFER
  2
AcDbIdBuffer
  3
AutoCAD 2000
 90
        0
280
     0
281
     0
  0
ENDSEC
  0
SECTION
  2
TABLES
  0
TABLE
  2
VPORT
  5
8
330
0
100
AcDbSymbolTable
 70
     2
  0
VPORT
  5
7EB
330
8
100
AcDbSymbolTableRecord
100
AcDbViewportTableRecord
  2
*Active
 70
     0
 10
0.0
 20
0.0
 11
1.0
 21
1.0
 12
18.02514346311748
 22
10.25468898943382
 13
0.0
 23
0.0
 14
0.25
 24
0.25
 15
0.0
 25
0.0
 16
0.0
 26
0.0
 36
1.0
 17
0.0
 27
0.0
 37
0.0
 40
20.50937797886765
 41
1.757746478873239
 42
50.0
 43
0.0
 44
0.0
 50
0.0
 51
0.0
 71
     0
 72
   100
 73
     1
 74
     0
 75
     0
 76
     0
 77
     0
 78
     0
281
     0
 65
     1
110
0.0
120
0.0
130
0.0
111
1.0
121
0.0
131
0.0
112
0.0
122
1.0
132
0.0
 79
     0
146
0.0
  0
ENDTAB
  0
TABLE
  2
LTYPE
  5
5
330
0
100
AcDbSymbolTable
 70
     8
  0
LTYPE
  5
13
330
5
100
AcDbSymbolTableRecord
100
AcDbLinetypeTableRecord
  2
ByBlock
 70
     0
  3

 72
    65
 73
     0
 40
0.0
  0
LTYPE
  5
14
330
5
100
AcDbSymbolTableRecord
100
AcDbLinetypeTableRecord
  2
ByLayer
 70
     0
  3

 72
    65
 73
     0
 40
0.0
  0
LTYPE
  5
15
330
5
100
AcDbSymbolTableRecord
100
AcDbLinetypeTableRecord
  2
CONTINUOUS
 70
     0
  3
Solid line
 72
    65
 73
     0
 40
0.0
  0
LTYPE
  5
3D
330
5
100
AcDbSymbolTableRecord
100
AcDbLinetypeTableRecord
  2
CENTER
 70
     0
  3
CENTER_._._._
 72
    65
 73
     4
 40
0.6000000000000001
 49
0.4
 74
     0
 49
-0.1
 74
     0
 49
0.0
 74
     0
 49
-0.1
 74
     0
  0
LTYPE
  5
3E
330
5
100
AcDbSymbolTableRecord
100
AcDbLinetypeTableRecord
  2
CENTER2
 70
     0
  3
CENTER2 _._._._._
 72
    65
 73
     4
 40
0.15
 49
0.1
 74
     0
 49
-0.025
 74
     0
 49
0.0
 74
     0
 49
-0.025
 74
     0
  0
LTYPE
  5
4C
330
5
100
AcDbSymbolTableRecord
100
AcDbLinetypeTableRecord
  2
HIDDEN
 70
     0
  3
__ __ __ __ __ __ __ __ __ __ __ __ __ __ __ __
 72
    65
 73
     2
 40
0.375
 49
0.25
 74
     0
 49
-0.125
 74
     0
  0
LTYPE
  5
4D
330
5
100
AcDbSymbolTableRecord
100
AcDbLinetypeTableRecord
  2
HIDDEN2
 70
     0
  3
_ _ _ _ _ _ _ _ _ _ _ _ _ _ _ _ _ _ _ _ _ _ _ _
 72
    65
 73
     2
 40
0.1875
 49
0.125
 74
     0
 49
-0.0625
 74
     0
  0
LTYPE
  5
50
330
5
100
AcDbSymbolTableRecord
100
AcDbLinetypeTableRecord
  2
PHANTOM2
 70
     0
  3
___ _ _ ___ _ _ ___ _ _ ___ _ _ ___ _ _ ___ _ _
 72
    65
 73
     6
 40
1.25
 49
0.625
 74
     0
 49
-0.125
 74
     0
 49
0.125
 74
     0
 49
-0.125
 74
     0
 49
0.125
 74
     0
 49
-0.125
 74
     0
  0
LTYPE
  5
75C
330
5
100
AcDbSymbolTableRecord
100
AcDbLinetypeTableRecord
  2
Amconstr
 70
     0
  3
_______________________
 72
    65
 73
     2
 40
9999.0
 49
9999.0
 74
     0
 49
0.0
 74
     0
  0
LTYPE
  5
762
330
5
100
AcDbSymbolTableRecord
100
AcDbLinetypeTableRecord
  2
Amzigzag2
 70
     0
  3
/\/-/\/-/\/-/\/-/\/-/\/
 72
    65
 73
     2
 40
0.4401
 49
0.0001
 74
     4
 75
   135
340
760
 46
0.0016
 50
0.0
 44
0.0
 45
0.0
 49
-0.4400000000000001
 74
     0
  0
ENDTAB
  0
TABLE
  2
LAYER
  5
2
330
0
100
AcDbSymbolTable
 70
     8
  0
LAYER
  5
10
330
2
100
AcDbSymbolTableRecord
100
AcDbLayerTableRecord
  2
0
 70
     0
 62
     7
  6
CONTINUOUS
370
    -3
390
F
  0
LAYER
  5
58
330
2
100
AcDbSymbolTableRecord
100
AcDbLayerTableRecord
  2
BORD
 70
     0
 62
     7
  6
CONTINUOUS
370
    -3
390
F
  0
LAYER
  5
59
330
2
100
AcDbSymbolTableRecord
100
AcDbLayerTableRecord
  2
TEXT
 70
     0
 62
     1
  6
CONTINUOUS
370
    -3
390
F
  0
LAYER
  5
5A
330
2
100
AcDbSymbolTableRecord
100
AcDbLayerTableRecord
  2
TEXTF
 70
     0
 62
     2
  6
CONTINUOUS
370
    -3
390
F
  0
LAYER
  5
5B
330
2
100
AcDbSymbolTableRecord
100
AcDbLayerTableRecord
  2
BTEXTF
 70
     0
 62
     2
  6
CONTINUOUS
370
    -3
390
F
  0
LAYER
  5
5C
330
2
100
AcDbSymbolTableRecord
100
AcDbLayerTableRecord
  2
OBJ
 70
     0
 62
     7
  6
CONTINUOUS
370
    -3
390
F
  0
LAYER
  5
5D
330
2
100
AcDbSymbolTableRecord
100
AcDbLayerTableRecord
  2
BTEXT
 70
     0
 62
     2
  6
CONTINUOUS
370
    -3
390
F
  0
LAYER
  5
5E
330
2
100
AcDbSymbolTableRecord
100
AcDbLayerTableRecord
  2
BILLMATL
 70
     0
 62
     6
  6
CONTINUOUS
370
    -3
390
F
  0
ENDTAB
  0
TABLE
  2
STYLE
  5
3
330
0
100
AcDbSymbolTable
 70
     7
  0
STYLE
  5
11
330
3
100
AcDbSymbolTableRecord
100
AcDbTextStyleTableRecord
  2
STANDARD
 70
     0
 40
0.0
 41
1.0
 50
0.0
 71
     0
 42
0.2
  3
txt
  4

  0
STYLE
  5
32
330
3
100
AcDbSymbolTableRecord
100
AcDbTextStyleTableRecord
  2
ROMAND
 70
     0
 40
0.5
 41
1.0
 50
0.0
 71
     0
 42
0.5
  3
romand
  4

  0
STYLE
  5
33
330
3
100
AcDbSymbolTableRecord
100
AcDbTextStyleTableRecord
  2
SIMPLEX
 70
     0
 40
0.0
 41
1.0
 50
0.0
 71
     0
 42
0.125
  3
SIMPLEX.SHX
  4

  0
STYLE
  5
34
330
3
100
AcDbSymbolTableRecord
100
AcDbTextStyleTableRecord
  2
ROMANS
 70
     0
 40
0.125
 41
1.0
 50
0.0
 71
     0
 42
0.125
  3
ROMANS
  4

  0
STYLE
  5
35
330
3
100
AcDbSymbolTableRecord
100
AcDbTextStyleTableRecord
  2
SANSSERIFBOLD
 70
     0
 40
0.2
 41
1.199999999999999
 50
0.0
 71
     0
 42
0.2
  3
sasb____.pfb
  4

  0
STYLE
  5
36
330
3
100
AcDbSymbolTableRecord
100
AcDbTextStyleTableRecord
  2
SUPERFRENCH
 70
     0
 40
0.1
 41
1.5
 50
0.0
 71
     0
 42
0.2
  3
suf_____.pfb
  4

  0
STYLE
  5
760
330
3
100
AcDbSymbolTableRecord
100
AcDbTextStyleTableRecord
  2

 70
     1
 40
0.0
 41
1.0
 50
0.0
 71
     0
 42
0.5
  3
ltypeshp.shx
  4

  0
ENDTAB
  0
TABLE
  2
VIEW
  5
6
330
0
100
AcDbSymbolTable
 70
     0
  0
ENDTAB
  0
TABLE
  2
UCS
  5
7
330
0
100
AcDbSymbolTable
 70
     0
  0
ENDTAB
  0
TABLE
  2
APPID
  5
9
330
0
100
AcDbSymbolTable
 70
     3
  0
APPID
  5
12
330
9
100
AcDbSymbolTableRecord
100
AcDbRegAppTableRecord
  2
ACAD
 70
     0
  0
APPID
  5
73D
330
9
100
AcDbSymbolTableRecord
100
AcDbRegAppTableRecord
  2
MCAD_NO_VIS
 70
     0
  0
APPID
  5
73E
330
9
100
AcDbSymbolTableRecord
100
AcDbRegAppTableRecord
  2
ACAD_TEMP_GRAPHIC
 70
     0
  0
ENDTAB
  0
TABLE
  2
DIMSTYLE
  5
A
330
0
100
AcDbSymbolTable
 70
     1
100
AcDbDimStyleTable
 71
     0
  0
DIMSTYLE
105
738
330
A
100
AcDbSymbolTableRecord
100
AcDbDimStyleTableRecord
  2
Standard
 70
     0
340
11
  0
ENDTAB
  0
TABLE
  2
BLOCK_RECORD
  5
1
330
0
100
AcDbSymbolTable
 70
     2
  0
BLOCK_RECORD
  5
1E
102
{ACAD_XDICTIONARY
360
7D9
102
}
330
1
100
AcDbSymbolTableRecord
100
AcDbBlockTableRecord
  2
*Model_Space
340
21
  0
BLOCK_RECORD
  5
1A
330
1
100
AcDbSymbolTableRecord
100
AcDbBlockTableRecord
  2
*Paper_Space
340
1D
  0
BLOCK_RECORD
  5
771
330
1
100
AcDbSymbolTableRecord
100
AcDbBlockTableRecord
  2
A$C115C145A
340
0
102
{BLKREFS
331
788
102
}
  0
BLOCK_RECORD
  5
78A
330
1
100
AcDbSymbolTableRecord
100
AcDbBlockTableRecord
  2
A$C5A617EB5
340
0
102
{BLKREFS
331
7D3
102
}
  0
ENDTAB
  0
ENDSEC
  0
SECTION
  2
BLOCKS
  0
BLOCK
  5
61
330
1E
100
AcDbEntity
  8
0
100
AcDbBlockBegin
  2
*Model_Space
 70
     0
 10
0.0
 20
0.0
 30
0.0
  3
*Model_Space
  1

  0
ENDBLK
  5
62
330
1E
100
AcDbEntity
  8
0
100
AcDbBlockEnd
  0
BLOCK
  5
5F
330
1A
100
AcDbEntity
 67
     1
  8
0
100
AcDbBlockBegin
  2
*Paper_Space
 70
     0
 10
0.0
 20
0.0
 30
0.0
  3
*Paper_Space
  1

  0
ENDBLK
  5
60
330
1A
100
AcDbEntity
 67
     1
  8
0
100
AcDbBlockEnd
  0
BLOCK
  5
786
330
771
100
AcDbEntity
  8
0
100
AcDbBlockBegin
  2
A$C115C145A
 70
     0
 10
0.0
 20
0.0
 30
0.0
  3
A$C115C145A
  1

  0
CIRCLE
  5
772
330
771
100
AcDbEntity
  8
0
100
AcDbCircle
 10
2.250000010742637
 20
2.250000009177128
 30
0.0
 40
1.441610417464528
  0
CIRCLE
  5
773
330
771
100
AcDbEntity
  8
0
100
AcDbCircle
 10
2.250000010742637
 20
2.250000009177128
 30
0.0
 40
1.475
  0
CIRCLE
  5
774
330
771
100
AcDbEntity
  8
0
100
AcDbCircle
 10
2.250000010742637
 20
2.250000009177128
 30
0.0
 40
1.475
  0
CIRCLE
  5
775
330
771
100
AcDbEntity
  8
0
100
AcDbCircle
 10
2.250000010742637
 20
2.250000009177128
 30
0.0
 40
1.475
  0
CIRCLE
  5
776
330
771
100
AcDbEntity
  8
0
100
AcDbCircle
 10
2.250000010742637
 20
2.250000009177128
 30
0.0
 40
2.189999999999999
  0
CIRCLE
  5
777
330
771
100
AcDbEntity
  8
0
100
AcDbCircle
 10
2.250000010742637
 20
2.250000009177128
 30
0.0
 40
2.25
  0
CIRCLE
  5
778
330
771
100
AcDbEntity
  8
0
100
AcDbCircle
 10
2.250000010742637
 20
2.250000009177128
 30
0.0
 40
0.6449999999999996
  0
CIRCLE
  5
779
330
771
100
AcDbEntity
  8
0
100
AcDbCircle
 10
2.250000010742637
 20
2.250000009177128
 30
0.0
 40
0.7049999999999997
  0
CIRCLE
  5
77A
330
771
100
AcDbEntity
  8
0
100
AcDbCircle
 10
2.250000010742637
 20
2.250000009177128
 30
0.0
 40
0.5100000000000007
  0
CIRCLE
  5
77B
330
771
100
AcDbEntity
  8
0
100
AcDbCircle
 10
2.250000010742637
 20
2.250000009177128
 30
0.0
 40
0.5499999999999999
  0
LINE
  5
77C
330
771
100
AcDbEntity
  8
0
100
AcDbLine
 10
2.316395291699444
 20
2.135000009177128
 30
0.0
 11
2.382790572656252
 21
2.250000009177128
 31
0.0
  0
LINE
  5
77D
330
771
100
AcDbEntity
  8
0
100
AcDbLine
 10
2.117209448829024
 20
2.250000009177128
 30
0.0
 11
2.18360472978583
 21
2.135000009177128
 31
0.0
  0
CIRCLE
  5
77E
330
771
100
AcDbEntity
  8
0
100
AcDbCircle
 10
2.250000010742637
 20
2.250000009177128
 30
0.0
 40
0.2047792365641046
  0
CIRCLE
  5
77F
330
771
100
AcDbEntity
  8
0
100
AcDbCircle
 10
2.250000010742637
 20
2.250000009177128
 30
0.0
 40
0.2742264766787743
  0
CIRCLE
  5
780
330
771
100
AcDbEntity
  8
0
100
AcDbCircle
 10
2.250000010742637
 20
2.250000009177128
 30
0.0
 40
0.2742264766787743
  0
CIRCLE
  5
781
330
771
100
AcDbEntity
  8
0
100
AcDbCircle
 10
2.250000010742637
 20
2.250000009177128
 30
0.0
 40
0.25
  0
LINE
  5
782
330
771
100
AcDbEntity
  8
0
100
AcDbLine
 10
2.18360472978583
 20
2.135000009177128
 30
0.0
 11
2.316395291699444
 21
2.135000009177128
 31
0.0
  0
LINE
  5
783
330
771
100
AcDbEntity
  8
0
100
AcDbLine
 10
2.18360472978583
 20
2.365000009177128
 30
0.0
 11
2.117209448829024
 21
2.250000009177128
 31
0.0
  0
LINE
  5
784
330
771
100
AcDbEntity
  8
0
100
AcDbLine
 10
2.382790572656252
 20
2.250000009177128
 30
0.0
 11
2.316395291699445
 21
2.365000009177128
 31
0.0
  0
LINE
  5
785
330
771
100
AcDbEntity
  8
0
100
AcDbLine
 10
2.316395291699445
 20
2.365000009177128
 30
0.0
 11
2.18360472978583
 21
2.365000009177128
 31
0.0
  0
ENDBLK
  5
787
330
771
100
AcDbEntity
  8
0
100
AcDbBlockEnd
  0
BLOCK
  5
7D1
330
78A
100
AcDbEntity
  8
0
100
AcDbBlockBegin
  2
A$C5A617EB5
 70
     0
 10
0.0
 20
0.0
 30
0.0
  3
A$C5A617EB5
  1

  0
ARC
  5
78B
330
78A
100
AcDbEntity
  8
0
100
AcDbCircle
 10
2.559358480480593
 20
1.658135586276717
 30
0.0
 40
0.03
100
AcDbArc
 50
352.4014045617153
 51
90.0
  0
LINE
  5
78C
330
78A
100
AcDbEntity
  8
0
100
AcDbLine
 10
2.514611132972602
 20
1.095833269576756
 30
0.0
 11
2.589095043944098
 21
1.654168623536663
 31
0.0
  0
LINE
  5
78D
330
78A
100
AcDbEntity
  8
0
100
AcDbLine
 10
2.985695111328396
 20
1.095833269576756
 30
0.0
 11
2.514611132972601
 21
1.095833269576756
 31
0.0
  0
LINE
  5
78E
330
78A
100
AcDbEntity
  8
0
100
AcDbLine
 10
1.444480417306803
 20
1.926611750605282
 30
0.0
 11
3.059059091212743
 21
1.926611750605282
 31
0.0
  0
LINE
  5
78F
330
78A
100
AcDbEntity
  8
0
100
AcDbLine
 10
1.485879895884743
 20
1.838135586276716
 30
0.0
 11
3.017659659807837
 21
1.838135586276716
 31
0.0
  0
LINE
  5
790
330
78A
100
AcDbEntity
  8
0
100
AcDbLine
 10
1.580000010742637
 20
1.036104165872463
 30
0.0
 11
2.920000010742637
 21
1.036104165872463
 31
0.0
  0
LINE
  5
791
330
78A
100
AcDbEntity
  8
0
100
AcDbLine
 10
0.5630000107426381
 20
2.846104165872464
 30
0.0
 11
3.896769608315309
 21
2.846104165872464
 31
0.0
  0
LINE
  5
792
330
78A
100
AcDbEntity
  8
0
100
AcDbLine
 10
0.4380000107426381
 20
2.971104165872464
 30
0.0
 11
4.062000010742638
 21
2.971104165872464
 31
0.0
  0
LINE
  5
793
330
78A
100
AcDbEntity
  8
0
100
AcDbLine
 10
1.545000010742638
 20
5.711104165872463
 30
0.0
 11
2.955000010742637
 21
5.711104165872463
 31
0.0
  0
LINE
  5
794
330
78A
100
AcDbEntity
  8
0
100
AcDbLine
 10
1.740000010742637
 20
5.841104165872463
 30
0.0
 11
2.760000010742638
 21
5.841104165872463
 31
0.0
  0
LINE
  5
795
330
78A
100
AcDbEntity
  8
OBJ
100
AcDbLine
 10
1.605000010742638
 20
5.771104165872463
 30
0.0
 11
2.895000010742638
 21
5.771104165872463
 31
0.0
  0
LINE
  5
796
330
78A
100
AcDbEntity
  8
OBJ
100
AcDbLine
 10
1.740000010742637
 20
6.161104165872464
 30
0.0
 11
2.760000010742638
 21
6.161104165872464
 31
0.0
  0
LINE
  5
797
330
78A
100
AcDbEntity
  8
OBJ
100
AcDbLine
 10
2.800000010742637
 20
6.121104165872464
 30
0.0
 11
1.700000010742638
 21
6.121104165872464
 31
0.0
  0
LINE
  5
798
330
78A
100
AcDbEntity
  8
OBJ
100
AcDbLine
 10
1.740000010742637
 20
6.081104165872464
 30
0.0
 11
2.760000010742638
 21
6.081104165872464
 31
0.0
  0
LINE
  5
799
330
78A
100
AcDbEntity
  8
OBJ
100
AcDbLine
 10
2.800000010742637
 20
6.041104165872464
 30
0.0
 11
1.700000010742638
 21
6.041104165872464
 31
0.0
  0
LINE
  5
79A
330
78A
100
AcDbEntity
  8
OBJ
100
AcDbLine
 10
1.740000010742637
 20
6.001104165872463
 30
0.0
 11
2.760000010742638
 21
6.001104165872463
 31
0.0
  0
LINE
  5
79B
330
78A
100
AcDbEntity
  8
OBJ
100
AcDbLine
 10
2.800000010742637
 20
5.961104165872464
 30
0.0
 11
1.700000010742638
 21
5.961104165872464
 31
0.0
  0
LINE
  5
79C
330
78A
100
AcDbEntity
  8
OBJ
100
AcDbLine
 10
1.740000010742637
 20
5.921104165872463
 30
0.0
 11
2.760000010742638
 21
5.921104165872463
 31
0.0
  0
LINE
  5
79D
330
78A
100
AcDbEntity
  8
OBJ
100
AcDbLine
 10
2.800000010742637
 20
5.881104165872464
 30
0.0
 11
1.700000010742638
 21
5.881104165872464
 31
0.0
  0
LINE
  5
79E
330
78A
100
AcDbEntity
  8
0
100
AcDbLine
 10
0.0000000107426379
 20
3.346104165872463
 30
0.0
 11
4.500000010742637
 21
3.346104165872463
 31
0.0
  0
LINE
  5
79F
330
78A
100
AcDbEntity
  8
0
100
AcDbLine
 10
0.0000000107426379
 20
5.391104165872464
 30
0.0
 11
4.500000010742637
 21
5.391104165872464
 31
0.0
  0
LINE
  5
7A0
330
78A
100
AcDbEntity
  8
0
100
AcDbLine
 10
0.060000010742638
 20
3.286104165872464
 30
0.0
 11
4.440000010742638
 21
3.286104165872464
 31
0.0
  0
LINE
  5
7A1
330
78A
100
AcDbEntity
  8
0
100
AcDbLine
 10
0.060000010742638
 20
5.451104165872464
 30
0.0
 11
4.440000010742638
 21
5.451104165872464
 31
0.0
  0
LINE
  5
7A2
330
78A
100
AcDbEntity
  8
0
100
AcDbLine
 10
0.0000000107426379
 20
3.346104165872463
 30
0.0
 11
0.0000000107426379
 21
5.391104165872464
 31
0.0
  0
LINE
  5
7A3
330
78A
100
AcDbEntity
  8
0
100
AcDbLine
 10
2.250000010742637
 20
0.0000000274058179
 30
0.0
 11
2.250000010742637
 21
6.842271341028689
 31
0.0
  0
ARC
  5
7A4
330
78A
100
AcDbEntity
  8
0
100
AcDbCircle
 10
2.379918324271725
 20
3.411568094266302
 30
0.0
 40
1.784332095666152
100
AcDbArc
 50
201.0971121815665
 51
236.3274359299097
  0
LINE
  5
7A5
330
78A
100
AcDbEntity
  8
0
100
AcDbLine
 10
0.5630000107426381
 20
2.846104165872464
 30
0.0
 11
0.4380000107426381
 21
2.971104165872464
 31
0.0
  0
LINE
  5
7A6
330
78A
100
AcDbEntity
  8
0
100
AcDbLine
 10
0.6032304131699675
 20
2.846104165872464
 30
0.0
 11
0.5630000107426385
 21
2.846104165872464
 31
0.0
  0
ARC
  5
7A7
330
78A
100
AcDbEntity
  8
0
100
AcDbCircle
 10
0.6032304131699675
 20
2.726104165872464
 30
0.0
 40
0.12
100
AcDbArc
 50
21.09711218156808
 51
90.0
  0
LINE
  5
7A8
330
78A
100
AcDbEntity
  8
0
100
AcDbLine
 10
0.0000000107426379
 20
3.346104165872463
 30
0.0
 11
0.060000010742638
 21
3.286104165872464
 31
0.0
  0
LINE
  5
7A9
330
78A
100
AcDbEntity
  8
0
100
AcDbLine
 10
0.4380000107426381
 20
2.971104165872464
 30
0.0
 11
0.4380000107426381
 21
3.286104165872464
 31
0.0
  0
ARC
  5
7AA
330
78A
100
AcDbEntity
  8
0
100
AcDbCircle
 10
1.324069039993183
 20
1.8267453851052
 30
0.0
 40
0.12
100
AcDbArc
 50
5.446619978687875
 51
56.32743592990957
  0
LINE
  5
7AB
330
78A
100
AcDbEntity
  8
0
100
AcDbLine
 10
1.514304910156879
 20
1.095833269576756
 30
0.0
 11
1.985388888512674
 21
1.095833269576756
 31
0.0
  0
LINE
  5
7AC
330
78A
100
AcDbEntity
  8
0
100
AcDbLine
 10
1.514304910156879
 20
1.095833269576756
 30
0.0
 11
1.438000010742637
 21
1.896104165872463
 31
0.0
  0
LINE
  5
7AD
330
78A
100
AcDbEntity
  8
0
100
AcDbLine
 10
1.514304910156879
 20
1.095833269576756
 30
0.0
 11
1.580000010742637
 21
1.036104165872463
 31
0.0
  0
LINE
  5
7AE
330
78A
100
AcDbEntity
  8
0
100
AcDbLine
 10
1.940641541004681
 20
1.688135586276716
 30
0.0
 11
2.559358480480593
 21
1.688135586276716
 31
0.0
  0
LINE
  5
7AF
330
78A
100
AcDbEntity
  8
0
100
AcDbLine
 10
1.985388888512673
 20
1.095833269576756
 30
0.0
 11
1.910904977541177
 21
1.654168623536663
 31
0.0
  0
LINE
  5
7B0
330
78A
100
AcDbEntity
  8
0
100
AcDbLine
 10
1.985388888512674
 20
1.095833269576756
 30
0.0
 11
2.047768474774431
 21
1.036104165872464
 31
0.0
  0
ARC
  5
7B1
330
78A
100
AcDbEntity
  8
0
100
AcDbCircle
 10
1.940641541004681
 20
1.658135586276717
 30
0.0
 40
0.03
100
AcDbArc
 50
90.0
 51
187.5985954382846
  0
LINE
  5
7B2
330
78A
100
AcDbEntity
  8
0
100
AcDbLine
 10
2.514611132972601
 20
1.095833269576756
 30
0.0
 11
2.452231546710843
 21
1.036104165872464
 31
0.0
  0
CIRCLE
  5
7B3
330
78A
100
AcDbEntity
  8
0
100
AcDbCircle
 10
2.250000010742637
 20
3.716104165872463
 30
0.0
 40
0.1674992693704613
  0
CIRCLE
  5
7B4
330
78A
100
AcDbEntity
  8
0
100
AcDbCircle
 10
2.250000010742637
 20
3.716104165872463
 30
0.0
 40
0.155
  0
LINE
  5
7B5
330
78A
100
AcDbEntity
  8
0
100
AcDbLine
 10
0.0000000107426379
 20
5.391104165872464
 30
0.0
 11
0.060000010742638
 21
5.451104165872464
 31
0.0
  0
LINE
  5
7B6
330
78A
100
AcDbEntity
  8
OBJ
100
AcDbLine
 10
1.700000010742638
 20
5.881104165872462
 30
0.0
 11
1.740000010742637
 21
5.841104165872463
 31
0.0
  0
ARC
  5
7B7
330
78A
100
AcDbEntity
  8
0
100
AcDbCircle
 10
1.425000010742637
 20
5.621947542076376
 30
0.0
 40
0.12
100
AcDbArc
 50
286.4370520617191
 51
0.0
  0
ARC
  5
7B8
330
78A
100
AcDbEntity
  8
0
100
AcDbCircle
 10
2.250000010742637
 20
2.825515930578331
 30
0.0
 40
2.795588235294131
100
AcDbArc
 50
106.4370520617189
 51
110.0840472710589
  0
LINE
  5
7B9
330
78A
100
AcDbEntity
  8
0
100
AcDbLine
 10
1.605000010742638
 20
5.771104165872463
 30
0.0
 11
1.545000010742638
 21
5.711104165872463
 31
0.0
  0
LINE
  5
7BA
330
78A
100
AcDbEntity
  8
0
100
AcDbLine
 10
1.545000010742638
 20
5.621947542076376
 30
0.0
 11
1.545000010742638
 21
5.711104165872463
 31
0.0
  0
LINE
  5
7BB
330
78A
100
AcDbEntity
  8
0
100
AcDbLine
 10
1.740000010742637
 20
5.841104165872463
 30
0.0
 11
1.740000010742637
 21
5.771104165872463
 31
0.0
  0
LINE
  5
7BC
330
78A
100
AcDbEntity
  8
OBJ
100
AcDbLine
 10
1.700000010742638
 20
6.121104165872464
 30
0.0
 11
1.740000010742637
 21
6.161104165872464
 31
0.0
  0
LINE
  5
7BD
330
78A
100
AcDbEntity
  8
OBJ
100
AcDbLine
 10
1.700000010742638
 20
5.881104165872464
 30
0.0
 11
1.700000010742638
 21
6.121104165872464
 31
0.0
  0
LINE
  5
7BE
330
78A
100
AcDbEntity
  8
0
100
AcDbLine
 10
4.500000010742637
 20
3.346104165872463
 30
0.0
 11
4.500000010742637
 21
5.391104165872464
 31
0.0
  0
ARC
  5
7BF
330
78A
100
AcDbEntity
  8
0
100
AcDbCircle
 10
3.175930981492093
 20
1.8267453851052
 30
0.0
 40
0.12
100
AcDbArc
 50
123.6725640700904
 51
174.5533800213121
  0
ARC
  5
7C0
330
78A
100
AcDbEntity
  8
0
100
AcDbCircle
 10
2.120081697213551
 20
3.411568094266302
 30
0.0
 40
1.784332095666152
100
AcDbArc
 50
303.6725640700902
 51
338.9028878184333
  0
LINE
  5
7C1
330
78A
100
AcDbEntity
  8
0
100
AcDbLine
 10
2.985695111328395
 20
1.095833269576756
 30
0.0
 11
3.056472774083508
 21
1.838135586276716
 31
0.0
  0
LINE
  5
7C2
330
78A
100
AcDbEntity
  8
0
100
AcDbLine
 10
2.985695111328395
 20
1.095833269576756
 30
0.0
 11
2.920000010742637
 21
1.036104165872463
 31
0.0
  0
LINE
  5
7C3
330
78A
100
AcDbEntity
  8
0
100
AcDbLine
 10
3.937000010742638
 20
2.846104165872464
 30
0.0
 11
4.062000010742638
 21
2.971104165872464
 31
0.0
  0
LINE
  5
7C4
330
78A
100
AcDbEntity
  8
0
100
AcDbLine
 10
3.896769608315309
 20
2.846104165872464
 30
0.0
 11
3.937000010742638
 21
2.846104165872464
 31
0.0
  0
ARC
  5
7C5
330
78A
100
AcDbEntity
  8
0
100
AcDbCircle
 10
3.896769608315309
 20
2.726104165872464
 30
0.0
 40
0.12
100
AcDbArc
 50
90.0
 51
158.9028878184318
  0
LINE
  5
7C6
330
78A
100
AcDbEntity
  8
0
100
AcDbLine
 10
4.062000010742638
 20
2.971104165872464
 30
0.0
 11
4.062000010742638
 21
3.286104165872464
 31
0.0
  0
LINE
  5
7C7
330
78A
100
AcDbEntity
  8
0
100
AcDbLine
 10
4.500000010742637
 20
3.346104165872463
 30
0.0
 11
4.440000010742638
 21
3.286104165872464
 31
0.0
  0
LINE
  5
7C8
330
78A
100
AcDbEntity
  8
OBJ
100
AcDbLine
 10
2.800000010742637
 20
5.881104165872462
 30
0.0
 11
2.760000010742638
 21
5.841104165872463
 31
0.0
  0
ARC
  5
7C9
330
78A
100
AcDbEntity
  8
0
100
AcDbCircle
 10
3.075000010742638
 20
5.621947542076376
 30
0.0
 40
0.12
100
AcDbArc
 50
180.0
 51
253.5629479382809
  0
LINE
  5
7CA
330
78A
100
AcDbEntity
  8
0
100
AcDbLine
 10
2.760000010742638
 20
5.841104165872463
 30
0.0
 11
2.760000010742638
 21
5.771104165872463
 31
0.0
  0
LINE
  5
7CB
330
78A
100
AcDbEntity
  8
0
100
AcDbLine
 10
2.895000010742638
 20
5.771104165872463
 30
0.0
 11
2.955000010742637
 21
5.711104165872463
 31
0.0
  0
LINE
  5
7CC
330
78A
100
AcDbEntity
  8
0
100
AcDbLine
 10
2.955000010742637
 20
5.621947542076376
 30
0.0
 11
2.955000010742637
 21
5.711104165872463
 31
0.0
  0
ARC
  5
7CD
330
78A
100
AcDbEntity
  8
0
100
AcDbCircle
 10
2.250000010742637
 20
2.825515930578331
 30
0.0
 40
2.795588235294131
100
AcDbArc
 50
69.91595272894109
 51
73.56294793828104
  0
LINE
  5
7CE
330
78A
100
AcDbEntity
  8
OBJ
100
AcDbLine
 10
2.800000010742637
 20
6.121104165872464
 30
0.0
 11
2.760000010742638
 21
6.161104165872464
 31
0.0
  0
LINE
  5
7CF
330
78A
100
AcDbEntity
  8
OBJ
100
AcDbLine
 10
2.800000010742637
 20
5.881104165872464
 30
0.0
 11
2.800000010742637
 21
6.121104165872464
 31
0.0
  0
LINE
  5
7D0
330
78A
100
AcDbEntity
  8
0
100
AcDbLine
 10
4.440000010742638
 20
5.451104165872464
 30
0.0
 11
4.500000010742637
 21
5.391104165872464
 31
0.0
  0
ENDBLK
  5
7D2
330
78A
100
AcDbEntity
  8
0
100
AcDbBlockEnd
  0
ENDSEC
  0
SECTION
  2
ENTITIES
  0
INSERT
  5
788
330
1E
100
AcDbEntity
  8
0
100
AcDbBlockReference
  2
A$C115C145A
 10
12.55141734367026
 20
9.261066977404738
 30
0.0
  0
INSERT
  5
7D3
330
1E
100
AcDbEntity
  8
0
100
AcDbBlockReference
  2
A$C5A617EB5
 10
12.55141734367026
 20
0.9920562495685523
 30
0.0
  0
ENDSEC
  0
SECTION
  2
OBJECTS
  0
DICTIONARY
  5
C
330
0
100
AcDbDictionary
281
     1
  3
ACAD_GROUP
350
D
  3
ACAD_LAYOUT
350
19
  3
ACAD_MLINESTYLE
350
16
  3
ACAD_PLOTSETTINGS
350
18
  3
ACAD_PLOTSTYLENAME
350
E
  3
AcDbVariableDictionary
350
741
  3
AcmDictionary
350
754
  3
ACME_BOM_MANAGER_NAME
350
747
  3
ACME_COMMAND_HISTORY
350
740
  3
ACME_SCOPE_NAME
350
73F
  3
ACMESTATEMGR
350
74C
  3
AcmeSysVarManager
350
743
  3
AMG
350
750
  3
AMGSNAPSETTINGS
350
764
  3
DWGPROPS
350
757
  0
DICTIONARY
  5
7D9
330
1E
100
AcDbDictionary
280
     1
281
     1
  3
ACAD_INDEX
360
7DA
  0
DICTIONARY
  5
D
102
{ACAD_REACTORS
330
C
102
}
330
C
100
AcDbDictionary
281
     1
  0
DICTIONARY
  5
19
102
{ACAD_REACTORS
330
C
102
}
330
C
100
AcDbDictionary
281
     1
  3
Layout1
350
1D
  3
Model
350
21
  0
DICTIONARY
  5
16
102
{ACAD_REACTORS
330
C
102
}
330
C
100
AcDbDictionary
281
     1
  3
Standard
350
17
  0
DICTIONARY
  5
18
102
{ACAD_REACTORS
330
C
102
}
330
C
100
AcDbDictionary
281
     1
  0
ACDBDICTIONARYWDFLT
  5
E
102
{ACAD_REACTORS
330
C
102
}
330
C
100
AcDbDictionary
281
     1
  3
Normal
350
F
100
AcDbDictionaryWithDefault
340
F
  0
DICTIONARY
  5
741
102
{ACAD_REACTORS
330
C
102
}
330
C
100
AcDbDictionary
281
     1
  3
INDEXCTL
350
742
  0
DICTIONARY
  5
754
102
{ACAD_REACTORS
330
C
102
}
330
C
100
AcDbDictionary
281
     1
  3
AcmBOMDATA
350
755
  0
ACAD_PROXY_OBJECT
  5
747
102
{ACAD_REACTORS
330
C
102
}
330
C
100
AcDbProxyObject
 90
      499
 91
      510
 95
   393239
 70
     0
 93
       52
310
00000040400063
330
0
330
0
330
748
 94
        0
  0
ACAD_PROXY_OBJECT
  5
740
102
{ACAD_REACTORS
330
C
102
}
330
C
100
AcDbProxyObject
 90
      499
 91
      505
 95
   393239
 70
     0
 93
     2342
310
4780504554E444F80504554E444F80504554E444F805074558504C4F4445805074558504C4F444540405184D5347202D20436F6D6D616E642043414E43454C4C45442E0141D156141313D11160141D156141313D11160141D156141313D1116014154155491D16014154155491D1601421111125394D1549510101461354D1
310
C80B4810DBDB5B585B990810D05390D1531311510B80508434F5059434C49508050A5041535445424C4F434B80508434F5059434C49508050A5041535445424C4F434B80504554E444F80504554E444F80504554E444F80504554E444F80504554E444F80504554E444F80504554E444F80504554E444F805044C494E45805
310
044D4F564580504554E444F80504554E444F80504554E444F80504554E444F805055153415645B
 94
        0
  0
ACAD_PROXY_OBJECT
  5
73F
102
{ACAD_REACTORS
330
C
102
}
330
C
100
AcDbProxyObject
 90
      499
 91
      504
 95
   393239
 70
     0
 93
      194
310
04000043C000000000000000000010442200000000AAAAAAAF
360
744
360
745
360
746
360
748
 94
        0
  0
ACAD_PROXY_OBJECT
  5
74C
102
{ACAD_REACTORS
330
C
102
}
330
C
100
AcDbProxyObject
 90
      499
 91
      515
 95
   393239
 70
     0
 93
       50
310
04000040E41280
 94
        0
  0
ACAD_PROXY_OBJECT
  5
743
102
{ACAD_REACTORS
330
C
102
}
330
C
100
AcDbProxyObject
 90
      499
 91
      507
 95
   393239
 70
     0
 93
       48
310
90342200000005
330
744
330
745
330
746
 94
        0
  0
DICTIONARY
  5
750
102
{ACAD_REACTORS
330
C
102
}
330
C
100
AcDbDictionary
281
     1
  3
AcMgSettings
350
751
  3
AMGLAYCFG
350
758
  0
DICTIONARY
  5
764
102
{ACAD_REACTORS
330
C
102
}
330
C
100
AcDbDictionary
281
     1
  3
DIMENSION
350
769
  3
FEA
350
768
  3
HATCH (1)
350
765
  3
HATCH (2)
350
766
  3
SYMBOLS
350
767
  0
XRECORD
  5
757
102
{ACAD_REACTORS
330
C
102
}
330
C
100
AcDbXrecord
280
     1
  1
DWGPROPS COOKIE
  2

  3

  4

  6

  7

  8

  9

300
AmdtFileType=82
301
=
302
=
303
=
304
=
305
=
306
=
307
=
308
=
309
=
 40
0.0709421527777778
 41
2449472.608604977
 42
2449472.679367245
  1

 90
        1
  0
DICTIONARY
  5
7DA
102
{ACAD_REACTORS
330
7D9
102
}
330
7D9
100
AcDbDictionary
281
     1
  3
*A1
350
7DB
  0
LAYOUT
  5
1D
102
{ACAD_REACTORS
330
19
102
}
330
19
100
AcDbPlotSettings
  1

  2
HP DesignJet 1050C by HP
  4

  6

 40
0.0
 41
0.0
 42
0.0
 43
0.0
 44
0.0
 45
0.0
 46
0.0
 47
0.0
 48
0.0
 49
0.0
140
0.0
141
0.0
142
1.0
143
1.0
 70
   688
 72
     0
 73
     0
 74
     5
  7
acad.ctb
 75
    16
147
1.0
148
0.0
149
0.0
100
AcDbLayout
  1
Layout1
 70
     1
 71
     1
 10
0.0
 20
0.0
 11
12.0
 21
9.0
 12
0.0
 22
0.0
 32
0.0
 14
1.000000000000000E+20
 24
1.000000000000000E+20
 34
1.000000000000000E+20
 15
-1.000000000000000E+20
 25
-1.000000000000000E+20
 35
-1.000000000000000E+20
146
0.0
 13
0.0
 23
0.0
 33
0.0
 16
1.0
 26
0.0
 36
0.0
 17
0.0
 27
1.0
 37
0.0
 76
     0
330
1A
  0
LAYOUT
  5
21
102
{ACAD_REACTORS
330
19
102
}
330
19
100
AcDbPlotSettings
  1

  2
HP DesignJet 1050C by HP
  4

  6

 40
0.0
 41
0.0
 42
0.0
 43
0.0
 44
0.0
 45
0.0
 46
0.0
 47
0.0
 48
0.0
 49
0.0
140
0.0
141
0.0
142
1.0
143
1.0
 70
  1712
 72
     0
 73
     0
 74
     0
  7
acad.ctb
 75
     0
147
1.0
148
0.0
149
0.0
100
AcDbLayout
  1
Model
 70
     1
 71
     0
 10
0.0
 20
0.0
 11
12.0
 21
9.0
 12
0.0
 22
0.0
 32
0.0
 14
0.0
 24
0.0
 34
0.0
 15
0.0
 25
0.0
 35
0.0
146
0.0
 13
0.0
 23
0.0
 33
0.0
 16
1.0
 26
0.0
 36
0.0
 17
0.0
 27
1.0
 37
0.0
 76
     0
330
1E
  0
MLINESTYLE
  5
17
102
{ACAD_REACTORS
330
16
102
}
330
16
100
AcDbMlineStyle
  2
STANDARD
 70
     0
  3

 62
   256
 51
90.0
 52
90.0
 71
     2
 49
0.5
 62
   256
  6
BYLAYER
 49
-0.5
 62
   256
  6
BYLAYER
  0
ACDBPLACEHOLDER
  5
F
102
{ACAD_REACTORS
330
E
102
}
330
E
  0
DICTIONARYVAR
  5
742
102
{ACAD_REACTORS
330
741
102
}
330
741
100
DictionaryVariables
280
     0
  1
1
  0
ACAD_PROXY_OBJECT
  5
755
102
{ACAD_REACTORS
330
754
102
}
330
754
100
AcDbProxyObject
 90
      499
 91
      519
 95
   393239
 70
     0
 93
      118
310
405010040CA904C415CD5B074D5029
350
756
 94
        0
  0
ACAD_PROXY_OBJECT
  5
744
330
0
100
AcDbProxyObject
 90
      499
 91
      508
 95
   393239
 70
     0
 93
      156
310
00010143D050D351505391D5531054925390D494
330
73F
 94
        0
  0
ACAD_PROXY_OBJECT
  5
745
330
0
100
AcDbProxyObject
 90
      499
 91
      508
 95
   393239
 70
     0
 93
      148
310
000101439050D351531253915054925390D490
330
73F
 94
        0
  0
ACAD_PROXY_OBJECT
  5
746
330
0
100
AcDbProxyObject
 90
      499
 91
      509
 95
   393239
 70
     0
 93
      156
310
000101439050D35154D6535093D314D25691508D
330
73F
 94
        0
  0
ACAD_PROXY_OBJECT
  5
748
330
0
100
AcDbProxyObject
 90
      499
 91
      511
 95
   393239
 70
     0
 93
       88
310
000101411093D34C402B0000
330
73F
330
0
330
0
 94
        0
  0
DICTIONARY
  5
751
102
{ACAD_REACTORS
330
750
102
}
330
750
100
AcDbDictionary
281
     1
  3
DWGSETTINGS
350
752
  3
TRANSSETTINGS
350
753
  0
ACAD_PROXY_OBJECT
  5
758
102
{ACAD_REACTORS
330
750
102
}
330
750
100
AcDbProxyObject
 90
      499
 91
      521
 95
   393239
 70
     0
 93
    16352
310
40903491013041105357CC10747A404C504414D5F314391E9013241105357CC90547A404CD04414D5F334190F9013441105357CD10343E404D504414D5F3540D0F9013641105357CD90247A404DD04414D5F374110F9013841105357CE10143E404E504414D5F397F641102324141505357CC4C10747A408D10505414D5F31
310
3140D0F902495041505357CC4C90747902408C13905414D5F304E41D1E902314E41505357CC5390E47A408C93905414D5F324E4151E902334E41505357CCD390643E408D13905414D5F344E40D0F902354E41505357CD5390343E408D93905414D5F364E4091E902374E41505357CDD390443E408E13905414D5F384E4050F
310
902394E41505357CE539FD90440CC9053906414D5F31304E41D1E90334414E41905357CC4C5390343E40D25413906414D5F31324E41D1E409044B4C494E41505357D0D310143D094112539193D08414D5F50415245464110F42D055241484D3541905357D093D4907479094115925155D08414D5F56494557534050F42D064
310
24548494E4441905357D253959FD90D415514905253105414D5F545240D0F4250348494441905357D2125110743D0940D59254D06414D5F56495341D1E4250650415244494D42505357D4105491125350343D0941949151911253509414D5F52454644494D4110F4257641105315149013441D1E411091531250134CFFFFFF
310
FF411092139590139CFFFFFFFF415092139594D06424548494E44CFFFFFFFF41109312511023441CFFFFFFFF411093D0541023441CFFFFFFFF411093D48C9055241484D354050F411093D48CD055241484D354091E411093D48D5055241484D35CFFFFFFFF411093D48DD055241484D354793C41109410541023441CFFFFFF
310
FF41109411561023441CFFFFFFFF411095111250135CFFFFFFFF4110D0530C90134CFFFFFFFF4110D0530CD01344091E4110D0530D5013441D1E4110D0530DD01344793C4110D1539390137CFFFFFFFF4110D15395D0137CFFFFFFFF4110D312539044B4C494ECFFFFFFFF4110D3D38C50130CFFFFFFFF4110D3D38C90131C
310
FFFFFFFF4110D3D38CD0132CFFFFFFFF4110D3D38D10132CFFFFFFFF411111549410134CFFFFFFFF411111551050134CFFFFFFFF4111125051D0135CFFFFFFFF411112531250135CFFFFFFFF411112535410650415244494DCFFFFFFFF411112535490652454644494DCFFFFFFFF41115613541023441CFFFFFFFF41119153
310
5390138CFFFFFFFF4151915354139013840CFFFFFFFF4151915354D41023441CFFFFFFFF4151915354D5102344140D0F41519153559390132CFFFFFFFF4151915355951013240D0F411193105510130CFFFFFFFF41119490549023441CFFFFFFFF4111D4931250135CFFFFFFFF4111D593125023441CFFFFFFFF4112105510
310
D0138CFFFFFFFF411212511390133CFFFFFFFF4112125115D0133CFFFFFFFF411213125390134CFFFFFFFF411213D0D390137CFFFFFFFF411213D0D5D0137CFFFFFFFF4112539193D04494E464FCFFFFFFFF411310511250134CFFFFFFFF411311505110135CFFFFFFFF419397D0921395902394ECFFFFFFFF419397D0D3D3
310
8C502304ECFFFFFFFF419397D0D3D38C902314ECFFFFFFFF419397D0D3D38CD02324ECFFFFFFFF419397D0D3D38D102324ECFFFFFFFF419397D0D15393902374ECFFFFFFFF419397D0D15395D02374ECFFFFFFFF419397D1125312502354ECFFFFFFFF419397D2105510D02384ECFFFFFFFF419397D2125113902334ECFFFF
310
FFFF419397D2125115D02334ECFFFFFFFF419397D3115051102354ECFFFFFFFF419397D391D25410349504ECFFFFFFFF419397D412105390334414ECFFFFFFFF419397D510D3D3902304ECFFFFFFFF419397D5121312502344ECFFFFFFFF419397D5131153902304ECFFFFFFFF419397D516150CD02364ECFFFFFFFF419397
310
D594131250332414ECFFFFFFFF411391D2541024950CFFFFFFFF411410530C9055241484D354050F411410530CD055241484D354091E411410530D5055241484D35CFFFFFFFF411410530DD055241484D354793C41141210539023441CFFFFFFFF411413D4D39013641D1E419413D4D49151901364151E411413D4D610136C
310
FFFFFFFF411414D150D023441CFFFFFFFF411490D1D390137CFFFFFFFF411490D1D5D0137CFFFFFFFF411491911250134CFFFFFFFF41149455149013441D1E411494D093D0130CFFFFFFFF4114D09492D013441D1E4114D0D15390137CFFFFFFFF4114D150D510134CFFFFFFFF4114D1531390137CFFFFFFFF4114D15315D0
310
137CFFFFFFFF4114D4D654D0130CFFFFFFFF4114D513125013441D1E4114D6508C50135CFFFFFFFF4114D6508C90135CFFFFFFFF4114D6508CD01354091E4114D6508D5013541D1E4114D6535390137CFFFFFFFF4114D65355D0137CFFFFFFFF411510D3D390130CFFFFFFFF411512131250134CFFFFFFFF411512550C9055
310
241484D354050F411512550CD055241484D354091E411512550D5055241484D35CFFFFFFFF411512550DD055241484D354793C411513115390130CFFFFFFFF415514905253105545241494CCFFFFFFFF41151492D390137CFFFFFFFF41151492D5D0137CFFFFFFFF411514931250134CFFFFFFFF411516150C5013640D0F41
310
1516150C9013640D0F411516150CD0136CFFFFFFFF411516150D5013641D1E411516150DD01364793C4115925155D0456494557CFFFFFFFF4115915112103484944CFFFFFFFF4115915115903564953CFFFFFFFF41159413125023241CFFFFFFFF411692569050134CFFFFFFFFAA7F5013F90A4391E41D1E4190F4151E4110
310
F40D0F4091E4050F4793C7F600
340
15
340
15
340
15
340
4C
340
15
340
15
340
15
340
3D
340
15
340
15
340
3D
340
50
340
15
340
15
340
15
340
15
340
4C
340
15
340
15
340
15
340
3D
340
15
340
15
340
3D
340
50
340
15
340
75C
340
15
340
15
340
15
340
15
340
15
340
4C
340
15
340
15
340
15
340
4D
340
14
340
14
340
14
340
14
340
14
340
14
340
14
340
14
340
14
340
14
340
14
340
14
340
14
340
14
340
14
340
14
340
3E
340
14
340
14
340
14
340
14
340
14
340
14
340
50
340
14
340
14
340
14
340
14
340
14
340
14
340
14
340
14
340
15
340
14
340
14
340
14
340
14
340
14
340
14
340
14
340
14
340
4D
340
14
340
14
340
3E
340
14
340
14
340
14
340
14
340
14
340
14
340
14
340
14
340
14
340
3E
340
14
340
14
340
14
340
4D
340
14
340
14
340
14
340
14
340
14
340
4D
340
14
340
14
340
50
340
14
340
14
340
14
340
14
340
14
340
14
340
14
340
14
340
14
340
14
340
3E
340
14
340
14
340
3E
340
14
340
14
340
15
340
14
340
3E
340
14
340
14
340
4D
340
14
340
14
340
15
340
14
340
3E
340
14
340
14
340
4D
340
14
340
14
340
14
340
14
340
14
340
14
340
3E
340
14
340
14
340
14
340
14
340
14
340
14
340
14
340
14
340
14
340
14
340
50
340
762
 94
        0
  0
ACAD_PROXY_OBJECT
  5
769
102
{ACAD_REACTORS
330
764
102
}
330
764
100
AcDbProxyObject
 90
      499
 91
      522
 95
   393239
 70
     0
 93
      253
310
43D1444494D454E53494F4E2C414D44545F2A5F44494D404A9012A404A9012AC
 94
        0
  0
ACAD_PROXY_OBJECT
  5
768
102
{ACAD_REACTORS
330
764
102
}
330
764
100
AcDbProxyObject
 90
      499
 91
      522
 95
   393239
 70
     0
 93
      181
310
43D012A42D05357D191504B505357CA9012A404A9012AD
 94
        0
  0
ACAD_PROXY_OBJECT
  5
765
102
{ACAD_REACTORS
330
764
102
}
330
764
100
AcDbProxyObject
 90
      499
 91
      522
 95
   393239
 70
     0
 93
      133
310
43D054841544348404A9012A404A9012A8
 94
        0
  0
ACAD_PROXY_OBJECT
  5
766
102
{ACAD_REACTORS
330
764
102
}
330
764
100
AcDbProxyObject
 90
      499
 91
      522
 95
   393239
 70
     0
 93
      549
310
43D044C494E4549CE0B0E138B0A8B4E0B0A8B4E138B105357CE0B105357CE138B0A8B505357CE0B0A8B505357CE139012A404A910494E534552542C5354445041525432448
 94
        0
  0
ACAD_PROXY_OBJECT
  5
767
102
{ACAD_REACTORS
330
764
102
}
330
764
100
AcDbProxyObject
 90
      499
 91
      522
 95
   393239
 70
     0
 93
      909
310
43D6641434D46434652414D452C41434D444154554D5441524745542C41434D444154554D49442C41434D57454C4453594D2C41434D5355524653594D2C41434D4645415449442C41434D504152545245462C41434D42414C4C4F4F4E2C414D44544544474553594D404A9012A404A9012AC
 94
        0
  0
LAYER_INDEX
  5
7DB
102
{ACAD_REACTORS
330
7DA
102
}
330
7DA
100
AcDbIndex
 40
2454364.392546042
100
AcDbLayerIndex
  8
0
360
7DC
 90
        2
  8
BORD
360
7DD
 90
        0
  8
TEXT
360
7DE
 90
        0
  8
TEXTF
360
7DF
 90
        0
  8
BTEXTF
360
7E0
 90
        0
  8
OBJ
360
7E1
 90
        0
  8
BTEXT
360
7E2
 90
        0
  8
BILLMATL
360
7E3
 90
        0
  0
ACAD_PROXY_OBJECT
  5
756
102
{ACAD_REACTORS
330
755
102
}
330
755
100
AcDbProxyObject
 90
      499
 91
      520
 95
   393239
 70
     0
 93
      139
310
057356C1D35406406AA8FFFFFFFF09AA4040
330
1E
330
0
330
0
 94
        0
  0
ACAD_PROXY_OBJECT
  5
752
102
{ACAD_REACTORS
330
751
102
}
330
751
100
AcDbProxyObject
 90
      499
 91
      518
 95
   393239
 70
     0
 93
     2619
310
4050B44574753455454494E4753A0E8482A68AA6A88882A08829CA69284A1A0A723A0A92920ACA0A8419983E1A1ABE1B1820C868A9C829C8E82A12686AF87260F862666A8321A2A72224A0A50000000000000701FA0E868A9C889282A682A16605C6AF8625C60F8625C6A83A1A2A72224A9AA250000000000000601FA0C868
310
A9C988A9C940000000000001C07E8321A2A727A323250000000000000701FA128698929C82A4A482B282A1C605C62646AF8605C646AF8605C6A8421A624A722AA2CA820A82AC2624A722A1288AE8EAAA68682988A94283A620A9AA27A12520A80982109A82968AAC928AAE9FA04832922AB24A9A4A0A809820AA68682988A8
310
2A066274628429AA20A72220A92220A8220A729A4A12A8929A8AA6A8829AA09415DAA4F848434E68283AB22A929A4A7A720A82989A971818220F688AE8EA68AA8A8929C8EA68A9C88FBB
 94
        0
  0
ACAD_PROXY_OBJECT
  5
753
102
{ACAD_REACTORS
330
751
102
}
330
751
100
AcDbProxyObject
 90
      499
 91
      518
 95
   393239
 70
     0
 93
      852
310
4050D5452414E5353455454494E4753A2488A482AE929C8EA8A4829CA69882A8929E9C0C00800050D4F524947494E414C4C595F4F4E0600400008529A7AAA921A2A620A723A0A81A2A72AA12AAA0A48AA68AA4AC8A0C0080001107B44574753455454494E4753454E447D0
 94
        0
  0
IDBUFFER
  5
7DC
330
0
100
AcDbIdBuffer
330
788
330
7D3
  0
IDBUFFER
  5
7DD
330
0
100
AcDbIdBuffer
  0
IDBUFFER
  5
7DE
330
0
100
AcDbIdBuffer
  0
IDBUFFER
  5
7DF
330
0
100
AcDbIdBuffer
  0
IDBUFFER
  5
7E0
330
0
100
AcDbIdBuffer
  0
IDBUFFER
  5
7E1
330
0
100
AcDbIdBuffer
  0
IDBUFFER
  5
7E2
330
0
100
AcDbIdBuffer
  0
IDBUFFER
  5
7E3
330
0
100
AcDbIdBuffer
  0
ENDSEC
  0
EOF
