  0
SECTION
  2
HEADER
  9
$ACADVER
  1
AC1015
  9
$ACADMAINTVER
 70
     6
  9
$DWGCODEPAGE
  3
ANSI_1252
  9
$INSBASE
 10
0.0
 20
0.0
 30
0.0
  9
$EXTMIN
 10
0.0
 20
0.0
 30
0.0
  9
$EXTMAX
 10
17.0
 20
11.0
 30
0.0
  9
$LIMMIN
 10
0.0
 20
0.0
  9
$LIMMAX
 10
17.0
 20
11.0
  9
$ORTHOMODE
 70
     0
  9
$REGENMODE
 70
     1
  9
$FILLMODE
 70
     1
  9
$QTEXTMODE
 70
     0
  9
$MIRRTEXT
 70
     1
  9
$LTSCALE
 40
1.0
  9
$ATTMODE
 70
     1
  9
$TEXTSIZE
 40
0.1377952756
  9
$TRACEWID
 40
0.05
  9
$TEXTSTYLE
  7
Standard
  9
$CLAYER
  8
0
  9
$CELTYPE
  6
ByLayer
  9
$CECOLOR
 62
   256
  9
$CELTSCALE
 40
1.0
  9
$DISPSILH
 70
     0
  9
$DIMSCALE
 40
1.0
  9
$DIMASZ
 40
0.2
  9
$DIMEXO
 40
0.05
  9
$DIMDLI
 40
0.38
  9
$DIMRND
 40
0.0
  9
$DIMDLE
 40
0.0
  9
$DIMEXE
 40
0.125
  9
$DIMTP
 40
0.0
  9
$DIMTM
 40
0.0
  9
$DIMTXT
 40
0.1
  9
$DIMCEN
 40
0.09
  9
$DIMTSZ
 40
0.0
  9
$DIMTOL
 70
     0
  9
$DIMLIM
 70
     0
  9
$DIMTIH
 70
     1
  9
$DIMTOH
 70
     1
  9
$DIMSE1
 70
     0
  9
$DIMSE2
 70
     0
  9
$DIMTAD
 70
     0
  9
$DIMZIN
 70
     1
  9
$DIMBLK
  1

  9
$DIMASO
 70
     1
  9
$DIMSHO
 70
     1
  9
$DIMPOST
  1

  9
$DIMAPOST
  1

  9
$DIMALT
 70
     0
  9
$DIMALTD
 70
     2
  9
$DIMALTF
 40
25.4
  9
$DIMLFAC
 40
4.0
  9
$DIMTOFL
 70
     0
  9
$DIMTVP
 40
0.0
  9
$DIMTIX
 70
     0
  9
$DIMSOXD
 70
     0
  9
$DIMSAH
 70
     0
  9
$DIMBLK1
  1

  9
$DIMBLK2
  1

  9
$DIMSTYLE
  2
Standard
  9
$DIMCLRD
 70
     0
  9
$DIMCLRE
 70
     0
  9
$DIMCLRT
 70
     0
  9
$DIMTFAC
 40
1.0
  9
$DIMGAP
 40
0.06
  9
$DIMJUST
 70
     0
  9
$DIMSD1
 70
     0
  9
$DIMSD2
 70
     0
  9
$DIMTOLJ
 70
     1
  9
$DIMTZIN
 70
     1
  9
$DIMALTZ
 70
     0
  9
$DIMALTTZ
 70
     0
  9
$DIMUPT
 70
     0
  9
$DIMDEC
 70
     4
  9
$DIMTDEC
 70
     3
  9
$DIMALTU
 70
     2
  9
$DIMALTTD
 70
     2
  9
$DIMTXSTY
  7
Standard
  9
$DIMAUNIT
 70
     0
  9
$DIMADEC
 70
     0
  9
$DIMALTRND
 40
0.0
  9
$DIMAZIN
 70
     0
  9
$DIMDSEP
 70
    46
  9
$DIMATFIT
 70
     3
  9
$DIMFRAC
 70
     0
  9
$DIMLDRBLK
  1

  9
$DIMLUNIT
 70
     2
  9
$DIMLWD
 70
    -2
  9
$DIMLWE
 70
    -2
  9
$DIMTMOVE
 70
     0
  9
$LUNITS
 70
     2
  9
$LUPREC
 70
     4
  9
$SKETCHINC
 40
0.1
  9
$FILLETRAD
 40
0.5
  9
$AUNITS
 70
     0
  9
$AUPREC
 70
     0
  9
$MENU
  1
.
  9
$ELEVATION
 40
0.0
  9
$PELEVATION
 40
0.0
  9
$THICKNESS
 40
0.0
  9
$LIMCHECK
 70
     0
  9
$CHAMFERA
 40
0.5
  9
$CHAMFERB
 40
0.5
  9
$CHAMFERC
 40
1.0
  9
$CHAMFERD
 40
0.0
  9
$SKPOLY
 70
     0
  9
$TDCREATE
 40
2455692.533338229
  9
$TDUCREATE
 40
2455692.741671563
  9
$TDUPDATE
 40
2455692.533338241
  9
$TDUUPDATE
 40
2455692.741671574
  9
$TDINDWG
 40
0.0000000116
  9
$TDUSRTIMER
 40
0.0000000116
  9
$USRTIMER
 70
     1
  9
$ANGBASE
 50
0.0
  9
$ANGDIR
 70
     0
  9
$PDMODE
 70
     0
  9
$PDSIZE
 40
-1.0
  9
$PLINEWID
 40
0.0
  9
$SPLFRAME
 70
     0
  9
$SPLINETYPE
 70
     6
  9
$SPLINESEGS
 70
     8
  9
$HANDSEED
  5
2A3
  9
$SURFTAB1
 70
     6
  9
$SURFTAB2
 70
     6
  9
$SURFTYPE
 70
     6
  9
$SURFU
 70
     6
  9
$SURFV
 70
     6
  9
$UCSBASE
  2

  9
$UCSNAME
  2

  9
$UCSORG
 10
0.0
 20
0.0
 30
0.0
  9
$UCSXDIR
 10
1.0
 20
0.0
 30
0.0
  9
$UCSYDIR
 10
0.0
 20
1.0
 30
0.0
  9
$UCSORTHOREF
  2

  9
$UCSORTHOVIEW
 70
     0
  9
$UCSORGTOP
 10
0.0
 20
0.0
 30
0.0
  9
$UCSORGBOTTOM
 10
0.0
 20
0.0
 30
0.0
  9
$UCSORGLEFT
 10
0.0
 20
0.0
 30
0.0
  9
$UCSORGRIGHT
 10
0.0
 20
0.0
 30
0.0
  9
$UCSORGFRONT
 10
0.0
 20
0.0
 30
0.0
  9
$UCSORGBACK
 10
0.0
 20
0.0
 30
0.0
  9
$PUCSBASE
  2

  9
$PUCSNAME
  2

  9
$PUCSORG
 10
0.0
 20
0.0
 30
0.0
  9
$PUCSXDIR
 10
1.0
 20
0.0
 30
0.0
  9
$PUCSYDIR
 10
0.0
 20
1.0
 30
0.0
  9
$PUCSORTHOREF
  2

  9
$PUCSORTHOVIEW
 70
     0
  9
$PUCSORGTOP
 10
0.0
 20
0.0
 30
0.0
  9
$PUCSORGBOTTOM
 10
0.0
 20
0.0
 30
0.0
  9
$PUCSORGLEFT
 10
0.0
 20
0.0
 30
0.0
  9
$PUCSORGRIGHT
 10
0.0
 20
0.0
 30
0.0
  9
$PUCSORGFRONT
 10
0.0
 20
0.0
 30
0.0
  9
$PUCSORGBACK
 10
0.0
 20
0.0
 30
0.0
  9
$USERI1
 70
     0
  9
$USERI2
 70
     0
  9
$USERI3
 70
     0
  9
$USERI4
 70
     0
  9
$USERI5
 70
     0
  9
$USERR1
 40
0.0
  9
$USERR2
 40
0.0
  9
$USERR3
 40
0.0
  9
$USERR4
 40
0.0
  9
$USERR5
 40
0.0
  9
$WORLDVIEW
 70
     1
  9
$SHADEDGE
 70
     3
  9
$SHADEDIF
 70
    70
  9
$TILEMODE
 70
     1
  9
$MAXACTVP
 70
    64
  9
$PINSBASE
 10
0.0
 20
0.0
 30
0.0
  9
$PLIMCHECK
 70
     0
  9
$PEXTMIN
 10
1.0000000000E+20
 20
1.0000000000E+20
 30
1.0000000000E+20
  9
$PEXTMAX
 10
-1.0000000000E+20
 20
-1.0000000000E+20
 30
-1.0000000000E+20
  9
$PLIMMIN
 10
0.0
 20
0.0
  9
$PLIMMAX
 10
12.0
 20
9.0
  9
$UNITMODE
 70
     0
  9
$VISRETAIN
 70
     1
  9
$PLINEGEN
 70
     0
  9
$PSLTSCALE
 70
     1
  9
$TREEDEPTH
 70
  3020
  9
$CMLSTYLE
  2
Standard
  9
$CMLJUST
 70
     0
  9
$CMLSCALE
 40
1.0
  9
$PROXYGRAPHICS
 70
     1
  9
$MEASUREMENT
 70
     0
  9
$CELWEIGHT
370
    -1
  9
$ENDCAPS
280
     0
  9
$JOINSTYLE
280
     0
  9
$LWDISPLAY
290
     1
  9
$INSUNITS
 70
     1
  9
$HYPERLINKBASE
  1

  9
$STYLESHEET
  1

  9
$XEDIT
290
     1
  9
$CEPSNTYPE
380
     0
  9
$PSTYLEMODE
290
     1
  9
$FINGERPRINTGUID
  2
{04D9B360-C6DC-43FC-93E7-5800798B38A1}
  9
$VERSIONGUID
  2
{FAEB1C32-E019-11D5-929B-00C0DF256EC4}
  9
$EXTNAMES
290
     1
  9
$PSVPSCALE
 40
0.0
  9
$OLESTARTUP
290
     0
  0
ENDSEC
  0
SECTION
  2
CLASSES
  0
CLASS
  1
ACDBDICTIONARYWDFLT
  2
AcDbDictionaryWithDefault
  3
ObjectDBX Classes
 90
        0
280
     0
281
     0
  0
CLASS
  1
VISUALSTYLE
  2
AcDbVisualStyle
  3
ObjectDBX Classes
 90
     4095
280
     0
281
     0
  0
CLASS
  1
MATERIAL
  2
AcDbMaterial
  3
ObjectDBX Classes
 90
     1153
280
     0
281
     0
  0
CLASS
  1
ACDBPLACEHOLDER
  2
AcDbPlaceHolder
  3
ObjectDBX Classes
 90
        0
280
     0
281
     0
  0
CLASS
  1
LAYOUT
  2
AcDbLayout
  3
ObjectDBX Classes
 90
        0
280
     0
281
     0
  0
ENDSEC
  0
SECTION
  2
TABLES
  0
TABLE
  2
VPORT
  5
8
330
0
100
AcDbSymbolTable
 70
     1
  0
VPORT
  5
29
330
8
100
AcDbSymbolTableRecord
100
AcDbViewportTableRecord
  2
*Active
 70
     0
 10
0.0
 20
0.0
 11
1.0
 21
1.0
 12
8.5
 22
5.5
 13
0.0
 23
0.0
 14
0.5
 24
0.5
 15
0.5
 25
0.5
 16
0.0
 26
0.0
 36
1.0
 17
0.0
 27
0.0
 37
0.0
 40
11.0
 41
1.5454545455
 42
50.0
 43
0.0
 44
0.0
 50
0.0
 51
0.0
 71
     0
 72
  2000
 73
     1
 74
     3
 75
     0
 76
     0
 77
     0
 78
     0
281
     0
 65
     1
110
0.0
120
0.0
130
0.0
111
1.0
121
0.0
131
0.0
112
0.0
122
1.0
132
0.0
 79
     0
146
0.0
  0
ENDTAB
  0
TABLE
  2
LTYPE
  5
5
330
0
100
AcDbSymbolTable
 70
     6
  0
LTYPE
  5
14
330
5
100
AcDbSymbolTableRecord
100
AcDbLinetypeTableRecord
  2
ByBlock
 70
     0
  3

 72
    65
 73
     0
 40
0.0
  0
LTYPE
  5
15
330
5
100
AcDbSymbolTableRecord
100
AcDbLinetypeTableRecord
  2
ByLayer
 70
     0
  3

 72
    65
 73
     0
 40
0.0
  0
LTYPE
  5
16
330
5
100
AcDbSymbolTableRecord
100
AcDbLinetypeTableRecord
  2
Continuous
 70
     0
  3
Solid line
 72
    65
 73
     0
 40
0.0
  0
LTYPE
  5
3F
330
5
100
AcDbSymbolTableRecord
100
AcDbLinetypeTableRecord
  2
HIDDEN
 70
     0
  3
Hidden __ __ __ __ __ __ __ __ __ __ __ __ __ __
 72
    65
 73
     2
 40
0.075
 49
0.05
 74
     0
 49
-0.025
 74
     0
  0
LTYPE
  5
40
330
5
100
AcDbSymbolTableRecord
100
AcDbLinetypeTableRecord
  2
PHANTOM
 70
     0
  3
Phantom ______  __  __  ______  __  __  ______
 72
    65
 73
     6
 40
0.5
 49
0.25
 74
     0
 49
-0.05
 74
     0
 49
0.05
 74
     0
 49
-0.05
 74
     0
 49
0.05
 74
     0
 49
-0.05
 74
     0
  0
LTYPE
  5
41
330
5
100
AcDbSymbolTableRecord
100
AcDbLinetypeTableRecord
  2
CENTER
 70
     0
  3
Center ____ _ ____ _ ____ _ ____ _ ____ _ ____
 72
    65
 73
     4
 40
0.4
 49
0.25
 74
     0
 49
-0.05
 74
     0
 49
0.05
 74
     0
 49
-0.05
 74
     0
  0
LTYPE
  5
42
330
5
100
AcDbSymbolTableRecord
100
AcDbLinetypeTableRecord
  2
CENTERX2
 70
     0
  3
Center (2x) ________  __  ________  __  _____
 72
    65
 73
     4
 40
0.8
 49
0.5
 74
     0
 49
-0.1
 74
     0
 49
0.1
 74
     0
 49
-0.1
 74
     0
  0
LTYPE
  5
43
330
5
100
AcDbSymbolTableRecord
100
AcDbLinetypeTableRecord
  2
DOT2
 70
     0
  3
Dot (.5x) ........................................
 72
    65
 73
     2
 40
0.025
 49
0.0
 74
     0
 49
-0.025
 74
     0
  0
ENDTAB
  0
TABLE
  2
LAYER
  5
2
330
0
100
AcDbSymbolTable
 70
     7
  0
LAYER
  5
10
330
2
100
AcDbSymbolTableRecord
100
AcDbLayerTableRecord
  2
0
 70
     0
 62
     7
  6
Continuous
370
    -3
390
F
  0
LAYER
  5
44
330
2
100
AcDbSymbolTableRecord
100
AcDbLayerTableRecord
  2
SLD-0
 70
     0
 62
     7
  6
Continuous
370
    -3
390
F
  0
LAYER
  5
45
330
2
100
AcDbSymbolTableRecord
100
AcDbLayerTableRecord
  2
BORD
 70
     0
 62
     7
  6
Continuous
370
    -3
390
F
  0
LAYER
  5
46
330
2
100
AcDbSymbolTableRecord
100
AcDbLayerTableRecord
  2
TEXT
 70
     0
 62
     1
  6
Continuous
370
    -3
390
F
  0
LAYER
  5
47
330
2
100
AcDbSymbolTableRecord
100
AcDbLayerTableRecord
  2
TEXTF
 70
     0
 62
   150
  6
Continuous
370
    -3
390
F
  0
LAYER
  5
48
330
2
100
AcDbSymbolTableRecord
100
AcDbLayerTableRecord
  2
BTEXTF
 70
     0
 62
     5
  6
Continuous
370
    -3
390
F
  0
LAYER
  5
49
330
2
100
AcDbSymbolTableRecord
100
AcDbLayerTableRecord
  2
OBJ
 70
     0
 62
     7
  6
Continuous
370
    -3
390
F
  0
ENDTAB
  0
TABLE
  2
STYLE
  5
3
330
0
100
AcDbSymbolTable
 70
     1
  0
STYLE
  5
11
330
3
100
AcDbSymbolTableRecord
100
AcDbTextStyleTableRecord
  2
Standard
 70
     0
 40
0.0
 41
1.0
 50
0.0
 71
     0
 42
0.2
  3
txt
  4

  0
ENDTAB
  0
TABLE
  2
VIEW
  5
6
330
0
100
AcDbSymbolTable
 70
     0
  0
ENDTAB
  0
TABLE
  2
UCS
  5
7
330
0
100
AcDbSymbolTable
 70
     0
  0
ENDTAB
  0
TABLE
  2
APPID
  5
9
330
0
100
AcDbSymbolTable
 70
     1
  0
APPID
  5
12
330
9
100
AcDbSymbolTableRecord
100
AcDbRegAppTableRecord
  2
ACAD
 70
     0
  0
ENDTAB
  0
TABLE
  2
DIMSTYLE
  5
A
330
0
100
AcDbSymbolTable
 70
     1
100
AcDbDimStyleTable
  0
DIMSTYLE
105
27
330
A
100
AcDbSymbolTableRecord
100
AcDbDimStyleTableRecord
  2
Standard
 70
     0
178
     0
340
11
  0
ENDTAB
  0
TABLE
  2
BLOCK_RECORD
  5
1
330
0
100
AcDbSymbolTable
 70
     1
  0
BLOCK_RECORD
  5
1F
330
1
100
AcDbSymbolTableRecord
100
AcDbBlockTableRecord
  2
*Model_Space
340
22
  0
BLOCK_RECORD
  5
1B
330
1
100
AcDbSymbolTableRecord
100
AcDbBlockTableRecord
  2
*Paper_Space
340
1E
  0
BLOCK_RECORD
  5
23
330
1
100
AcDbSymbolTableRecord
100
AcDbBlockTableRecord
  2
*Paper_Space0
340
26
  0
ENDTAB
  0
ENDSEC
  0
SECTION
  2
BLOCKS
  0
BLOCK
  5
20
330
1F
100
AcDbEntity
  8
0
100
AcDbBlockBegin
  2
*Model_Space
 70
     0
 10
0.0
 20
0.0
 30
0.0
  3
*Model_Space
  1

  0
ENDBLK
  5
21
330
1F
100
AcDbEntity
  8
0
100
AcDbBlockEnd
  0
BLOCK
  5
1C
330
1B
100
AcDbEntity
 67
     1
  8
0
100
AcDbBlockBegin
  2
*Paper_Space
 70
     0
 10
0.0
 20
0.0
 30
0.0
  3
*Paper_Space
  1

  0
ENDBLK
  5
1D
330
1B
100
AcDbEntity
 67
     1
  8
0
100
AcDbBlockEnd
  0
BLOCK
  5
24
330
23
100
AcDbEntity
  8
0
100
AcDbBlockBegin
  2
*Paper_Space0
 70
     0
 10
0.0
 20
0.0
 30
0.0
  3
*Paper_Space0
  1

  0
ENDBLK
  5
25
330
23
100
AcDbEntity
  8
0
100
AcDbBlockEnd
  0
ENDSEC
  0
SECTION
  2
ENTITIES
  0
LINE
  5
4A
330
1F
100
AcDbEntity
  8
0
  6
Continuous
 62
     7
370
    15
100
AcDbLine
 10
9.112232208
 20
4.3370098883
 30
0.0
 11
9.112232208
 21
4.4635098203
 31
0.0
  0
LINE
  5
4B
330
1F
100
AcDbEntity
  8
0
  6
Continuous
 62
     7
370
    15
100
AcDbLine
 10
8.4060144063
 20
4.4635098203
 30
0.0
 11
8.4060144063
 21
4.3370098883
 31
0.0
  0
LINE
  5
4C
330
1F
100
AcDbEntity
  8
0
  6
Continuous
 62
     7
370
    15
100
AcDbLine
 10
9.112232208
 20
4.0620098385
 30
0.0
 11
9.112232208
 21
4.1885098438
 31
0.0
  0
LINE
  5
4D
330
1F
100
AcDbEntity
  8
0
  6
Continuous
 62
     7
370
    15
100
AcDbLine
 10
8.4060144063
 20
4.1885098438
 30
0.0
 11
8.4060144063
 21
4.0620098385
 31
0.0
  0
LINE
  5
4E
330
1F
100
AcDbEntity
  8
0
  6
Continuous
 62
     7
370
    15
100
AcDbLine
 10
8.665373306
 20
5.291581941
 30
0.0
 11
8.665373306
 21
5.1740820317
 31
0.0
  0
LINE
  5
4F
330
1F
100
AcDbEntity
  8
0
  6
Continuous
 62
     7
370
    15
100
AcDbLine
 10
8.665373306
 20
5.0915819581
 30
0.0
 11
8.665373306
 21
4.9424547742
 31
0.0
  0
LINE
  5
50
330
1F
100
AcDbEntity
  8
0
  6
Continuous
 62
     7
370
    15
100
AcDbLine
 10
8.8528733083
 20
4.9424547742
 30
0.0
 11
8.8528733083
 21
5.0915819581
 31
0.0
  0
LINE
  5
51
330
1F
100
AcDbEntity
  8
0
  6
Continuous
 62
     7
370
    15
100
AcDbLine
 10
8.8528733083
 20
5.1740820317
 30
0.0
 11
8.8528733083
 21
5.291581941
 31
0.0
  0
ARC
  5
52
330
1F
100
AcDbEntity
  8
0
  6
Continuous
 62
     7
370
    15
100
AcDbCircle
 10
8.4665791921
 20
5.8878319063
 30
0.0
 40
0.0312500000000009
100
AcDbArc
 50
90.0
 51
180.0
  0
ARC
  5
53
330
1F
100
AcDbEntity
  8
0
  6
Continuous
 62
     7
370
    15
100
AcDbCircle
 10
8.4665791921
 20
5.5003319463
 30
0.0
 40
0.0312500000000009
100
AcDbArc
 50
180.0
 51
270.0
  0
LINE
  5
54
330
1F
100
AcDbEntity
  8
0
  6
Continuous
 62
     7
370
    15
100
AcDbLine
 10
8.4353291777
 20
5.8878319597
 30
0.0
 11
8.4353291777
 21
5.5003319562
 31
0.0
  0
ARC
  5
55
330
1F
100
AcDbEntity
  8
0
  6
Continuous
 62
     7
370
    15
100
AcDbCircle
 10
9.2262056402
 20
5.8878319063
 30
0.0
 40
0.0312500000000009
100
AcDbArc
 50
0.0
 51
90.0
  0
LINE
  5
56
330
1F
100
AcDbEntity
  8
0
  6
Continuous
 62
     7
370
    15
100
AcDbLine
 10
9.257455647
 20
5.5003319562
 30
0.0
 11
9.257455647
 21
5.8878319597
 31
0.0
  0
ARC
  5
57
330
1F
100
AcDbEntity
  8
0
  6
Continuous
 62
     7
370
    15
100
AcDbCircle
 10
9.2262056402
 20
5.5003319463
 30
0.0
 40
0.0312500000000009
100
AcDbArc
 50
270.0
 51
0.0
  0
ARC
  5
58
330
1F
100
AcDbEntity
  8
0
  6
Continuous
 62
     7
370
    15
100
AcDbCircle
 10
9.0872483072
 20
5.4534569463
 30
0.0
 40
0.015625
100
AcDbArc
 50
90.0
 51
180.0
  0
ARC
  5
59
330
1F
100
AcDbEntity
  8
0
  6
Continuous
 62
     7
370
    15
100
AcDbCircle
 10
8.4309983072
 20
5.4534569463
 30
0.0
 40
0.015625
100
AcDbArc
 50
0.0
 51
90.0
  0
LINE
  5
5A
330
1F
100
AcDbEntity
  8
0
  6
Continuous
 62
     7
370
    15
100
AcDbLine
 10
8.4466232972
 20
5.453456951
 30
0.0
 11
8.4466232972
 21
5.3897069675
 31
0.0
  0
LINE
  5
5B
330
1F
100
AcDbEntity
  8
0
  6
Continuous
 62
     7
370
    15
100
AcDbLine
 10
9.0716233171
 20
5.3897069675
 30
0.0
 11
9.0716233171
 21
5.453456951
 31
0.0
  0
ARC
  5
5C
330
1F
100
AcDbEntity
  8
0
  6
Continuous
 62
     7
370
    15
100
AcDbCircle
 10
9.0559983072
 20
5.3897069608
 30
0.0
 40
0.015625
100
AcDbArc
 50
270.0
 51
0.0
  0
ARC
  5
5D
330
1F
100
AcDbEntity
  8
0
  6
Continuous
 62
     7
370
    15
100
AcDbCircle
 10
8.4622483072
 20
5.3897069608
 30
0.0
 40
0.015625
100
AcDbArc
 50
180.0
 51
270.0
  0
ARC
  5
5E
330
1F
100
AcDbEntity
  8
0
  6
Continuous
 62
     7
370
    15
100
AcDbCircle
 10
8.2253733072
 20
5.5003319463
 30
0.0
 40
0.0312500000000018
100
AcDbArc
 50
180.0
 51
270.0
  0
ARC
  5
5F
330
1F
100
AcDbEntity
  8
0
  6
Continuous
 62
     7
370
    15
100
AcDbCircle
 10
8.2253733072
 20
5.8878319063
 30
0.0
 40
0.0312500000000018
100
AcDbArc
 50
90.0
 51
180.0
  0
LINE
  5
60
330
1F
100
AcDbEntity
  8
0
  6
Continuous
 62
     7
370
    15
100
AcDbLine
 10
8.1941233041
 20
5.8878319597
 30
0.0
 11
8.1941233041
 21
5.5003319562
 31
0.0
  0
ARC
  5
61
330
1F
100
AcDbEntity
  8
0
  6
Continuous
 62
     7
370
    15
100
AcDbCircle
 10
8.4191233072
 20
3.5799548365
 30
0.0
 40
0.0249999999999999
100
AcDbArc
 50
270.0
 51
0.0
  0
ARC
  5
62
330
1F
100
AcDbEntity
  8
0
  6
Continuous
 62
     7
370
    15
100
AcDbCircle
 10
9.0991233072
 20
3.5799548365
 30
0.0
 40
0.0250000000000004
100
AcDbArc
 50
180.0
 51
270.0
  0
LINE
  5
63
330
1F
100
AcDbEntity
  8
0
  6
Continuous
 62
     7
370
    15
100
AcDbLine
 10
8.4441233194
 20
3.964954843
 30
0.0
 11
8.4441233194
 21
3.5799548355
 31
0.0
  0
LINE
  5
64
330
1F
100
AcDbEntity
  8
0
  6
Continuous
 62
     7
370
    15
100
AcDbLine
 10
9.0741232949
 20
3.5799548355
 30
0.0
 11
9.0741232949
 21
3.964954843
 31
0.0
  0
LINE
  5
65
330
1F
100
AcDbEntity
  8
0
  6
Continuous
 62
     7
370
    15
100
AcDbLine
 10
9.0741232949
 20
3.964954843
 30
0.0
 11
9.0591232999
 21
3.979954838
 31
0.0
  0
LINE
  5
66
330
1F
100
AcDbEntity
  8
0
  6
Continuous
 62
     7
370
    15
100
AcDbLine
 10
8.4591233144
 20
3.979954838
 30
0.0
 11
8.4441233194
 21
3.964954843
 31
0.0
  0
ARC
  5
67
330
1F
100
AcDbEntity
  8
0
  6
Continuous
 62
     7
370
    15
100
AcDbCircle
 10
8.5091233072
 20
2.9549548365
 30
0.0
 40
0.0250000000000004
100
AcDbArc
 50
0.0
 51
90.0
  0
ARC
  5
68
330
1F
100
AcDbEntity
  8
0
  6
Continuous
 62
     7
370
    15
100
AcDbCircle
 10
9.0091233072
 20
2.9549548365
 30
0.0
 40
0.0250000000000004
100
AcDbArc
 50
90.0
 51
180.0
  0
LINE
  5
69
330
1F
100
AcDbEntity
  8
0
  6
Continuous
 62
     7
370
    15
100
AcDbLine
 10
8.534123308
 20
2.7449548665
 30
0.0
 11
8.5491233031
 21
2.7299548531
 31
0.0
  0
LINE
  5
6A
330
1F
100
AcDbEntity
  8
0
  6
Continuous
 62
     7
370
    15
100
AcDbLine
 10
8.9691233112
 20
2.7299548531
 30
0.0
 11
8.9841233063
 21
2.7449548665
 31
0.0
  0
LINE
  5
6B
330
1F
100
AcDbEntity
  8
0
  6
Continuous
 62
     7
370
    15
100
AcDbLine
 10
8.534123308
 20
2.9549548339
 30
0.0
 11
8.534123308
 21
2.7449548665
 31
0.0
  0
LINE
  5
6C
330
1F
100
AcDbEntity
  8
0
  6
Continuous
 62
     7
370
    15
100
AcDbLine
 10
8.9841233063
 20
2.7449548665
 30
0.0
 11
8.9841233063
 21
2.9549548339
 31
0.0
  0
LINE
  5
6D
330
1F
100
AcDbEntity
  8
0
  6
Continuous
 62
     7
370
    15
100
AcDbLine
 10
8.3291233146
 20
3.0349548564
 30
0.0
 11
8.3841233025
 21
2.9799548318
 31
0.0
  0
LINE
  5
6E
330
1F
100
AcDbEntity
  8
0
  6
Continuous
 62
     7
370
    15
100
AcDbLine
 10
8.3841233025
 20
3.5549548377
 30
0.0
 11
8.3291233146
 21
3.4999548314
 31
0.0
  0
LINE
  5
6F
330
1F
100
AcDbEntity
  8
0
  6
Continuous
 62
     7
370
    15
100
AcDbLine
 10
9.1341233118
 20
2.9799548318
 30
0.0
 11
9.1891232998
 21
3.0349548564
 31
0.0
  0
LINE
  5
70
330
1F
100
AcDbEntity
  8
0
  6
Continuous
 62
     7
370
    15
100
AcDbLine
 10
9.1891232998
 20
3.4999548314
 30
0.0
 11
9.1341233118
 21
3.5549548377
 31
0.0
  0
LINE
  5
71
330
1F
100
AcDbEntity
  8
0
  6
Continuous
 62
     7
370
    15
100
AcDbLine
 10
8.3291233146
 20
3.4999548314
 30
0.0
 11
8.3291233146
 21
3.0349548564
 31
0.0
  0
LINE
  5
72
330
1F
100
AcDbEntity
  8
0
  6
Continuous
 62
     7
370
    15
100
AcDbLine
 10
9.1891232998
 20
3.0349548564
 30
0.0
 11
9.1891232998
 21
3.4999548314
 31
0.0
  0
LINE
  5
73
330
1F
100
AcDbEntity
  8
0
  6
Continuous
 62
     7
370
    15
100
AcDbLine
 10
9.0228733103
 20
3.979954838
 30
0.0
 11
9.0228733103
 21
4.0620098385
 31
0.0
  0
LINE
  5
74
330
1F
100
AcDbEntity
  8
0
  6
Continuous
 62
     7
370
    15
100
AcDbLine
 10
9.0228733103
 20
4.1885098438
 30
0.0
 11
9.0228733103
 21
4.3370098883
 31
0.0
  0
LINE
  5
75
330
1F
100
AcDbEntity
  8
0
  6
Continuous
 62
     7
370
    15
100
AcDbLine
 10
9.0228733103
 20
4.4635098203
 30
0.0
 11
9.0228733103
 21
4.8174548582
 31
0.0
  0
LINE
  5
76
330
1F
100
AcDbEntity
  8
0
  6
Continuous
 62
     7
370
    15
100
AcDbLine
 10
8.495373304
 20
4.8174548582
 30
0.0
 11
8.495373304
 21
4.4635098203
 31
0.0
  0
LINE
  5
77
330
1F
100
AcDbEntity
  8
0
  6
Continuous
 62
     7
370
    15
100
AcDbLine
 10
8.495373304
 20
4.3370098883
 30
0.0
 11
8.495373304
 21
4.1885098438
 31
0.0
  0
LINE
  5
78
330
1F
100
AcDbEntity
  8
0
  6
Continuous
 62
     7
370
    15
100
AcDbLine
 10
8.495373304
 20
4.0620098385
 30
0.0
 11
8.495373304
 21
3.979954838
 31
0.0
  0
LINE
  5
79
330
1F
100
AcDbEntity
  8
0
  6
Continuous
 62
     7
370
    15
100
AcDbLine
 10
8.5291233158
 20
4.842454856
 30
0.0
 11
8.5291233158
 21
4.8174548582
 31
0.0
  0
LINE
  5
7A
330
1F
100
AcDbEntity
  8
0
  6
Continuous
 62
     7
370
    15
100
AcDbLine
 10
8.9891232985
 20
4.8174548582
 30
0.0
 11
8.9891232985
 21
4.842454856
 31
0.0
  0
LINE
  5
7B
330
1F
100
AcDbEntity
  8
0
  6
Continuous
 62
     7
370
    15
100
AcDbLine
 10
8.6075688638
 20
4.4635098203
 30
0.0
 11
8.6075688638
 21
4.3370098883
 31
0.0
  0
LINE
  5
7C
330
1F
100
AcDbEntity
  8
0
  6
Continuous
 62
     7
370
    15
100
AcDbLine
 10
8.9106777506
 20
4.3370098883
 30
0.0
 11
8.9106777506
 21
4.4635098203
 31
0.0
  0
LINE
  5
7D
330
1F
100
AcDbEntity
  8
0
  6
Continuous
 62
     7
370
    15
100
AcDbLine
 10
8.6075688638
 20
4.4635098203
 30
0.0
 11
8.9106777506
 21
4.4635098203
 31
0.0
  0
LINE
  5
7E
330
1F
100
AcDbEntity
  8
0
  6
Continuous
 62
     7
370
    15
100
AcDbLine
 10
8.6075688638
 20
4.3370098883
 30
0.0
 11
8.9106777506
 21
4.3370098883
 31
0.0
  0
LINE
  5
7F
330
1F
100
AcDbEntity
  8
0
  6
Continuous
 62
     7
370
    15
100
AcDbLine
 10
8.9539790162
 20
4.4635098203
 30
0.0
 11
8.9539790162
 21
4.3370098883
 31
0.0
  0
LINE
  5
80
330
1F
100
AcDbEntity
  8
0
  6
Continuous
 62
     7
370
    15
100
AcDbLine
 10
8.9106777506
 20
4.4635098203
 30
0.0
 11
8.9539790162
 21
4.4635098203
 31
0.0
  0
LINE
  5
81
330
1F
100
AcDbEntity
  8
0
  6
Continuous
 62
     7
370
    15
100
AcDbLine
 10
8.9539790162
 20
4.3370098883
 30
0.0
 11
8.9106777506
 21
4.3370098883
 31
0.0
  0
LINE
  5
82
330
1F
100
AcDbEntity
  8
0
  6
Continuous
 62
     7
370
    15
100
AcDbLine
 10
8.5642675981
 20
4.3370098883
 30
0.0
 11
8.5642675981
 21
4.4635098203
 31
0.0
  0
LINE
  5
83
330
1F
100
AcDbEntity
  8
0
  6
Continuous
 62
     7
370
    15
100
AcDbLine
 10
8.5642675981
 20
4.4635098203
 30
0.0
 11
8.6075688638
 21
4.4635098203
 31
0.0
  0
LINE
  5
84
330
1F
100
AcDbEntity
  8
0
  6
Continuous
 62
     7
370
    15
100
AcDbLine
 10
8.6075688638
 20
4.3370098883
 30
0.0
 11
8.5642675981
 21
4.3370098883
 31
0.0
  0
LINE
  5
85
330
1F
100
AcDbEntity
  8
0
  6
Continuous
 62
     7
370
    15
100
AcDbLine
 10
9.1055334687
 20
4.3370098883
 30
0.0
 11
9.1055334687
 21
4.4635098203
 31
0.0
  0
LINE
  5
86
330
1F
100
AcDbEntity
  8
0
  6
Continuous
 62
     7
370
    15
100
AcDbLine
 10
8.9539790162
 20
4.4635098203
 30
0.0
 11
9.1055334687
 21
4.4635098203
 31
0.0
  0
LINE
  5
87
330
1F
100
AcDbEntity
  8
0
  6
Continuous
 62
     7
370
    15
100
AcDbLine
 10
8.9539790162
 20
4.3370098883
 30
0.0
 11
9.1055334687
 21
4.3370098883
 31
0.0
  0
LINE
  5
88
330
1F
100
AcDbEntity
  8
0
  6
Continuous
 62
     7
370
    15
100
AcDbLine
 10
8.4127131456
 20
4.4635098203
 30
0.0
 11
8.4127131456
 21
4.3370098883
 31
0.0
  0
LINE
  5
89
330
1F
100
AcDbEntity
  8
0
  6
Continuous
 62
     7
370
    15
100
AcDbLine
 10
8.4127131456
 20
4.4635098203
 30
0.0
 11
8.5642675981
 21
4.4635098203
 31
0.0
  0
LINE
  5
8A
330
1F
100
AcDbEntity
  8
0
  6
Continuous
 62
     7
370
    15
100
AcDbLine
 10
8.4127131456
 20
4.3370098883
 30
0.0
 11
8.5642675981
 21
4.3370098883
 31
0.0
  0
LINE
  5
8B
330
1F
100
AcDbEntity
  8
0
  6
Continuous
 62
     7
370
    15
100
AcDbLine
 10
9.1055334687
 20
4.4635098203
 30
0.0
 11
9.112232208
 21
4.4635098203
 31
0.0
  0
LINE
  5
8C
330
1F
100
AcDbEntity
  8
0
  6
Continuous
 62
     7
370
    15
100
AcDbLine
 10
9.112232208
 20
4.3370098883
 30
0.0
 11
9.1055334687
 21
4.3370098883
 31
0.0
  0
LINE
  5
8D
330
1F
100
AcDbEntity
  8
0
  6
Continuous
 62
     7
370
    15
100
AcDbLine
 10
8.4060144063
 20
4.4635098203
 30
0.0
 11
8.4127131456
 21
4.4635098203
 31
0.0
  0
LINE
  5
8E
330
1F
100
AcDbEntity
  8
0
  6
Continuous
 62
     7
370
    15
100
AcDbLine
 10
8.4127131456
 20
4.3370098883
 30
0.0
 11
8.4060144063
 21
4.3370098883
 31
0.0
  0
LINE
  5
8F
330
1F
100
AcDbEntity
  8
0
  6
Continuous
 62
     7
370
    15
100
AcDbLine
 10
8.6075688638
 20
4.1885098438
 30
0.0
 11
8.6075688638
 21
4.0620098385
 31
0.0
  0
LINE
  5
90
330
1F
100
AcDbEntity
  8
0
  6
Continuous
 62
     7
370
    15
100
AcDbLine
 10
8.9106777506
 20
4.0620098385
 30
0.0
 11
8.9106777506
 21
4.1885098438
 31
0.0
  0
LINE
  5
91
330
1F
100
AcDbEntity
  8
0
  6
Continuous
 62
     7
370
    15
100
AcDbLine
 10
8.6075688638
 20
4.0620098385
 30
0.0
 11
8.9106777506
 21
4.0620098385
 31
0.0
  0
LINE
  5
92
330
1F
100
AcDbEntity
  8
0
  6
Continuous
 62
     7
370
    15
100
AcDbLine
 10
8.6075688638
 20
4.1885098438
 30
0.0
 11
8.9106777506
 21
4.1885098438
 31
0.0
  0
LINE
  5
93
330
1F
100
AcDbEntity
  8
0
  6
Continuous
 62
     7
370
    15
100
AcDbLine
 10
8.9539790162
 20
4.1885098438
 30
0.0
 11
8.9539790162
 21
4.0620098385
 31
0.0
  0
LINE
  5
94
330
1F
100
AcDbEntity
  8
0
  6
Continuous
 62
     7
370
    15
100
AcDbLine
 10
8.9539790162
 20
4.0620098385
 30
0.0
 11
8.9106777506
 21
4.0620098385
 31
0.0
  0
LINE
  5
95
330
1F
100
AcDbEntity
  8
0
  6
Continuous
 62
     7
370
    15
100
AcDbLine
 10
8.9106777506
 20
4.1885098438
 30
0.0
 11
8.9539790162
 21
4.1885098438
 31
0.0
  0
LINE
  5
96
330
1F
100
AcDbEntity
  8
0
  6
Continuous
 62
     7
370
    15
100
AcDbLine
 10
8.5642675981
 20
4.0620098385
 30
0.0
 11
8.5642675981
 21
4.1885098438
 31
0.0
  0
LINE
  5
97
330
1F
100
AcDbEntity
  8
0
  6
Continuous
 62
     7
370
    15
100
AcDbLine
 10
8.6075688638
 20
4.0620098385
 30
0.0
 11
8.5642675981
 21
4.0620098385
 31
0.0
  0
LINE
  5
98
330
1F
100
AcDbEntity
  8
0
  6
Continuous
 62
     7
370
    15
100
AcDbLine
 10
8.5642675981
 20
4.1885098438
 30
0.0
 11
8.6075688638
 21
4.1885098438
 31
0.0
  0
LINE
  5
99
330
1F
100
AcDbEntity
  8
0
  6
Continuous
 62
     7
370
    15
100
AcDbLine
 10
9.1055334687
 20
4.0620098385
 30
0.0
 11
9.1055334687
 21
4.1885098438
 31
0.0
  0
LINE
  5
9A
330
1F
100
AcDbEntity
  8
0
  6
Continuous
 62
     7
370
    15
100
AcDbLine
 10
8.9539790162
 20
4.0620098385
 30
0.0
 11
9.1055334687
 21
4.0620098385
 31
0.0
  0
LINE
  5
9B
330
1F
100
AcDbEntity
  8
0
  6
Continuous
 62
     7
370
    15
100
AcDbLine
 10
8.9539790162
 20
4.1885098438
 30
0.0
 11
9.1055334687
 21
4.1885098438
 31
0.0
  0
LINE
  5
9C
330
1F
100
AcDbEntity
  8
0
  6
Continuous
 62
     7
370
    15
100
AcDbLine
 10
8.4127131456
 20
4.1885098438
 30
0.0
 11
8.4127131456
 21
4.0620098385
 31
0.0
  0
LINE
  5
9D
330
1F
100
AcDbEntity
  8
0
  6
Continuous
 62
     7
370
    15
100
AcDbLine
 10
8.4127131456
 20
4.0620098385
 30
0.0
 11
8.5642675981
 21
4.0620098385
 31
0.0
  0
LINE
  5
9E
330
1F
100
AcDbEntity
  8
0
  6
Continuous
 62
     7
370
    15
100
AcDbLine
 10
8.4127131456
 20
4.1885098438
 30
0.0
 11
8.5642675981
 21
4.1885098438
 31
0.0
  0
LINE
  5
9F
330
1F
100
AcDbEntity
  8
0
  6
Continuous
 62
     7
370
    15
100
AcDbLine
 10
9.112232208
 20
4.0620098385
 30
0.0
 11
9.1055334687
 21
4.0620098385
 31
0.0
  0
LINE
  5
A0
330
1F
100
AcDbEntity
  8
0
  6
Continuous
 62
     7
370
    15
100
AcDbLine
 10
9.1055334687
 20
4.1885098438
 30
0.0
 11
9.112232208
 21
4.1885098438
 31
0.0
  0
LINE
  5
A1
330
1F
100
AcDbEntity
  8
0
  6
Continuous
 62
     7
370
    15
100
AcDbLine
 10
8.4127131456
 20
4.0620098385
 30
0.0
 11
8.4060144063
 21
4.0620098385
 31
0.0
  0
LINE
  5
A2
330
1F
100
AcDbEntity
  8
0
  6
Continuous
 62
     7
370
    15
100
AcDbLine
 10
8.4060144063
 20
4.1885098438
 30
0.0
 11
8.4127131456
 21
4.1885098438
 31
0.0
  0
LINE
  5
A3
330
1F
100
AcDbEntity
  8
0
  6
Continuous
 62
     7
370
    15
100
AcDbLine
 10
8.7591233072
 20
5.1740820317
 30
0.0
 11
8.7591233072
 21
5.0915819581
 31
0.0
  0
LINE
  5
A4
330
1F
100
AcDbEntity
  8
0
  6
Continuous
 62
     7
370
    15
100
AcDbLine
 10
8.7591233072
 20
5.1740820317
 30
0.0
 11
8.8991233099
 21
5.1740820317
 31
0.0
  0
LINE
  5
A5
330
1F
100
AcDbEntity
  8
0
  6
Continuous
 62
     7
370
    15
100
AcDbLine
 10
8.8991233099
 20
5.1740820317
 30
0.0
 11
8.8991233099
 21
5.0915819581
 31
0.0
  0
LINE
  5
A6
330
1F
100
AcDbEntity
  8
0
  6
Continuous
 62
     7
370
    15
100
AcDbLine
 10
8.7591233072
 20
5.0915819581
 30
0.0
 11
8.8991233099
 21
5.0915819581
 31
0.0
  0
LINE
  5
A7
330
1F
100
AcDbEntity
  8
0
  6
Continuous
 62
     7
370
    15
100
AcDbLine
 10
8.6191233044
 20
5.1740820317
 30
0.0
 11
8.6191233044
 21
5.0915819581
 31
0.0
  0
LINE
  5
A8
330
1F
100
AcDbEntity
  8
0
  6
Continuous
 62
     7
370
    15
100
AcDbLine
 10
8.6191233044
 20
5.0915819581
 30
0.0
 11
8.7591233072
 21
5.0915819581
 31
0.0
  0
LINE
  5
A9
330
1F
100
AcDbEntity
  8
0
  6
Continuous
 62
     7
370
    15
100
AcDbLine
 10
8.6191233044
 20
5.1740820317
 30
0.0
 11
8.7591233072
 21
5.1740820317
 31
0.0
  0
LINE
  5
AA
330
1F
100
AcDbEntity
  8
0
  6
Continuous
 62
     7
370
    15
100
AcDbLine
 10
8.7591233072
 20
5.291581941
 30
0.0
 11
8.7591233072
 21
5.3740820146
 31
0.0
  0
LINE
  5
AB
330
1F
100
AcDbEntity
  8
0
  6
Continuous
 62
     7
370
    15
100
AcDbLine
 10
8.6191233044
 20
5.291581941
 30
0.0
 11
8.6191233044
 21
5.3740820146
 31
0.0
  0
LINE
  5
AC
330
1F
100
AcDbEntity
  8
0
  6
Continuous
 62
     7
370
    15
100
AcDbLine
 10
8.6191233044
 20
5.291581941
 30
0.0
 11
8.7591233072
 21
5.291581941
 31
0.0
  0
LINE
  5
AD
330
1F
100
AcDbEntity
  8
0
  6
Continuous
 62
     7
370
    15
100
AcDbLine
 10
8.8991233099
 20
5.291581941
 30
0.0
 11
8.8991233099
 21
5.3740820146
 31
0.0
  0
LINE
  5
AE
330
1F
100
AcDbEntity
  8
0
  6
Continuous
 62
     7
370
    15
100
AcDbLine
 10
8.7591233072
 20
5.291581941
 30
0.0
 11
8.8991233099
 21
5.291581941
 31
0.0
  0
LINE
  5
AF
330
1F
100
AcDbEntity
  8
0
  6
Continuous
 62
     7
370
    15
100
AcDbLine
 10
8.4665791933
 20
5.9190818654
 30
0.0
 11
8.8066731545
 21
5.9190818654
 31
0.0
  0
ARC
  5
B0
330
1F
100
AcDbEntity
  8
0
  6
Continuous
 62
     7
370
    15
100
AcDbCircle
 10
8.8039651578
 20
5.8901109188
 30
0.0
 40
0.0290972334099292
100
AcDbArc
 50
355.5078682529
 51
84.6599169424
  0
ARC
  5
B1
330
1F
100
AcDbEntity
  8
0
  6
Continuous
 62
     7
370
    15
100
AcDbCircle
 10
8.8039651493
 20
5.4980528683
 30
0.0
 40
0.029097252001827
100
AcDbArc
 50
275.3400965068
 51
4.4923832533
  0
LINE
  5
B2
330
1F
100
AcDbEntity
  8
0
  6
Continuous
 62
     7
370
    15
100
AcDbLine
 10
8.8066731545
 20
5.4690819038
 30
0.0
 11
8.4665791933
 21
5.4690819038
 31
0.0
  0
LINE
  5
B3
330
1F
100
AcDbEntity
  8
0
  6
Continuous
 62
     7
370
    15
100
AcDbLine
 10
8.8329730074
 20
5.5003319562
 30
0.0
 11
8.8329730074
 21
5.8878319597
 31
0.0
  0
LINE
  5
B4
330
1F
100
AcDbEntity
  8
0
  6
Continuous
 62
     7
370
    15
100
AcDbLine
 10
8.8329730074
 20
5.5003319562
 30
0.0
 11
8.9630661212
 21
5.5003319562
 31
0.0
  0
LWPOLYLINE
  5
B5
330
1F
100
AcDbEntity
  8
0
  6
Continuous
 62
     7
370
    15
100
AcDbPolyline
 90
        9
 70
   128
 43
0.0
 10
8.9630661212
 20
5.5003319562
 10
8.963284322
 20
5.4942353866
 10
8.9639305462
 20
5.488373041
 10
8.9649799707
 20
5.4829703434
 10
8.9663922444
 20
5.4782348248
 10
8.9681131196
 20
5.4743484963
 10
8.9700764502
 20
5.471460663
 10
8.9722067956
 20
5.4696823502
 10
8.9744222617
 20
5.4690819038
  0
LINE
  5
B6
330
1F
100
AcDbEntity
  8
0
  6
Continuous
 62
     7
370
    15
100
AcDbLine
 10
8.9744222617
 20
5.4690819038
 30
0.0
 11
8.8066731545
 21
5.4690819038
 31
0.0
  0
LINE
  5
B7
330
1F
100
AcDbEntity
  8
0
  6
Continuous
 62
     7
370
    15
100
AcDbLine
 10
8.9630661212
 20
5.8878319597
 30
0.0
 11
8.8329730074
 21
5.8878319597
 31
0.0
  0
LWPOLYLINE
  5
B8
330
1F
100
AcDbEntity
  8
0
  6
Continuous
 62
     7
370
    15
100
AcDbPolyline
 90
        9
 70
   128
 43
0.0
 10
8.9630661212
 20
5.8878319597
 10
8.963284322
 20
5.8939285293
 10
8.9639305462
 20
5.8997907283
 10
8.9649799707
 20
5.9051934259
 10
8.9663922444
 20
5.9099289445
 10
8.9681131196
 20
5.9138152729
 10
8.9700764502
 20
5.9167031062
 10
8.9722067956
 20
5.918481419
 10
8.9744222617
 20
5.9190818654
  0
LINE
  5
B9
330
1F
100
AcDbEntity
  8
0
  6
Continuous
 62
     7
370
    15
100
AcDbLine
 10
8.8066731545
 20
5.9190818654
 30
0.0
 11
8.9744222617
 21
5.9190818654
 31
0.0
  0
LINE
  5
BA
330
1F
100
AcDbEntity
  8
0
  6
Continuous
 62
     7
370
    15
100
AcDbLine
 10
8.9630661212
 20
5.5003319562
 30
0.0
 11
8.9630661212
 21
5.8878319597
 31
0.0
  0
LINE
  5
BB
330
1F
100
AcDbEntity
  8
0
  6
Continuous
 62
     7
370
    15
100
AcDbLine
 10
8.9744222617
 20
5.9190818654
 30
0.0
 11
9.2262056314
 21
5.9190818654
 31
0.0
  0
LINE
  5
BC
330
1F
100
AcDbEntity
  8
0
  6
Continuous
 62
     7
370
    15
100
AcDbLine
 10
9.2262056314
 20
5.4690819038
 30
0.0
 11
8.9744222617
 21
5.4690819038
 31
0.0
  0
ARC
  5
BD
330
1F
100
AcDbEntity
  8
0
  6
Continuous
 62
     7
370
    15
100
AcDbCircle
 10
8.3920367354
 20
5.4930219136
 30
0.0
 40
0.0374695131089993
100
AcDbArc
 50
168.7498391403
 51
219.7113107452
  0
LINE
  5
BE
330
1F
100
AcDbEntity
  8
0
  6
Continuous
 62
     7
370
    15
100
AcDbLine
 10
8.4665791933
 20
5.4690819038
 30
0.0
 11
8.3632124341
 21
5.4690819038
 31
0.0
  0
ARC
  5
BF
330
1F
100
AcDbEntity
  8
0
  6
Continuous
 62
     7
370
    15
100
AcDbCircle
 10
8.3920366446
 20
5.895141913
 30
0.0
 40
0.0374694066233647
100
AcDbArc
 50
140.2886679866
 51
191.2500539774
  0
LINE
  5
C0
330
1F
100
AcDbEntity
  8
0
  6
Continuous
 62
     7
370
    15
100
AcDbLine
 10
8.3632124341
 20
5.9190818654
 30
0.0
 11
8.4665791933
 21
5.9190818654
 31
0.0
  0
LINE
  5
C1
330
1F
100
AcDbEntity
  8
0
  6
Continuous
 62
     7
370
    15
100
AcDbLine
 10
8.355287209
 20
5.5003319562
 30
0.0
 11
8.355287209
 21
5.8878319597
 31
0.0
  0
LINE
  5
C2
330
1F
100
AcDbEntity
  8
0
  6
Continuous
 62
     7
370
    15
100
AcDbLine
 10
8.7591233072
 20
5.3740820146
 30
0.0
 11
8.462248305
 21
5.3740820146
 31
0.0
  0
LINE
  5
C3
330
1F
100
AcDbEntity
  8
0
  6
Continuous
 62
     7
370
    15
100
AcDbLine
 10
9.0559983093
 20
5.3740820146
 30
0.0
 11
8.7591233072
 21
5.3740820146
 31
0.0
  0
LINE
  5
C4
330
1F
100
AcDbEntity
  8
0
  6
Continuous
 62
     7
370
    15
100
AcDbLine
 10
8.3632124341
 20
5.4690819038
 30
0.0
 11
8.2253733197
 21
5.4690819038
 31
0.0
  0
LINE
  5
C5
330
1F
100
AcDbEntity
  8
0
  6
Continuous
 62
     7
370
    15
100
AcDbLine
 10
8.2253733197
 20
5.9190818654
 30
0.0
 11
8.3632124341
 21
5.9190818654
 31
0.0
  0
SPLINE
  5
C6
330
1F
100
AcDbEntity
  8
0
  6
Continuous
 62
     7
370
    15
100
AcDbSpline
210
0.0
220
0.0
230
1.0
 70
     8
 71
     3
 72
    13
 73
     9
 74
     0
 42
0.00000001
 43
0.00000001
 40
0.0
 40
0.0
 40
0.0
 40
0.0
 40
0.032860967140885
 40
0.2090601587669892
 40
0.3852992300228437
 40
0.5676245788636892
 40
0.750012442465115
 40
1.0
 40
1.0
 40
1.0
 40
1.0
 10
8.759123307154292
 20
3.554954837673913
 30
0.0
 10
8.756720573907453
 20
3.554940284464833
 30
0.0
 10
8.741434481081725
 20
3.554847697530681
 30
0.0
 10
8.713279692052152
 20
3.552766530986523
 30
0.0
 10
8.674678752524967
 20
3.546196012431036
 30
0.0
 10
8.636436544967834
 20
3.535916322578973
 30
0.0
 10
8.593974121253803
 20
3.521011990932188
 30
0.0
 10
8.565290898693755
 20
3.507669241519704
 30
0.0
 10
8.548707049567522
 20
3.499954831372012
 30
0.0
  0
SPLINE
  5
C7
330
1F
100
AcDbEntity
  8
0
  6
Continuous
 62
     7
370
    15
100
AcDbSpline
210
0.0
220
0.0
230
1.0
 70
     8
 71
     3
 72
    11
 73
     7
 74
     0
 42
0.00000001
 43
0.00000001
 40
0.0
 40
0.0
 40
0.0
 40
0.0
 40
0.3472213450108974
 40
0.6690318616475516
 40
0.8345288118415027
 40
1.0
 40
1.0
 40
1.0
 40
1.0
 10
8.969539564741062
 20
3.499954831372012
 30
0.0
 10
8.946417159614915
 20
3.510499044944125
 30
0.0
 10
8.901864524906271
 20
3.530815810998754
 30
0.0
 10
8.842699868938613
 20
3.546852001658061
 30
0.0
 10
8.795427245485246
 20
3.553920125072603
 30
0.0
 10
8.771223991950308
 20
3.554609951371805
 30
0.0
 10
8.759123307154292
 20
3.554954837673913
 30
0.0
  0
LINE
  5
C8
330
1F
100
AcDbEntity
  8
0
  6
Continuous
 62
     7
370
    15
100
AcDbLine
 10
8.9695395647
 20
3.0349548564
 30
0.0
 11
8.9695395647
 21
3.4999548314
 31
0.0
  0
SPLINE
  5
C9
330
1F
100
AcDbEntity
  8
0
  6
Continuous
 62
     7
370
    15
100
AcDbSpline
210
0.0
220
0.0
230
1.0
 70
     8
 71
     3
 72
    10
 73
     6
 74
     0
 42
0.00000001
 43
0.00000001
 40
0.0
 40
0.0
 40
0.0
 40
0.0
 40
0.3213230942627418
 40
0.6526568732263297
 40
0.9999999999999999
 40
0.9999999999999999
 40
0.9999999999999999
 40
0.9999999999999999
 10
8.759123307154292
 20
2.979954831789714
 30
0.0
 10
8.782620778734106
 20
2.981284305875889
 30
0.0
 10
8.830347775653493
 20
2.983984673249447
 30
0.0
 10
8.901227059381663
 20
3.004014457386165
 30
0.0
 10
8.946413428352468
 20
3.024480465472172
 30
0.0
 10
8.969539564741062
 20
3.034954856424736
 30
0.0
  0
SPLINE
  5
CA
330
1F
100
AcDbEntity
  8
0
  6
Continuous
 62
     7
370
    15
100
AcDbSpline
210
0.0
220
0.0
230
1.0
 70
     8
 71
     3
 72
    12
 73
     8
 74
     0
 42
0.00000001
 43
0.00000001
 40
0.0
 40
0.0
 40
0.0
 40
0.0
 40
0.2500536639532338
 40
0.6030902316003331
 40
0.7851333826681489
 40
0.9671303463842423
 40
1.0
 40
1.0
 40
1.0
 40
1.0
 10
8.548707049567522
 20
3.034954856424736
 30
0.0
 10
8.565292321945428
 20
3.02725858572727
 30
0.0
 10
8.605293398520002
 20
3.008696387501447
 30
0.0
 10
8.660335009896189
 20
2.991356852830928
 30
0.0
 10
8.712013365973577
 20
2.982250720018186
 30
0.0
 10
8.741014272224083
 20
2.980064983158926
 30
0.0
 10
8.756720600020634
 20
2.979969446675687
 30
0.0
 10
8.759123307154292
 20
2.979954831789714
 30
0.0
  0
LINE
  5
CB
330
1F
100
AcDbEntity
  8
0
  6
Continuous
 62
     7
370
    15
100
AcDbLine
 10
8.5487070496
 20
3.4999548314
 30
0.0
 11
8.5487070496
 21
3.0349548564
 31
0.0
  0
CIRCLE
  5
CC
330
1F
100
AcDbEntity
  8
0
  6
Continuous
 62
     7
370
    15
100
AcDbCircle
 10
8.7591233072
 20
3.3299548365
 30
0.0
 40
0.1229149999999994
  0
LINE
  5
CD
330
1F
100
AcDbEntity
  8
0
  6
Continuous
 62
     7
370
    15
100
AcDbLine
 10
8.5395719118
 20
3.4999548314
 30
0.0
 11
8.5487070496
 21
3.4999548314
 31
0.0
  0
SPLINE
  5
CE
330
1F
100
AcDbEntity
  8
0
  6
Continuous
 62
     7
370
    15
100
AcDbSpline
210
0.0
220
0.0
230
1.0
 70
     8
 71
     3
 72
    12
 73
     8
 74
     0
 42
0.00000001
 43
0.00000001
 40
0.0
 40
0.0
 40
0.0
 40
0.0
 40
0.2167026306312672
 40
0.4333100552417432
 40
0.6574978882255763
 40
0.8815479206544324
 40
1.0
 40
1.0
 40
1.0
 40
1.0
 10
8.53957191176408
 20
3.499954831372012
 30
0.0
 10
8.532393605722426
 20
3.506670002921553
 30
0.0
 10
8.518040147352355
 20
3.520097395780666
 30
0.0
 10
8.495383591080653
 20
3.536398201869912
 30
0.0
 10
8.471804858736697
 20
3.548449697318873
 30
0.0
 10
8.451216875845684
 20
3.554253523813169
 30
0.0
 10
8.438694553950697
 20
3.55477462001524
 30
0.0
 10
8.434363792137255
 20
3.554954837673913
 30
0.0
  0
LINE
  5
CF
330
1F
100
AcDbEntity
  8
0
  6
Continuous
 62
     7
370
    15
100
AcDbLine
 10
8.4343637921
 20
3.5549548377
 30
0.0
 11
8.7591233072
 21
3.5549548377
 31
0.0
  0
LINE
  5
D0
330
1F
100
AcDbEntity
  8
0
  6
Continuous
 62
     7
370
    15
100
AcDbLine
 10
8.5395719118
 20
3.0349548564
 30
0.0
 11
8.5487070496
 21
3.0349548564
 31
0.0
  0
LINE
  5
D1
330
1F
100
AcDbEntity
  8
0
  6
Continuous
 62
     7
370
    15
100
AcDbLine
 10
8.5395719118
 20
3.0349548564
 30
0.0
 11
8.5395719118
 21
3.4999548314
 31
0.0
  0
LINE
  5
D2
330
1F
100
AcDbEntity
  8
0
  6
Continuous
 62
     7
370
    15
100
AcDbLine
 10
8.4343637921
 20
2.9799548318
 30
0.0
 11
8.7591233072
 21
2.9799548318
 31
0.0
  0
SPLINE
  5
D3
330
1F
100
AcDbEntity
  8
0
  6
Continuous
 62
     7
370
    15
100
AcDbSpline
210
0.0
220
0.0
230
1.0
 70
     8
 71
     3
 72
    11
 73
     7
 74
     0
 42
0.00000001
 43
0.00000001
 40
0.0
 40
0.0
 40
0.0
 40
0.0
 40
0.2595784543646303
 40
0.5246623755296098
 40
0.7613709604461143
 40
1.0
 40
1.0
 40
1.0
 40
1.0
 10
8.434363792137255
 20
2.979954831789714
 30
0.0
 10
8.443860348133898
 20
2.98079663763236
 30
0.0
 10
8.463054875047712
 20
2.982498103396221
 30
0.0
 10
8.490271954390975
 20
2.995321152959076
 30
0.0
 10
8.515903808192094
 20
3.012888881796643
 30
0.0
 10
8.531661322785583
 20
3.027579746916622
 30
0.0
 10
8.53957191176408
 20
3.034954856424736
 30
0.0
  0
SPLINE
  5
D4
330
1F
100
AcDbEntity
  8
0
  6
Continuous
 62
     7
370
    15
100
AcDbSpline
210
0.0
220
0.0
230
1.0
 70
     8
 71
     3
 72
    16
 73
    12
 74
     0
 42
0.00000001
 43
0.00000001
 40
0.0
 40
0.0
 40
0.0
 40
0.0
 40
0.0956686082652834
 40
0.191307280405729
 40
0.2874819048135832
 40
0.3835699155428622
 40
0.4699714765801813
 40
0.5563593204854668
 40
0.7117026966776216
 40
0.8729822158821018
 40
1.0
 40
1.0
 40
1.0
 40
1.0
 10
8.85128485332958
 20
3.402035484211333
 30
0.0
 10
8.846986370065487
 20
3.407098640528417
 30
0.0
 10
8.838390748596396
 20
3.417223368825964
 30
0.0
 10
8.822395408977266
 20
3.429470650974755
 30
0.0
 10
8.804378442143507
 20
3.439050287598586
 30
0.0
 10
8.785244128040873
 20
3.445238351330751
 30
0.0
 10
8.76581983574476
 20
3.447920253602689
 30
0.0
 10
8.741817707445536
 20
3.447405487619078
 30
0.0
 10
8.713284488443971
 20
3.439884021278698
 30
0.0
 10
8.685998119967362
 20
3.423727809395481
 30
0.0
 10
8.672783740987668
 20
3.408669750965852
 30
0.0
 10
8.666961760979005
 20
3.402035484211333
 30
0.0
  0
ARC
  5
D5
330
1F
100
AcDbEntity
  8
0
  6
Continuous
 62
     7
370
    15
100
AcDbCircle
 10
8.7591233072
 20
3.3299548365
 30
0.0
 40
0.1170015855138204
100
AcDbArc
 50
141.9706077662
 51
218.0293922338
  0
SPLINE
  5
D6
330
1F
100
AcDbEntity
  8
0
  6
Continuous
 62
     7
370
    15
100
AcDbSpline
210
0.0
220
0.0
230
1.0
 70
     8
 71
     3
 72
    16
 73
    12
 74
     0
 42
0.00000001
 43
0.00000001
 40
0.0
 40
0.0
 40
0.0
 40
0.0
 40
0.0956686157175421
 40
0.1913072459119592
 40
0.2874819159080401
 40
0.3835699341222479
 40
0.4699714903633724
 40
0.5563593429398364
 40
0.7117026898768041
 40
0.8729822636260888
 40
1.0
 40
1.0
 40
1.0
 40
1.0
 10
8.666961760979005
 20
3.257874174575084
 30
0.0
 10
8.671260243057679
 20
3.252811016433747
 30
0.0
 10
8.679855859936895
 20
3.242686287102493
 30
0.0
 10
8.695851215939884
 20
3.230439032072919
 30
0.0
 10
8.713868166583538
 20
3.220859367122706
 30
0.0
 10
8.733002485064842
 20
3.214671304125959
 30
0.0
 10
8.752426780786829
 20
3.211989421831588
 30
0.0
 10
8.77642890095317
 20
3.212504224570789
 30
0.0
 10
8.804962138636295
 20
3.22002561644136
 30
0.0
 10
8.83224848335627
 20
3.236181873716395
 30
0.0
 10
8.845462871575776
 20
3.251239917099821
 30
0.0
 10
8.85128485332958
 20
3.257874174575084
 30
0.0
  0
ARC
  5
D7
330
1F
100
AcDbEntity
  8
0
  6
Continuous
 62
     7
370
    15
100
AcDbCircle
 10
8.7591233072
 20
3.3299548365
 30
0.0
 40
0.1170015855138204
100
AcDbArc
 50
321.9706077662
 51
38.0293922338
  0
SPLINE
  5
D8
330
1F
100
AcDbEntity
  8
0
  6
Continuous
 62
     7
370
    15
100
AcDbSpline
210
0.0
220
0.0
230
1.0
 70
     8
 71
     3
 72
    12
 73
     8
 74
     0
 42
0.00000001
 43
0.00000001
 40
0.0
 40
0.0
 40
0.0
 40
0.0
 40
0.2167025938908121
 40
0.4333100160068229
 40
0.6574978976880885
 40
0.8815479220185343
 40
1.0
 40
1.0
 40
1.0
 40
1.0
 10
8.978674702544504
 20
3.034954856424736
 30
0.0
 10
8.985853008738856
 20
3.028239691068122
 30
0.0
 10
9.000206468548125
 20
3.014812309531429
 30
0.0
 10
9.02286302674053
 20
2.998511518065298
 30
0.0
 10
9.046441751326757
 20
2.98645994442862
 30
0.0
 10
9.067029738994508
 20
2.980656148973098
 30
0.0
 10
9.07955206044265
 20
2.980135050304368
 30
0.0
 10
9.083882822171327
 20
2.979954831789714
 30
0.0
  0
LINE
  5
D9
330
1F
100
AcDbEntity
  8
0
  6
Continuous
 62
     7
370
    15
100
AcDbLine
 10
8.7591233072
 20
2.9799548318
 30
0.0
 11
9.0838828222
 21
2.9799548318
 31
0.0
  0
LINE
  5
DA
330
1F
100
AcDbEntity
  8
0
  6
Continuous
 62
     7
370
    15
100
AcDbLine
 10
8.9695395647
 20
3.0349548564
 30
0.0
 11
8.9786747025
 21
3.0349548564
 31
0.0
  0
SPLINE
  5
DB
330
1F
100
AcDbEntity
  8
0
  6
Continuous
 62
     7
370
    15
100
AcDbSpline
210
0.0
220
0.0
230
1.0
 70
     8
 71
     3
 72
    11
 73
     7
 74
     0
 42
0.00000001
 43
0.00000001
 40
0.0
 40
0.0
 40
0.0
 40
0.0
 40
0.2595784661031647
 40
0.5246623870380194
 40
0.7613709525386331
 40
0.9999999999999999
 40
0.9999999999999999
 40
0.9999999999999999
 40
0.9999999999999999
 10
9.083882822171327
 20
3.554954837673913
 30
0.0
 10
9.074386266215713
 20
3.554113027568179
 30
0.0
 10
9.055191739831798
 20
3.552411553227348
 30
0.0
 10
9.027974661377826
 20
3.539588513591468
 30
0.0
 10
9.002342804327794
 20
3.52202080992848
 30
0.0
 10
8.986585291227197
 20
3.507329942474694
 30
0.0
 10
8.978674702544504
 20
3.499954831372012
 30
0.0
  0
LINE
  5
DC
330
1F
100
AcDbEntity
  8
0
  6
Continuous
 62
     7
370
    15
100
AcDbLine
 10
8.9695395647
 20
3.4999548314
 30
0.0
 11
8.9786747025
 21
3.4999548314
 31
0.0
  0
LINE
  5
DD
330
1F
100
AcDbEntity
  8
0
  6
Continuous
 62
     7
370
    15
100
AcDbLine
 10
8.7591233072
 20
3.5549548377
 30
0.0
 11
9.0838828222
 21
3.5549548377
 31
0.0
  0
LINE
  5
DE
330
1F
100
AcDbEntity
  8
0
  6
Continuous
 62
     7
370
    15
100
AcDbLine
 10
8.9786747025
 20
3.4999548314
 30
0.0
 11
8.9786747025
 21
3.0349548564
 31
0.0
  0
SPLINE
  5
DF
330
1F
100
AcDbEntity
  8
0
  6
Continuous
 62
     7
370
    15
100
AcDbSpline
210
0.0
220
0.0
230
1.0
 70
     8
 71
     3
 72
    12
 73
     8
 74
     0
 42
0.00000001
 43
0.00000001
 40
0.0
 40
0.0
 40
0.0
 40
0.0
 40
0.2167025279531233
 40
0.4333100470468112
 40
0.657497866614429
 40
0.8815478442095221
 40
0.9999999999999999
 40
0.9999999999999999
 40
0.9999999999999999
 40
0.9999999999999999
 10
9.189090960131274
 20
3.499954831372012
 30
0.0
 10
9.181912661591491
 20
3.506670004330351
 30
0.0
 10
9.167559211692367
 20
3.520097406114675
 30
0.0
 10
9.144902642478783
 20
3.536398196172055
 30
0.0
 10
9.121323899131927
 20
3.548449697243126
 30
0.0
 10
9.100735955097665
 20
3.554253524936778
 30
0.0
 10
9.08821359850604
 20
3.554774620226006
 30
0.0
 10
9.083882822171327
 20
3.554954837673913
 30
0.0
  0
LINE
  5
E0
330
1F
100
AcDbEntity
  8
0
  6
Continuous
 62
     7
370
    15
100
AcDbLine
 10
9.1890909601
 20
3.0349548564
 30
0.0
 11
9.1890909601
 21
3.4999548314
 31
0.0
  0
SPLINE
  5
E1
330
1F
100
AcDbEntity
  8
0
  6
Continuous
 62
     7
370
    15
100
AcDbSpline
210
0.0
220
0.0
230
1.0
 70
     8
 71
     3
 72
    11
 73
     7
 74
     0
 42
0.00000001
 43
0.00000001
 40
0.0
 40
0.0
 40
0.0
 40
0.0
 40
0.2595785224412309
 40
0.5246624279949195
 40
0.7613709765666772
 40
1.0
 40
1.0
 40
1.0
 40
1.0
 10
9.083882822171327
 20
2.979954831789714
 30
0.0
 10
9.093379392303811
 20
2.980796637294119
 30
0.0
 10
9.112573944674606
 20
2.982498102098243
 30
0.0
 10
9.139791024984858
 20
2.995321151913231
 30
0.0
 10
9.165422852214995
 20
3.012888882876575
 30
0.0
 10
9.181180369475268
 20
3.027579747067316
 30
0.0
 10
9.189090960131274
 20
3.034954856424736
 30
0.0
  0
SPLINE
  5
E2
330
1F
100
AcDbEntity
  8
0
  6
Continuous
 62
     7
370
    15
100
AcDbSpline
210
0.0
220
0.0
230
1.0
 70
     8
 71
     3
 72
    11
 73
     7
 74
     0
 42
0.00000001
 43
0.00000001
 40
0.0
 40
0.0
 40
0.0
 40
0.0
 40
0.2595785341797668
 40
0.5246624395033311
 40
0.7613709686591963
 40
1.0
 40
1.0
 40
1.0
 40
1.0
 10
8.434363792137255
 20
3.554954837673913
 30
0.0
 10
8.4248672220458
 20
3.55411302790642
 30
0.0
 10
8.405672670204904
 20
3.552411554525326
 30
0.0
 10
8.378455590783943
 20
3.539588514637312
 30
0.0
 10
8.352823760304892
 20
3.522020808848548
 30
0.0
 10
8.337066244537512
 20
3.507329942324
 30
0.0
 10
8.32915565417731
 20
3.499954831372012
 30
0.0
  0
SPLINE
  5
E3
330
1F
100
AcDbEntity
  8
0
  6
Continuous
 62
     7
370
    15
100
AcDbSpline
210
0.0
220
0.0
230
1.0
 70
     8
 71
     3
 72
    12
 73
     8
 74
     0
 42
0.00000001
 43
0.00000001
 40
0.0
 40
0.0
 40
0.0
 40
0.0
 40
0.2167024912126607
 40
0.4333100078118858
 40
0.6574978760769369
 40
0.8815478455736231
 40
1.0
 40
1.0
 40
1.0
 40
1.0
 10
8.32915565417731
 20
3.034954856424736
 30
0.0
 10
8.33633395286979
 20
3.028239689659324
 30
0.0
 10
8.350687404208113
 20
3.014812299197425
 30
0.0
 10
8.373343975342404
 20
2.998511523763165
 30
0.0
 10
8.39692271093153
 20
2.986459944504372
 30
0.0
 10
8.417510659742527
 20
2.980656147849492
 30
0.0
 10
8.430033015887306
 20
2.980135050093603
 30
0.0
 10
8.434363792137255
 20
2.979954831789714
 30
0.0
  0
LINE
  5
E4
330
1F
100
AcDbEntity
  8
0
  6
Continuous
 62
     7
370
    15
100
AcDbLine
 10
8.3291556542
 20
3.4999548314
 30
0.0
 11
8.3291556542
 21
3.0349548564
 31
0.0
  0
LINE
  5
E5
330
1F
100
AcDbEntity
  8
0
  6
Continuous
 62
     7
370
    15
100
AcDbLine
 10
9.0741232949
 20
3.964954843
 30
0.0
 11
8.4441233194
 21
3.964954843
 31
0.0
  0
LINE
  5
E6
330
1F
100
AcDbEntity
  8
0
  6
Continuous
 62
     7
370
    15
100
AcDbLine
 10
8.4591233144
 20
3.979954838
 30
0.0
 11
9.0591232999
 21
3.979954838
 31
0.0
  0
LINE
  5
E7
330
1F
100
AcDbEntity
  8
0
  6
Continuous
 62
     7
370
    15
100
AcDbLine
 10
8.534123308
 20
2.7449548665
 30
0.0
 11
8.9841233063
 21
2.7449548665
 31
0.0
  0
LINE
  5
E8
330
1F
100
AcDbEntity
  8
0
  6
Continuous
 62
     7
370
    15
100
AcDbLine
 10
8.9691233112
 20
2.7299548531
 30
0.0
 11
8.5491233031
 21
2.7299548531
 31
0.0
  0
LINE
  5
E9
330
1F
100
AcDbEntity
  8
0
  6
Continuous
 62
     7
370
    15
100
AcDbLine
 10
8.8512848533
 20
3.2578741746
 30
0.0
 11
8.8512848533
 21
3.2708236283
 31
0.0
  0
LINE
  5
EA
330
1F
100
AcDbEntity
  8
0
  6
Continuous
 62
     7
370
    15
100
AcDbLine
 10
8.666961761
 20
3.2708236283
 30
0.0
 11
8.666961761
 21
3.2578741746
 31
0.0
  0
LINE
  5
EB
330
1F
100
AcDbEntity
  8
0
  6
Continuous
 62
     7
370
    15
100
AcDbLine
 10
8.666961761
 20
3.4020354842
 30
0.0
 11
8.666961761
 21
3.3890860488
 31
0.0
  0
LINE
  5
EC
330
1F
100
AcDbEntity
  8
0
  6
Continuous
 62
     7
370
    15
100
AcDbLine
 10
8.8512848533
 20
3.3890860488
 30
0.0
 11
8.8512848533
 21
3.4020354842
 31
0.0
  0
LINE
  5
ED
330
1F
100
AcDbEntity
  8
0
  6
Continuous
 62
     7
370
    15
100
AcDbLine
 10
8.3291233146
 20
3.0349548564
 30
0.0
 11
8.3291556542
 21
3.0349548564
 31
0.0
  0
LINE
  5
EE
330
1F
100
AcDbEntity
  8
0
  6
Continuous
 62
     7
370
    15
100
AcDbLine
 10
8.3841233025
 20
2.9799548318
 30
0.0
 11
8.4343637921
 21
2.9799548318
 31
0.0
  0
LINE
  5
EF
330
1F
100
AcDbEntity
  8
0
  6
Continuous
 62
     7
370
    15
100
AcDbLine
 10
8.3291233146
 20
3.4999548314
 30
0.0
 11
8.3291556542
 21
3.4999548314
 31
0.0
  0
LINE
  5
F0
330
1F
100
AcDbEntity
  8
0
  6
Continuous
 62
     7
370
    15
100
AcDbLine
 10
8.3841233025
 20
3.5549548377
 30
0.0
 11
8.4343637921
 21
3.5549548377
 31
0.0
  0
LINE
  5
F1
330
1F
100
AcDbEntity
  8
0
  6
Continuous
 62
     7
370
    15
100
AcDbLine
 10
9.1890909601
 20
3.0349548564
 30
0.0
 11
9.1891232998
 21
3.0349548564
 31
0.0
  0
LINE
  5
F2
330
1F
100
AcDbEntity
  8
0
  6
Continuous
 62
     7
370
    15
100
AcDbLine
 10
9.0838828222
 20
2.9799548318
 30
0.0
 11
9.1341233118
 21
2.9799548318
 31
0.0
  0
LINE
  5
F3
330
1F
100
AcDbEntity
  8
0
  6
Continuous
 62
     7
370
    15
100
AcDbLine
 10
9.1890909601
 20
3.4999548314
 30
0.0
 11
9.1891232998
 21
3.4999548314
 31
0.0
  0
LINE
  5
F4
330
1F
100
AcDbEntity
  8
0
  6
Continuous
 62
     7
370
    15
100
AcDbLine
 10
9.0838828222
 20
3.5549548377
 30
0.0
 11
9.1341233118
 21
3.5549548377
 31
0.0
  0
ARC
  5
F5
330
1F
100
AcDbEntity
  8
0
  6
Continuous
 62
     7
370
    15
100
AcDbCircle
 10
8.7591233072
 20
3.3299548365
 30
0.0
 40
0.1095000000000005
100
AcDbArc
 50
147.315608893
 51
212.684391107
  0
ARC
  5
F6
330
1F
100
AcDbEntity
  8
0
  6
Continuous
 62
     7
370
    15
100
AcDbCircle
 10
8.7591233072
 20
3.3299548365
 30
0.0
 40
0.1095000000000005
100
AcDbArc
 50
327.315608893
 51
32.684391107
  0
LINE
  5
F7
330
1F
100
AcDbEntity
  8
0
  6
Continuous
 62
     7
370
    15
100
AcDbLine
 10
9.0228733103
 20
4.8174548582
 30
0.0
 11
8.495373304
 21
4.8174548582
 31
0.0
  0
LINE
  5
F8
330
1F
100
AcDbEntity
  8
0
  6
Continuous
 62
     7
370
    15
100
AcDbLine
 10
8.6166233083
 20
4.842454856
 30
0.0
 11
8.5291233158
 21
4.842454856
 31
0.0
  0
SPLINE
  5
F9
330
1F
100
AcDbEntity
  8
0
  6
Continuous
 62
     7
370
    15
100
AcDbSpline
210
0.0
220
0.0
230
1.0
 70
     8
 71
     3
 72
    14
 73
    10
 74
     0
 42
0.00000001
 43
0.00000001
 40
0.0
 40
0.0
 40
0.0
 40
0.0
 40
0.25
 40
0.25
 40
0.5
 40
0.5
 40
0.75
 40
0.75
 40
1.0
 40
1.0
 40
1.0
 40
1.0
 10
8.634123307154292
 20
4.859954836501766
 30
0.0
 10
8.634123307154292
 20
4.857361809623672
 30
0.0
 10
8.633534608953868
 20
4.854823425278942
 30
0.0
 10
8.631459723572014
 20
4.850352531696459
 30
0.0
 10
8.62998085958387
 20
4.848418864011812
 30
0.0
 10
8.62655966548348
 20
4.845368142176049
 30
0.0
 10
8.624644628887713
 20
4.844258544029787
 30
0.0
 10
8.620677945221109
 20
4.842800387811584
 30
0.0
 10
8.618649012865431
 20
4.842454836501767
 30
0.0
 10
8.616623307154292
 20
4.842454836501767
 30
0.0
  0
LINE
  5
FA
330
1F
100
AcDbEntity
  8
0
  6
Continuous
 62
     7
370
    15
100
AcDbLine
 10
8.6341233087
 20
4.862454825
 30
0.0
 11
8.6341233087
 21
4.8599548472
 31
0.0
  0
LINE
  5
FB
330
1F
100
AcDbEntity
  8
0
  6
Continuous
 62
     7
370
    15
100
AcDbLine
 10
8.6341233087
 20
4.862454825
 30
0.0
 11
8.8841233056
 21
4.862454825
 31
0.0
  0
LINE
  5
FC
330
1F
100
AcDbEntity
  8
0
  6
Continuous
 62
     7
370
    15
100
AcDbLine
 10
8.8841233056
 20
4.8599548472
 30
0.0
 11
8.8841233056
 21
4.862454825
 31
0.0
  0
SPLINE
  5
FD
330
1F
100
AcDbEntity
  8
0
  6
Continuous
 62
     7
370
    15
100
AcDbSpline
210
0.0
220
0.0
230
1.0
 70
     8
 71
     3
 72
    14
 73
    10
 74
     0
 42
0.00000001
 43
0.00000001
 40
0.0
 40
0.0
 40
0.0
 40
0.0
 40
0.25
 40
0.25
 40
0.5
 40
0.5
 40
0.75
 40
0.75
 40
1.0
 40
1.0
 40
1.0
 40
1.0
 10
8.901623307154292
 20
4.842454836501767
 30
0.0
 10
8.899595583737108
 20
4.842454836501767
 30
0.0
 10
8.897585924655711
 20
4.84279655195763
 30
0.0
 10
8.893621188069183
 20
4.844249000768347
 30
0.0
 10
8.891709752614334
 20
4.845352868703662
 30
0.0
 10
8.88828579499477
 20
4.848395995877023
 30
0.0
 10
8.886800673554058
 20
4.85032847731096
 30
0.0
 10
8.884712332310128
 20
4.854817114444546
 30
0.0
 10
8.884123307154292
 20
4.857355004713963
 30
0.0
 10
8.884123307154292
 20
4.859954836501767
 30
0.0
  0
LINE
  5
FE
330
1F
100
AcDbEntity
  8
0
  6
Continuous
 62
     7
370
    15
100
AcDbLine
 10
8.9891232985
 20
4.842454856
 30
0.0
 11
8.901623306
 21
4.842454856
 31
0.0
  0
SPLINE
  5
FF
330
1F
100
AcDbEntity
  8
0
  6
Continuous
 62
     7
370
    15
100
AcDbSpline
210
0.0
220
0.0
230
1.0
 70
    24
 71
     3
 72
    12
 73
     8
 74
     0
 42
0.00000001
 43
0.00000001
 40
0.0
 40
0.0
 40
0.0
 40
0.0
 40
0.25
 40
0.25
 40
0.5
 40
0.5
 40
1.0
 40
1.0
 40
1.0
 40
1.0
 10
8.634123307154292
 20
4.942454836501765
 30
0.0
 10
8.634123307154292
 20
4.936975485012582
 30
0.0
 10
8.634123307154292
 20
4.930982305414637
 30
0.0
 10
8.634123307154292
 20
4.918363151106219
 30
0.0
 10
8.634123307154292
 20
4.911724225659913
 30
0.0
 10
8.634123307154292
 20
4.891318802047416
 30
0.0
 10
8.634123307154292
 20
4.877039405448901
 30
0.0
 10
8.634123307154292
 20
4.862454836501766
 30
0.0
  0
LINE
  5
100
330
1F
100
AcDbEntity
  8
0
  6
Continuous
 62
     7
370
    15
100
AcDbLine
 10
8.6341233087
 20
4.9424547742
 30
0.0
 11
8.8841233056
 21
4.9424547742
 31
0.0
  0
SPLINE
  5
101
330
1F
100
AcDbEntity
  8
0
  6
Continuous
 62
     7
370
    15
100
AcDbSpline
210
0.0
220
0.0
230
1.0
 70
    24
 71
     3
 72
    12
 73
     8
 74
     0
 42
0.00000001
 43
0.00000001
 40
0.0
 40
0.0
 40
0.0
 40
0.0
 40
0.5
 40
0.5
 40
0.75
 40
0.75
 40
1.0
 40
1.0
 40
1.0
 40
1.0
 10
8.884123307154292
 20
4.862454836501766
 30
0.0
 10
8.884123307154292
 20
4.877064371675382
 30
0.0
 10
8.884123307154292
 20
4.891347601707965
 30
0.0
 10
8.884123307154292
 20
4.911703946426716
 30
0.0
 10
8.884123307154292
 20
4.918307192988497
 30
0.0
 10
8.884123307154292
 20
4.930938176628143
 30
0.0
 10
8.884123307154292
 20
4.936963800057829
 30
0.0
 10
8.884123307154292
 20
4.942454836501765
 30
0.0
  0
LINE
  5
102
330
1F
100
AcDbEntity
  8
0
  6
Continuous
 62
     8
370
    15
100
AcDbLine
 10
8.8443825156
 20
3.2499180398
 30
0.0
 11
8.6731627743
 21
3.2499180398
 31
0.0
  0
LINE
  5
103
330
1F
100
AcDbEntity
  8
0
  6
Continuous
 62
     8
370
    15
100
AcDbLine
 10
8.8514814944
 20
3.2711312581
 30
0.0
 11
8.6667651199
 21
3.2711312581
 31
0.0
  0
LINE
  5
104
330
1F
100
AcDbEntity
  8
0
  6
Continuous
 62
     8
370
    15
100
AcDbLine
 10
8.8329730074
 20
5.8878319597
 30
0.0
 11
8.4353291777
 21
5.8878319597
 31
0.0
  0
LINE
  5
105
330
1F
100
AcDbEntity
  8
0
  6
Continuous
 62
     8
370
    15
100
AcDbLine
 10
8.4353291777
 20
5.5003319562
 30
0.0
 11
8.8329730074
 21
5.5003319562
 31
0.0
  0
LINE
  5
106
330
1F
100
AcDbEntity
  8
0
  6
Continuous
 62
     8
370
    15
100
AcDbLine
 10
9.257455647
 20
5.8878319597
 30
0.0
 11
8.9630661212
 21
5.8878319597
 31
0.0
  0
LINE
  5
107
330
1F
100
AcDbEntity
  8
0
  6
Continuous
 62
     8
370
    15
100
AcDbLine
 10
8.9630661212
 20
5.5003319562
 30
0.0
 11
9.257455647
 21
5.5003319562
 31
0.0
  0
LINE
  5
108
330
1F
100
AcDbEntity
  8
0
  6
Continuous
 62
     8
370
    15
100
AcDbLine
 10
8.7591233072
 20
5.453456951
 30
0.0
 11
8.4466232972
 21
5.453456951
 31
0.0
  0
LINE
  5
109
330
1F
100
AcDbEntity
  8
0
  6
Continuous
 62
     8
370
    15
100
AcDbLine
 10
9.0716233171
 20
5.453456951
 30
0.0
 11
8.7591233072
 21
5.453456951
 31
0.0
  0
LINE
  5
10A
330
1F
100
AcDbEntity
  8
0
  6
Continuous
 62
     8
370
    15
100
AcDbLine
 10
8.355287209
 20
5.5003319562
 30
0.0
 11
8.4353291777
 21
5.5003319562
 31
0.0
  0
LINE
  5
10B
330
1F
100
AcDbEntity
  8
0
  6
Continuous
 62
     8
370
    15
100
AcDbLine
 10
8.4353291777
 20
5.8878319597
 30
0.0
 11
8.355287209
 21
5.8878319597
 31
0.0
  0
LINE
  5
10C
330
1F
100
AcDbEntity
  8
0
  6
Continuous
 62
     8
370
    15
100
AcDbLine
 10
8.7591233072
 20
5.3897069675
 30
0.0
 11
9.0716233171
 21
5.3897069675
 31
0.0
  0
LINE
  5
10D
330
1F
100
AcDbEntity
  8
0
  6
Continuous
 62
     8
370
    15
100
AcDbLine
 10
8.4466232972
 20
5.3897069675
 30
0.0
 11
8.7591233072
 21
5.3897069675
 31
0.0
  0
LINE
  5
10E
330
1F
100
AcDbEntity
  8
0
  6
Continuous
 62
     8
370
    15
100
AcDbLine
 10
8.1941233041
 20
5.5003319562
 30
0.0
 11
8.355287209
 21
5.5003319562
 31
0.0
  0
LINE
  5
10F
330
1F
100
AcDbEntity
  8
0
  6
Continuous
 62
     8
370
    15
100
AcDbLine
 10
8.355287209
 20
5.8878319597
 30
0.0
 11
8.1941233041
 21
5.8878319597
 31
0.0
  0
LINE
  5
110
330
1F
100
AcDbEntity
  8
0
  6
Continuous
 62
     8
370
    15
100
AcDbLine
 10
8.4441233194
 20
3.5799548355
 30
0.0
 11
9.0741232949
 21
3.5799548355
 31
0.0
  0
LINE
  5
111
330
1F
100
AcDbEntity
  8
0
  6
Continuous
 62
     8
370
    15
100
AcDbLine
 10
8.534123308
 20
2.9549548339
 30
0.0
 11
8.9841233063
 21
2.9549548339
 31
0.0
  0
LINE
  5
112
330
1F
100
AcDbEntity
  8
0
  6
Continuous
 62
     7
370
    15
100
AcDbLine
 10
11.3994078936
 20
5.291581941
 30
0.0
 11
11.3994078936
 21
5.1740820317
 31
0.0
  0
LINE
  5
113
330
1F
100
AcDbEntity
  8
0
  6
Continuous
 62
     7
370
    15
100
AcDbLine
 10
11.3994078936
 20
5.0915819581
 30
0.0
 11
11.3994078936
 21
4.9424547742
 31
0.0
  0
LINE
  5
114
330
1F
100
AcDbEntity
  8
0
  6
Continuous
 62
     7
370
    15
100
AcDbLine
 10
11.5869078959
 20
4.9424547742
 30
0.0
 11
11.5869078959
 21
5.0915819581
 31
0.0
  0
LINE
  5
115
330
1F
100
AcDbEntity
  8
0
  6
Continuous
 62
     7
370
    15
100
AcDbLine
 10
11.5869078959
 20
5.1740820317
 30
0.0
 11
11.5869078959
 21
5.291581941
 31
0.0
  0
ARC
  5
116
330
1F
100
AcDbEntity
  8
0
  6
Continuous
 62
     7
370
    15
100
AcDbCircle
 10
11.8830134397
 20
5.5003319463
 30
0.0
 40
0.0312500000000009
100
AcDbArc
 50
270.0
 51
0.0
  0
LINE
  5
117
330
1F
100
AcDbEntity
  8
0
  6
Continuous
 62
     7
370
    15
100
AcDbLine
 10
11.9142634268
 20
5.5003319562
 30
0.0
 11
11.9142634268
 21
5.8878319597
 31
0.0
  0
ARC
  5
118
330
1F
100
AcDbEntity
  8
0
  6
Continuous
 62
     7
370
    15
100
AcDbCircle
 10
11.8830134397
 20
5.8878319063
 30
0.0
 40
0.0312500000000009
100
AcDbArc
 50
0.0
 51
90.0
  0
LINE
  5
119
330
1F
100
AcDbEntity
  8
0
  6
Continuous
 62
     7
370
    15
100
AcDbLine
 10
11.0720523627
 20
5.8878319597
 30
0.0
 11
11.0720523627
 21
5.5003319562
 31
0.0
  0
ARC
  5
11A
330
1F
100
AcDbEntity
  8
0
  6
Continuous
 62
     7
370
    15
100
AcDbCircle
 10
11.1033023497
 20
5.5003319463
 30
0.0
 40
0.0312500000000018
100
AcDbArc
 50
180.0
 51
270.0
  0
ARC
  5
11B
330
1F
100
AcDbEntity
  8
0
  6
Continuous
 62
     7
370
    15
100
AcDbCircle
 10
11.1033023497
 20
5.8878319063
 30
0.0
 40
0.0312500000000018
100
AcDbArc
 50
90.0
 51
180.0
  0
ARC
  5
11C
330
1F
100
AcDbEntity
  8
0
  6
Continuous
 62
     7
370
    15
100
AcDbCircle
 10
11.8212828947
 20
5.4534569463
 30
0.0
 40
0.0156250000000018
100
AcDbArc
 50
90.0
 51
180.0
  0
ARC
  5
11D
330
1F
100
AcDbEntity
  8
0
  6
Continuous
 62
     7
370
    15
100
AcDbCircle
 10
11.1650328947
 20
5.4534569463
 30
0.0
 40
0.0156249999999991
100
AcDbArc
 50
0.0
 51
90.0
  0
LINE
  5
11E
330
1F
100
AcDbEntity
  8
0
  6
Continuous
 62
     7
370
    15
100
AcDbLine
 10
11.1806578848
 20
5.453456951
 30
0.0
 11
11.1806578848
 21
5.3897069675
 31
0.0
  0
LINE
  5
11F
330
1F
100
AcDbEntity
  8
0
  6
Continuous
 62
     7
370
    15
100
AcDbLine
 10
11.8056579047
 20
5.3897069675
 30
0.0
 11
11.8056579047
 21
5.453456951
 31
0.0
  0
ARC
  5
120
330
1F
100
AcDbEntity
  8
0
  6
Continuous
 62
     7
370
    15
100
AcDbCircle
 10
11.7900328947
 20
5.3897069608
 30
0.0
 40
0.015625
100
AcDbArc
 50
270.0
 51
0.0
  0
ARC
  5
121
330
1F
100
AcDbEntity
  8
0
  6
Continuous
 62
     7
370
    15
100
AcDbCircle
 10
11.1962828947
 20
5.3897069608
 30
0.0
 40
0.015625
100
AcDbArc
 50
180.0
 51
270.0
  0
ARC
  5
122
330
1F
100
AcDbEntity
  8
0
  6
Continuous
 62
     7
370
    15
100
AcDbCircle
 10
12.0098228779
 20
5.5003319463
 30
0.0
 40
0.0312500000000009
100
AcDbArc
 50
270.0
 51
0.0
  0
ARC
  5
123
330
1F
100
AcDbEntity
  8
0
  6
Continuous
 62
     7
370
    15
100
AcDbCircle
 10
12.0098228779
 20
5.8878319063
 30
0.0
 40
0.0312500000000009
100
AcDbArc
 50
0.0
 51
90.0
  0
LINE
  5
124
330
1F
100
AcDbEntity
  8
0
  6
Continuous
 62
     7
370
    15
100
AcDbLine
 10
12.0410728952
 20
5.5003319562
 30
0.0
 11
12.0410728952
 21
5.8878319597
 31
0.0
  0
ARC
  5
125
330
1F
100
AcDbEntity
  8
0
  6
Continuous
 62
     7
370
    15
100
AcDbCircle
 10
10.9764929116
 20
5.8878319063
 30
0.0
 40
0.0312500000000009
100
AcDbArc
 50
90.0
 51
180.0
  0
ARC
  5
126
330
1F
100
AcDbEntity
  8
0
  6
Continuous
 62
     7
370
    15
100
AcDbCircle
 10
10.9764929116
 20
5.5003319463
 30
0.0
 40
0.0312500000000009
100
AcDbArc
 50
180.0
 51
270.0
  0
LINE
  5
127
330
1F
100
AcDbEntity
  8
0
  6
Continuous
 62
     7
370
    15
100
AcDbLine
 10
10.9452428943
 20
5.8878319597
 30
0.0
 11
10.9452428943
 21
5.5003319562
 31
0.0
  0
ARC
  5
128
330
1F
100
AcDbEntity
  8
0
  6
Continuous
 62
     7
370
    15
100
AcDbCircle
 10
11.1531578947
 20
3.5799548365
 30
0.0
 40
0.0250000000000004
100
AcDbArc
 50
270.0
 51
0.0
  0
ARC
  5
129
330
1F
100
AcDbEntity
  8
0
  6
Continuous
 62
     7
370
    15
100
AcDbCircle
 10
11.8331578947
 20
3.5799548365
 30
0.0
 40
0.0249999999999999
100
AcDbArc
 50
180.0
 51
270.0
  0
LINE
  5
12A
330
1F
100
AcDbEntity
  8
0
  6
Continuous
 62
     7
370
    15
100
AcDbLine
 10
11.178157907
 20
3.964954843
 30
0.0
 11
11.178157907
 21
3.5799548355
 31
0.0
  0
LINE
  5
12B
330
1F
100
AcDbEntity
  8
0
  6
Continuous
 62
     7
370
    15
100
AcDbLine
 10
11.8081578825
 20
3.5799548355
 30
0.0
 11
11.8081578825
 21
3.964954843
 31
0.0
  0
LINE
  5
12C
330
1F
100
AcDbEntity
  8
0
  6
Continuous
 62
     7
370
    15
100
AcDbLine
 10
11.8081578825
 20
3.964954843
 30
0.0
 11
11.7931578874
 21
3.979954838
 31
0.0
  0
LINE
  5
12D
330
1F
100
AcDbEntity
  8
0
  6
Continuous
 62
     7
370
    15
100
AcDbLine
 10
11.193157902
 20
3.979954838
 30
0.0
 11
11.178157907
 21
3.964954843
 31
0.0
  0
ARC
  5
12E
330
1F
100
AcDbEntity
  8
0
  6
Continuous
 62
     7
370
    15
100
AcDbCircle
 10
11.2431578947
 20
2.9549548365
 30
0.0
 40
0.0250000000000004
100
AcDbArc
 50
0.0
 51
90.0
  0
ARC
  5
12F
330
1F
100
AcDbEntity
  8
0
  6
Continuous
 62
     7
370
    15
100
AcDbCircle
 10
11.7431578947
 20
2.9549548365
 30
0.0
 40
0.0250000000000004
100
AcDbArc
 50
90.0
 51
180.0
  0
LINE
  5
130
330
1F
100
AcDbEntity
  8
0
  6
Continuous
 62
     7
370
    15
100
AcDbLine
 10
11.2681578956
 20
2.9549548339
 30
0.0
 11
11.2681578956
 21
2.7449548665
 31
0.0
  0
LINE
  5
131
330
1F
100
AcDbEntity
  8
0
  6
Continuous
 62
     7
370
    15
100
AcDbLine
 10
11.7181578939
 20
2.7449548665
 30
0.0
 11
11.7181578939
 21
2.9549548339
 31
0.0
  0
LINE
  5
132
330
1F
100
AcDbEntity
  8
0
  6
Continuous
 62
     7
370
    15
100
AcDbLine
 10
11.2681578956
 20
2.7449548665
 30
0.0
 11
11.2831578907
 21
2.7299548531
 31
0.0
  0
LINE
  5
133
330
1F
100
AcDbEntity
  8
0
  6
Continuous
 62
     7
370
    15
100
AcDbLine
 10
11.7031578988
 20
2.7299548531
 30
0.0
 11
11.7181578939
 21
2.7449548665
 31
0.0
  0
LINE
  5
134
330
1F
100
AcDbEntity
  8
0
  6
Continuous
 62
     7
370
    15
100
AcDbLine
 10
11.7569078979
 20
4.0537048244
 30
0.0
 11
11.7569078979
 21
4.0620098385
 31
0.0
  0
LINE
  5
135
330
1F
100
AcDbEntity
  8
0
  6
Continuous
 62
     7
370
    15
100
AcDbLine
 10
11.7569078979
 20
4.1885098438
 30
0.0
 11
11.7569078979
 21
4.3370098883
 31
0.0
  0
LINE
  5
136
330
1F
100
AcDbEntity
  8
0
  6
Continuous
 62
     7
370
    15
100
AcDbLine
 10
11.7569078979
 20
4.4635098203
 30
0.0
 11
11.7569078979
 21
4.8174548582
 31
0.0
  0
LINE
  5
137
330
1F
100
AcDbEntity
  8
0
  6
Continuous
 62
     7
370
    15
100
AcDbLine
 10
11.7569078979
 20
3.979954838
 30
0.0
 11
11.7569078979
 21
3.9915967919
 31
0.0
  0
LINE
  5
138
330
1F
100
AcDbEntity
  8
0
  6
Continuous
 62
     7
370
    15
100
AcDbLine
 10
11.2294078916
 20
4.8174548582
 30
0.0
 11
11.2294078916
 21
4.4635098203
 31
0.0
  0
LINE
  5
139
330
1F
100
AcDbEntity
  8
0
  6
Continuous
 62
     7
370
    15
100
AcDbLine
 10
11.2294078916
 20
4.3370098883
 30
0.0
 11
11.2294078916
 21
4.1885098438
 31
0.0
  0
LINE
  5
13A
330
1F
100
AcDbEntity
  8
0
  6
Continuous
 62
     7
370
    15
100
AcDbLine
 10
11.2294078916
 20
4.0620098385
 30
0.0
 11
11.2294078916
 21
3.979954838
 31
0.0
  0
LINE
  5
13B
330
1F
100
AcDbEntity
  8
0
  6
Continuous
 62
     7
370
    15
100
AcDbLine
 10
11.2631579034
 20
4.862454825
 30
0.0
 11
11.2631579034
 21
4.8174548582
 31
0.0
  0
LINE
  5
13C
330
1F
100
AcDbEntity
  8
0
  6
Continuous
 62
     7
370
    15
100
AcDbLine
 10
11.7231578861
 20
4.8174548582
 30
0.0
 11
11.7231578861
 21
4.862454825
 31
0.0
  0
LINE
  5
13D
330
1F
100
AcDbEntity
  8
0
  6
Continuous
 62
     7
370
    15
100
AcDbLine
 10
11.7231578861
 20
4.862454825
 30
0.0
 11
11.6431578911
 21
4.9424547742
 31
0.0
  0
LINE
  5
13E
330
1F
100
AcDbEntity
  8
0
  6
Continuous
 62
     7
370
    15
100
AcDbLine
 10
11.3431578984
 20
4.9424547742
 30
0.0
 11
11.2631579034
 21
4.862454825
 31
0.0
  0
LINE
  5
13F
330
1F
100
AcDbEntity
  8
0
  6
Continuous
 62
     7
370
    15
100
AcDbLine
 10
11.5181578949
 20
4.4635098203
 30
0.0
 11
11.5181578949
 21
4.3370098883
 31
0.0
  0
LINE
  5
140
330
1F
100
AcDbEntity
  8
0
  6
Continuous
 62
     7
370
    15
100
AcDbLine
 10
11.7806578885
 20
4.3370098883
 30
0.0
 11
11.7806578885
 21
4.4635098203
 31
0.0
  0
LINE
  5
141
330
1F
100
AcDbEntity
  8
0
  6
Continuous
 62
     7
370
    15
100
AcDbLine
 10
11.5181578949
 20
4.3370098883
 30
0.0
 11
11.7806578885
 21
4.3370098883
 31
0.0
  0
LINE
  5
142
330
1F
100
AcDbEntity
  8
0
  6
Continuous
 62
     7
370
    15
100
AcDbLine
 10
11.5181578949
 20
4.4635098203
 30
0.0
 11
11.7806578885
 21
4.4635098203
 31
0.0
  0
LINE
  5
143
330
1F
100
AcDbEntity
  8
0
  6
Continuous
 62
     7
370
    15
100
AcDbLine
 10
11.4681578946
 20
4.3370098883
 30
0.0
 11
11.4681578946
 21
4.4635098203
 31
0.0
  0
LINE
  5
144
330
1F
100
AcDbEntity
  8
0
  6
Continuous
 62
     7
370
    15
100
AcDbLine
 10
11.5181578949
 20
4.3370098883
 30
0.0
 11
11.4681578946
 21
4.3370098883
 31
0.0
  0
LINE
  5
145
330
1F
100
AcDbEntity
  8
0
  6
Continuous
 62
     7
370
    15
100
AcDbLine
 10
11.4681578946
 20
4.4635098203
 30
0.0
 11
11.5181578949
 21
4.4635098203
 31
0.0
  0
LINE
  5
146
330
1F
100
AcDbEntity
  8
0
  6
Continuous
 62
     7
370
    15
100
AcDbLine
 10
11.205657901
 20
4.4635098203
 30
0.0
 11
11.205657901
 21
4.3370098883
 31
0.0
  0
LINE
  5
147
330
1F
100
AcDbEntity
  8
0
  6
Continuous
 62
     7
370
    15
100
AcDbLine
 10
11.205657901
 20
4.3370098883
 30
0.0
 11
11.4681578946
 21
4.3370098883
 31
0.0
  0
LINE
  5
148
330
1F
100
AcDbEntity
  8
0
  6
Continuous
 62
     7
370
    15
100
AcDbLine
 10
11.205657901
 20
4.4635098203
 30
0.0
 11
11.4681578946
 21
4.4635098203
 31
0.0
  0
LINE
  5
149
330
1F
100
AcDbEntity
  8
0
  6
Continuous
 62
     7
370
    15
100
AcDbLine
 10
11.8056579047
 20
4.4635098203
 30
0.0
 11
11.8056579047
 21
4.3370098883
 31
0.0
  0
LINE
  5
14A
330
1F
100
AcDbEntity
  8
0
  6
Continuous
 62
     7
370
    15
100
AcDbLine
 10
11.8056579047
 20
4.3370098883
 30
0.0
 11
11.7806578885
 21
4.3370098883
 31
0.0
  0
LINE
  5
14B
330
1F
100
AcDbEntity
  8
0
  6
Continuous
 62
     7
370
    15
100
AcDbLine
 10
11.7806578885
 20
4.4635098203
 30
0.0
 11
11.8056579047
 21
4.4635098203
 31
0.0
  0
LINE
  5
14C
330
1F
100
AcDbEntity
  8
0
  6
Continuous
 62
     7
370
    15
100
AcDbLine
 10
11.1806578848
 20
4.3370098883
 30
0.0
 11
11.1806578848
 21
4.4635098203
 31
0.0
  0
LINE
  5
14D
330
1F
100
AcDbEntity
  8
0
  6
Continuous
 62
     7
370
    15
100
AcDbLine
 10
11.205657901
 20
4.3370098883
 30
0.0
 11
11.1806578848
 21
4.3370098883
 31
0.0
  0
LINE
  5
14E
330
1F
100
AcDbEntity
  8
0
  6
Continuous
 62
     7
370
    15
100
AcDbLine
 10
11.1806578848
 20
4.4635098203
 30
0.0
 11
11.205657901
 21
4.4635098203
 31
0.0
  0
LINE
  5
14F
330
1F
100
AcDbEntity
  8
0
  6
Continuous
 62
     7
370
    15
100
AcDbLine
 10
11.5181578949
 20
4.1885098438
 30
0.0
 11
11.5181578949
 21
4.0620098385
 31
0.0
  0
LINE
  5
150
330
1F
100
AcDbEntity
  8
0
  6
Continuous
 62
     7
370
    15
100
AcDbLine
 10
11.7806578885
 20
4.0620098385
 30
0.0
 11
11.7806578885
 21
4.1885098438
 31
0.0
  0
LINE
  5
151
330
1F
100
AcDbEntity
  8
0
  6
Continuous
 62
     7
370
    15
100
AcDbLine
 10
11.5181578949
 20
4.1885098438
 30
0.0
 11
11.7806578885
 21
4.1885098438
 31
0.0
  0
LINE
  5
152
330
1F
100
AcDbEntity
  8
0
  6
Continuous
 62
     7
370
    15
100
AcDbLine
 10
11.5181578949
 20
4.0620098385
 30
0.0
 11
11.7806578885
 21
4.0620098385
 31
0.0
  0
LINE
  5
153
330
1F
100
AcDbEntity
  8
0
  6
Continuous
 62
     7
370
    15
100
AcDbLine
 10
11.4681578946
 20
4.0620098385
 30
0.0
 11
11.4681578946
 21
4.1885098438
 31
0.0
  0
LINE
  5
154
330
1F
100
AcDbEntity
  8
0
  6
Continuous
 62
     7
370
    15
100
AcDbLine
 10
11.4681578946
 20
4.1885098438
 30
0.0
 11
11.5181578949
 21
4.1885098438
 31
0.0
  0
LINE
  5
155
330
1F
100
AcDbEntity
  8
0
  6
Continuous
 62
     7
370
    15
100
AcDbLine
 10
11.5181578949
 20
4.0620098385
 30
0.0
 11
11.4681578946
 21
4.0620098385
 31
0.0
  0
LINE
  5
156
330
1F
100
AcDbEntity
  8
0
  6
Continuous
 62
     7
370
    15
100
AcDbLine
 10
11.205657901
 20
4.1885098438
 30
0.0
 11
11.205657901
 21
4.0620098385
 31
0.0
  0
LINE
  5
157
330
1F
100
AcDbEntity
  8
0
  6
Continuous
 62
     7
370
    15
100
AcDbLine
 10
11.205657901
 20
4.1885098438
 30
0.0
 11
11.4681578946
 21
4.1885098438
 31
0.0
  0
LINE
  5
158
330
1F
100
AcDbEntity
  8
0
  6
Continuous
 62
     7
370
    15
100
AcDbLine
 10
11.205657901
 20
4.0620098385
 30
0.0
 11
11.4681578946
 21
4.0620098385
 31
0.0
  0
LINE
  5
159
330
1F
100
AcDbEntity
  8
0
  6
Continuous
 62
     7
370
    15
100
AcDbLine
 10
11.8056579047
 20
4.1885098438
 30
0.0
 11
11.8056579047
 21
4.0620098385
 31
0.0
  0
LINE
  5
15A
330
1F
100
AcDbEntity
  8
0
  6
Continuous
 62
     7
370
    15
100
AcDbLine
 10
11.7806578885
 20
4.1885098438
 30
0.0
 11
11.8056579047
 21
4.1885098438
 31
0.0
  0
LINE
  5
15B
330
1F
100
AcDbEntity
  8
0
  6
Continuous
 62
     7
370
    15
100
AcDbLine
 10
11.8056579047
 20
4.0620098385
 30
0.0
 11
11.7806578885
 21
4.0620098385
 31
0.0
  0
LINE
  5
15C
330
1F
100
AcDbEntity
  8
0
  6
Continuous
 62
     7
370
    15
100
AcDbLine
 10
11.1806578848
 20
4.0620098385
 30
0.0
 11
11.1806578848
 21
4.1885098438
 31
0.0
  0
LINE
  5
15D
330
1F
100
AcDbEntity
  8
0
  6
Continuous
 62
     7
370
    15
100
AcDbLine
 10
11.1806578848
 20
4.1885098438
 30
0.0
 11
11.205657901
 21
4.1885098438
 31
0.0
  0
LINE
  5
15E
330
1F
100
AcDbEntity
  8
0
  6
Continuous
 62
     7
370
    15
100
AcDbLine
 10
11.205657901
 20
4.0620098385
 30
0.0
 11
11.1806578848
 21
4.0620098385
 31
0.0
  0
LINE
  5
15F
330
1F
100
AcDbEntity
  8
0
  6
Continuous
 62
     7
370
    15
100
AcDbLine
 10
11.5739869318
 20
5.1740820317
 30
0.0
 11
11.5739869318
 21
5.0915819581
 31
0.0
  0
LINE
  5
160
330
1F
100
AcDbEntity
  8
0
  6
Continuous
 62
     7
370
    15
100
AcDbLine
 10
11.6548159689
 20
5.1740820317
 30
0.0
 11
11.6548159689
 21
5.0915819581
 31
0.0
  0
LINE
  5
161
330
1F
100
AcDbEntity
  8
0
  6
Continuous
 62
     7
370
    15
100
AcDbLine
 10
11.5739869318
 20
5.1740820317
 30
0.0
 11
11.6548159689
 21
5.1740820317
 31
0.0
  0
LINE
  5
162
330
1F
100
AcDbEntity
  8
0
  6
Continuous
 62
     7
370
    15
100
AcDbLine
 10
11.5739869318
 20
5.0915819581
 30
0.0
 11
11.6548159689
 21
5.0915819581
 31
0.0
  0
LINE
  5
163
330
1F
100
AcDbEntity
  8
0
  6
Continuous
 62
     7
370
    15
100
AcDbLine
 10
11.4123288576
 20
5.1740820317
 30
0.0
 11
11.4123288576
 21
5.0915819581
 31
0.0
  0
LINE
  5
164
330
1F
100
AcDbEntity
  8
0
  6
Continuous
 62
     7
370
    15
100
AcDbLine
 10
11.4123288576
 20
5.1740820317
 30
0.0
 11
11.5739869318
 21
5.1740820317
 31
0.0
  0
LINE
  5
165
330
1F
100
AcDbEntity
  8
0
  6
Continuous
 62
     7
370
    15
100
AcDbLine
 10
11.4123288576
 20
5.0915819581
 30
0.0
 11
11.5739869318
 21
5.0915819581
 31
0.0
  0
LINE
  5
166
330
1F
100
AcDbEntity
  8
0
  6
Continuous
 62
     7
370
    15
100
AcDbLine
 10
11.3314998206
 20
5.1740820317
 30
0.0
 11
11.3314998206
 21
5.0915819581
 31
0.0
  0
LINE
  5
167
330
1F
100
AcDbEntity
  8
0
  6
Continuous
 62
     7
370
    15
100
AcDbLine
 10
11.3314998206
 20
5.1740820317
 30
0.0
 11
11.4123288576
 21
5.1740820317
 31
0.0
  0
LINE
  5
168
330
1F
100
AcDbEntity
  8
0
  6
Continuous
 62
     7
370
    15
100
AcDbLine
 10
11.3314998206
 20
5.0915819581
 30
0.0
 11
11.4123288576
 21
5.0915819581
 31
0.0
  0
LINE
  5
169
330
1F
100
AcDbEntity
  8
0
  6
Continuous
 62
     7
370
    15
100
AcDbLine
 10
11.6548159689
 20
5.291581941
 30
0.0
 11
11.6548159689
 21
5.3740820146
 31
0.0
  0
LINE
  5
16A
330
1F
100
AcDbEntity
  8
0
  6
Continuous
 62
     7
370
    15
100
AcDbLine
 10
11.5739869318
 20
5.291581941
 30
0.0
 11
11.5739869318
 21
5.3740820146
 31
0.0
  0
LINE
  5
16B
330
1F
100
AcDbEntity
  8
0
  6
Continuous
 62
     7
370
    15
100
AcDbLine
 10
11.5739869318
 20
5.291581941
 30
0.0
 11
11.6548159689
 21
5.291581941
 31
0.0
  0
LINE
  5
16C
330
1F
100
AcDbEntity
  8
0
  6
Continuous
 62
     7
370
    15
100
AcDbLine
 10
11.4123288576
 20
5.291581941
 30
0.0
 11
11.4123288576
 21
5.3740820146
 31
0.0
  0
LINE
  5
16D
330
1F
100
AcDbEntity
  8
0
  6
Continuous
 62
     7
370
    15
100
AcDbLine
 10
11.4123288576
 20
5.291581941
 30
0.0
 11
11.5739869318
 21
5.291581941
 31
0.0
  0
LINE
  5
16E
330
1F
100
AcDbEntity
  8
0
  6
Continuous
 62
     7
370
    15
100
AcDbLine
 10
11.3314998206
 20
5.291581941
 30
0.0
 11
11.3314998206
 21
5.3740820146
 31
0.0
  0
LINE
  5
16F
330
1F
100
AcDbEntity
  8
0
  6
Continuous
 62
     7
370
    15
100
AcDbLine
 10
11.3314998206
 20
5.291581941
 30
0.0
 11
11.4123288576
 21
5.291581941
 31
0.0
  0
LINE
  5
170
330
1F
100
AcDbEntity
  8
0
  6
Continuous
 62
     7
370
    15
100
AcDbLine
 10
11.8830134478
 20
5.4690819038
 30
0.0
 11
11.5813488259
 21
5.4690819038
 31
0.0
  0
LWPOLYLINE
  5
171
330
1F
100
AcDbEntity
  8
0
  6
Continuous
 62
     7
370
    15
100
AcDbPolyline
 90
        9
 70
   128
 43
0.0
 10
11.5813488259
 20
5.4690819038
 10
11.5774866331
 20
5.4696823502
 10
11.5737728651
 20
5.471460663
 10
11.5703502363
 20
5.4743484963
 10
11.5673502777
 20
5.4782348248
 10
11.5648882724
 20
5.4829703434
 10
11.5630588422
 20
5.488373041
 10
11.5619322811
 20
5.4942353866
 10
11.5615518871
 20
5.5003319562
  0
LINE
  5
172
330
1F
100
AcDbEntity
  8
0
  6
Continuous
 62
     7
370
    15
100
AcDbLine
 10
11.5615518871
 20
5.5003319562
 30
0.0
 11
11.5615518871
 21
5.8878319597
 31
0.0
  0
LWPOLYLINE
  5
173
330
1F
100
AcDbEntity
  8
0
  6
Continuous
 62
     7
370
    15
100
AcDbPolyline
 90
        9
 70
   128
 43
0.0
 10
11.5615518871
 20
5.8878319597
 10
11.5619322811
 20
5.8939285293
 10
11.5630588422
 20
5.8997907283
 10
11.5648882724
 20
5.9051934259
 10
11.5673502777
 20
5.9099289445
 10
11.5703502363
 20
5.9138152729
 10
11.5737728651
 20
5.9167031062
 10
11.5774866331
 20
5.918481419
 10
11.5813488259
 20
5.9190818654
  0
LINE
  5
174
330
1F
100
AcDbEntity
  8
0
  6
Continuous
 62
     7
370
    15
100
AcDbLine
 10
11.5813488259
 20
5.9190818654
 30
0.0
 11
11.8830134478
 21
5.9190818654
 31
0.0
  0
LINE
  5
175
330
1F
100
AcDbEntity
  8
0
  6
Continuous
 62
     7
370
    15
100
AcDbLine
 10
11.4247639023
 20
5.5003319562
 30
0.0
 11
11.4247639023
 21
5.8878319597
 31
0.0
  0
LINE
  5
176
330
1F
100
AcDbEntity
  8
0
  6
Continuous
 62
     7
370
    15
100
AcDbLine
 10
11.4049669635
 20
5.4690819038
 30
0.0
 11
11.1033023417
 21
5.4690819038
 31
0.0
  0
LWPOLYLINE
  5
177
330
1F
100
AcDbEntity
  8
0
  6
Continuous
 62
     7
370
    15
100
AcDbPolyline
 90
        9
 70
   128
 43
0.0
 10
11.4049669635
 20
5.4690819038
 10
11.4088291564
 20
5.4696823502
 10
11.4125429243
 20
5.471460663
 10
11.4159655531
 20
5.4743484963
 10
11.4189655118
 20
5.4782348248
 10
11.4214275171
 20
5.4829703434
 10
11.4232569472
 20
5.488373041
 10
11.4243835084
 20
5.4942353866
 10
11.4247639023
 20
5.5003319562
  0
LINE
  5
178
330
1F
100
AcDbEntity
  8
0
  6
Continuous
 62
     7
370
    15
100
AcDbLine
 10
11.1033023417
 20
5.9190818654
 30
0.0
 11
11.4049669635
 21
5.9190818654
 31
0.0
  0
LWPOLYLINE
  5
179
330
1F
100
AcDbEntity
  8
0
  6
Continuous
 62
     7
370
    15
100
AcDbPolyline
 90
        9
 70
   128
 43
0.0
 10
11.4247639023
 20
5.8878319597
 10
11.4243835084
 20
5.8939285293
 10
11.4232569472
 20
5.8997907283
 10
11.4214275171
 20
5.9051934259
 10
11.4189655118
 20
5.9099289445
 10
11.4159655531
 20
5.9138152729
 10
11.4125429243
 20
5.9167031062
 10
11.4088291564
 20
5.918481419
 10
11.4049669635
 20
5.9190818654
  0
LINE
  5
17A
330
1F
100
AcDbEntity
  8
0
  6
Continuous
 62
     7
370
    15
100
AcDbLine
 10
11.4247639023
 20
5.5003319562
 30
0.0
 11
11.5615518871
 21
5.5003319562
 31
0.0
  0
LINE
  5
17B
330
1F
100
AcDbEntity
  8
0
  6
Continuous
 62
     7
370
    15
100
AcDbLine
 10
11.5813488259
 20
5.4690819038
 30
0.0
 11
11.4049669635
 21
5.4690819038
 31
0.0
  0
LINE
  5
17C
330
1F
100
AcDbEntity
  8
0
  6
Continuous
 62
     7
370
    15
100
AcDbLine
 10
11.5615518871
 20
5.8878319597
 30
0.0
 11
11.4247639023
 21
5.8878319597
 31
0.0
  0
LINE
  5
17D
330
1F
100
AcDbEntity
  8
0
  6
Continuous
 62
     7
370
    15
100
AcDbLine
 10
11.4049669635
 20
5.9190818654
 30
0.0
 11
11.5813488259
 21
5.9190818654
 31
0.0
  0
LINE
  5
17E
330
1F
100
AcDbEntity
  8
0
  6
Continuous
 62
     7
370
    15
100
AcDbLine
 10
11.7900328969
 20
5.3740820146
 30
0.0
 11
11.1962828926
 21
5.3740820146
 31
0.0
  0
LWPOLYLINE
  5
17F
330
1F
100
AcDbEntity
  8
0
  6
Continuous
 62
     7
370
    15
100
AcDbPolyline
 90
        9
 70
   128
 43
0.0
 10
11.9248931173
 20
5.9190818654
 10
11.9281859293
 20
5.918481419
 10
11.931352206
 20
5.9167031062
 10
11.9342702523
 20
5.9138152729
 10
11.9368279428
 20
5.9099289445
 10
11.9389269752
 20
5.9051934259
 10
11.9404867205
 20
5.8997907283
 10
11.9414471927
 20
5.8939285293
 10
11.9417715056
 20
5.8878319597
  0
LINE
  5
180
330
1F
100
AcDbEntity
  8
0
  6
Continuous
 62
     7
370
    15
100
AcDbLine
 10
11.8830134478
 20
5.9190818654
 30
0.0
 11
11.9248931173
 21
5.9190818654
 31
0.0
  0
LWPOLYLINE
  5
181
330
1F
100
AcDbEntity
  8
0
  6
Continuous
 62
     7
370
    15
100
AcDbPolyline
 90
        9
 70
   128
 43
0.0
 10
11.9248931173
 20
5.4690819038
 10
11.9281859293
 20
5.4696823502
 10
11.931352206
 20
5.471460663
 10
11.9342702523
 20
5.4743484963
 10
11.9368279428
 20
5.4782348248
 10
11.9389269752
 20
5.4829703434
 10
11.9404867205
 20
5.488373041
 10
11.9414471927
 20
5.4942353866
 10
11.9417715056
 20
5.5003319562
  0
LINE
  5
182
330
1F
100
AcDbEntity
  8
0
  6
Continuous
 62
     7
370
    15
100
AcDbLine
 10
11.9248931173
 20
5.4690819038
 30
0.0
 11
11.8830134478
 21
5.4690819038
 31
0.0
  0
LWPOLYLINE
  5
183
330
1F
100
AcDbEntity
  8
0
  6
Continuous
 62
     7
370
    15
100
AcDbPolyline
 90
        9
 70
   128
 43
0.0
 10
11.0445442838
 20
5.8878319597
 10
11.0448685967
 20
5.8939285293
 10
11.045829069
 20
5.8997907283
 10
11.0473888143
 20
5.9051934259
 10
11.0494878467
 20
5.9099289445
 10
11.0520455372
 20
5.9138152729
 10
11.0549635835
 20
5.9167031062
 10
11.0581298602
 20
5.918481419
 10
11.0614226722
 20
5.9190818654
  0
LINE
  5
184
330
1F
100
AcDbEntity
  8
0
  6
Continuous
 62
     7
370
    15
100
AcDbLine
 10
11.0614226722
 20
5.9190818654
 30
0.0
 11
11.1033023417
 21
5.9190818654
 31
0.0
  0
LWPOLYLINE
  5
185
330
1F
100
AcDbEntity
  8
0
  6
Continuous
 62
     7
370
    15
100
AcDbPolyline
 90
        9
 70
   128
 43
0.0
 10
11.0445442838
 20
5.5003319562
 10
11.0448685967
 20
5.4942353866
 10
11.045829069
 20
5.488373041
 10
11.0473888143
 20
5.4829703434
 10
11.0494878467
 20
5.4782348248
 10
11.0520455372
 20
5.4743484963
 10
11.0549635835
 20
5.471460663
 10
11.0581298602
 20
5.4696823502
 10
11.0614226722
 20
5.4690819038
  0
LINE
  5
186
330
1F
100
AcDbEntity
  8
0
  6
Continuous
 62
     7
370
    15
100
AcDbLine
 10
11.1033023417
 20
5.4690819038
 30
0.0
 11
11.0614226722
 21
5.4690819038
 31
0.0
  0
LINE
  5
187
330
1F
100
AcDbEntity
  8
0
  6
Continuous
 62
     7
370
    15
100
AcDbLine
 10
11.9417715056
 20
5.5003319562
 30
0.0
 11
11.9417715056
 21
5.8878319597
 31
0.0
  0
LINE
  5
188
330
1F
100
AcDbEntity
  8
0
  6
Continuous
 62
     7
370
    15
100
AcDbLine
 10
11.0445442838
 20
5.5003319562
 30
0.0
 11
11.0445442838
 21
5.8878319597
 31
0.0
  0
LINE
  5
189
330
1F
100
AcDbEntity
  8
0
  6
Continuous
 62
     7
370
    15
100
AcDbLine
 10
12.0098228795
 20
5.4690819038
 30
0.0
 11
11.9248931173
 21
5.4690819038
 31
0.0
  0
LINE
  5
18A
330
1F
100
AcDbEntity
  8
0
  6
Continuous
 62
     7
370
    15
100
AcDbLine
 10
11.9248931173
 20
5.9190818654
 30
0.0
 11
12.0098228795
 21
5.9190818654
 31
0.0
  0
LINE
  5
18B
330
1F
100
AcDbEntity
  8
0
  6
Continuous
 62
     7
370
    15
100
AcDbLine
 10
10.97649291
 20
5.9190818654
 30
0.0
 11
11.0614226722
 21
5.9190818654
 31
0.0
  0
LINE
  5
18C
330
1F
100
AcDbEntity
  8
0
  6
Continuous
 62
     7
370
    15
100
AcDbLine
 10
11.0614226722
 20
5.4690819038
 30
0.0
 11
10.97649291
 21
5.4690819038
 31
0.0
  0
SPLINE
  5
18D
330
1F
100
AcDbEntity
  8
0
  6
Continuous
 62
     7
370
    15
100
AcDbSpline
210
0.0
220
0.0
230
1.0
 70
     8
 71
     3
 72
    11
 73
     7
 74
     0
 42
0.00000001
 43
0.00000001
 40
0.0
 40
0.0
 40
0.0
 40
0.0
 40
0.2595785341797668
 40
0.5246624395033311
 40
0.7613709686591963
 40
1.0
 40
1.0
 40
1.0
 40
1.0
 10
11.68065789705415
 20
3.554954837673913
 30
0.0
 10
11.66420937638998
 20
3.55411302790642
 30
0.0
 10
11.63096348028709
 20
3.552411554525326
 30
0.0
 10
11.58382209109009
 20
3.539588514637312
 30
0.0
 10
11.53942641361538
 20
3.522020808848548
 30
0.0
 10
11.5121336102513
 20
3.507329942324
 30
0.0
 10
11.498432073132
 20
3.499954831372012
 30
0.0
  0
LINE
  5
18E
330
1F
100
AcDbEntity
  8
0
  6
Continuous
 62
     7
370
    15
100
AcDbLine
 10
11.4878837163
 20
3.4999548314
 30
0.0
 11
11.4984320731
 21
3.4999548314
 31
0.0
  0
SPLINE
  5
18F
330
1F
100
AcDbEntity
  8
0
  6
Continuous
 62
     7
370
    15
100
AcDbSpline
210
0.0
220
0.0
230
1.0
 70
     8
 71
     3
 72
    12
 73
     8
 74
     0
 42
0.00000001
 43
0.00000001
 40
0.0
 40
0.0
 40
0.0
 40
0.0
 40
0.2167025279531233
 40
0.4333100470468112
 40
0.657497866614429
 40
0.8815478442095221
 40
0.9999999999999999
 40
0.9999999999999999
 40
0.9999999999999999
 40
0.9999999999999999
 10
11.48788371634168
 20
3.499954831372012
 30
0.0
 10
11.47545052913788
 20
3.506670004330351
 30
0.0
 10
11.45058960581083
 20
3.520097406114675
 30
0.0
 10
11.41134734835455
 20
3.536398196172055
 30
0.0
 10
11.37050771413647
 20
3.548449697243126
 30
0.0
 10
11.33484831700403
 20
3.554253524936778
 30
0.0
 10
11.31315900218609
 20
3.554774620226006
 30
0.0
 10
11.30565789241954
 20
3.554954837673913
 30
0.0
  0
LINE
  5
190
330
1F
100
AcDbEntity
  8
0
  6
Continuous
 62
     7
370
    15
100
AcDbLine
 10
11.3056578924
 20
3.5549548377
 30
0.0
 11
11.6806578971
 21
3.5549548377
 31
0.0
  0
SPLINE
  5
191
330
1F
100
AcDbEntity
  8
0
  6
Continuous
 62
     7
370
    15
100
AcDbSpline
210
0.0
220
0.0
230
1.0
 70
     8
 71
     3
 72
    12
 73
     8
 74
     0
 42
0.00000001
 43
0.00000001
 40
0.0
 40
0.0
 40
0.0
 40
0.0
 40
0.2167024912126607
 40
0.4333100078118858
 40
0.6574978760769369
 40
0.8815478455736231
 40
1.0
 40
1.0
 40
1.0
 40
1.0
 10
11.498432073132
 20
3.034954856424736
 30
0.0
 10
11.51086526060028
 20
3.028239689659324
 30
0.0
 10
11.5357261864201
 20
3.014812299197425
 30
0.0
 10
11.57496844720314
 20
2.998511523763165
 30
0.0
 10
11.61580806798444
 20
2.986459944504372
 30
0.0
 10
11.65146747339043
 20
2.980656147849492
 30
0.0
 10
11.67315678743441
 20
2.980135050093603
 30
0.0
 10
11.68065789705415
 20
2.979954831789714
 30
0.0
  0
LINE
  5
192
330
1F
100
AcDbEntity
  8
0
  6
Continuous
 62
     7
370
    15
100
AcDbLine
 10
11.3056578924
 20
2.9799548318
 30
0.0
 11
11.6806578971
 21
2.9799548318
 31
0.0
  0
SPLINE
  5
193
330
1F
100
AcDbEntity
  8
0
  6
Continuous
 62
     7
370
    15
100
AcDbSpline
210
0.0
220
0.0
230
1.0
 70
     8
 71
     3
 72
    11
 73
     7
 74
     0
 42
0.00000001
 43
0.00000001
 40
0.0
 40
0.0
 40
0.0
 40
0.0
 40
0.2595785224412309
 40
0.5246624279949195
 40
0.7613709765666772
 40
1.0
 40
1.0
 40
1.0
 40
1.0
 10
11.30565789241954
 20
2.979954831789714
 30
0.0
 10
11.32210641315476
 20
2.980796637294119
 30
0.0
 10
11.35535231017547
 20
2.982498102098243
 30
0.0
 10
11.40249370091276
 20
2.995321151913231
 30
0.0
 10
11.44688937276019
 20
3.012888882876575
 30
0.0
 10
11.47418217871003
 20
3.027579747067316
 30
0.0
 10
11.48788371634168
 20
3.034954856424736
 30
0.0
  0
LINE
  5
194
330
1F
100
AcDbEntity
  8
0
  6
Continuous
 62
     7
370
    15
100
AcDbLine
 10
11.4878837163
 20
3.0349548564
 30
0.0
 11
11.4984320731
 21
3.0349548564
 31
0.0
  0
LINE
  5
195
330
1F
100
AcDbEntity
  8
0
  6
Continuous
 62
     7
370
    15
100
AcDbLine
 10
11.4984320731
 20
3.4999548314
 30
0.0
 11
11.4984320731
 21
3.0349548564
 31
0.0
  0
LINE
  5
196
330
1F
100
AcDbEntity
  8
0
  6
Continuous
 62
     7
370
    15
100
AcDbLine
 10
11.4878837163
 20
3.0349548564
 30
0.0
 11
11.4878837163
 21
3.4999548314
 31
0.0
  0
SPLINE
  5
197
330
1F
100
AcDbEntity
  8
0
  6
Continuous
 62
     7
370
    15
100
AcDbSpline
210
0.0
220
0.0
230
1.0
 70
     8
 71
     3
 72
    12
 73
     8
 74
     0
 42
0.00000001
 43
0.00000001
 40
0.0
 40
0.0
 40
0.0
 40
0.0
 40
0.2167026306312672
 40
0.4333100552417432
 40
0.6574978882255763
 40
0.8815479206544324
 40
1.0
 40
1.0
 40
1.0
 40
1.0
 10
11.86288371696593
 20
3.499954831372012
 30
0.0
 10
11.85045052514363
 20
3.506670002921553
 30
0.0
 10
11.82558960389105
 20
3.520097395780666
 30
0.0
 10
11.78634734758174
 20
3.536398201869912
 30
0.0
 10
11.7455077103678
 20
3.548449697318873
 30
0.0
 10
11.7098483394127
 20
3.554253523813169
 30
0.0
 10
11.68815900814284
 20
3.55477462001524
 30
0.0
 10
11.68065789705415
 20
3.554954837673913
 30
0.0
  0
LINE
  5
198
330
1F
100
AcDbEntity
  8
0
  6
Continuous
 62
     7
370
    15
100
AcDbLine
 10
11.862883717
 20
3.0349548564
 30
0.0
 11
11.862883717
 21
3.4999548314
 31
0.0
  0
SPLINE
  5
199
330
1F
100
AcDbEntity
  8
0
  6
Continuous
 62
     7
370
    15
100
AcDbSpline
210
0.0
220
0.0
230
1.0
 70
     8
 71
     3
 72
    11
 73
     7
 74
     0
 42
0.00000001
 43
0.00000001
 40
0.0
 40
0.0
 40
0.0
 40
0.0
 40
0.2595784543646303
 40
0.5246623755296098
 40
0.7613709604461143
 40
1.0
 40
1.0
 40
1.0
 40
1.0
 10
11.68065789705415
 20
2.979954831789714
 30
0.0
 10
11.69710641886762
 20
2.98079663763236
 30
0.0
 10
11.73035232346217
 20
2.982498103396221
 30
0.0
 10
11.77749370937118
 20
2.995321152959076
 30
0.0
 10
11.82188936892096
 20
3.012888881796643
 30
0.0
 10
11.84918217823305
 20
3.027579746916622
 30
0.0
 10
11.86288371696593
 20
3.034954856424736
 30
0.0
  0
SPLINE
  5
19A
330
1F
100
AcDbEntity
  8
0
  6
Continuous
 62
     7
370
    15
100
AcDbSpline
210
0.0
220
0.0
230
1.0
 70
     8
 71
     3
 72
    11
 73
     7
 74
     0
 42
0.00000001
 43
0.00000001
 40
0.0
 40
0.0
 40
0.0
 40
0.0
 40
0.2595784661031647
 40
0.5246623870380194
 40
0.7613709525386331
 40
0.9999999999999999
 40
0.9999999999999999
 40
0.9999999999999999
 40
0.9999999999999999
 10
11.30565789241954
 20
3.554954837673913
 30
0.0
 10
11.28920937067712
 20
3.554113027568179
 30
0.0
 10
11.25596346700039
 20
3.552411553227348
 30
0.0
 10
11.20882208263168
 20
3.539588513591468
 30
0.0
 10
11.16442641745461
 20
3.52202080992848
 30
0.0
 10
11.13713361072828
 20
3.507329942474694
 30
0.0
 10
11.12343207250776
 20
3.499954831372012
 30
0.0
  0
SPLINE
  5
19B
330
1F
100
AcDbEntity
  8
0
  6
Continuous
 62
     7
370
    15
100
AcDbSpline
210
0.0
220
0.0
230
1.0
 70
     8
 71
     3
 72
    12
 73
     8
 74
     0
 42
0.00000001
 43
0.00000001
 40
0.0
 40
0.0
 40
0.0
 40
0.0
 40
0.2167025938908121
 40
0.4333100160068229
 40
0.6574978976880885
 40
0.8815479220185343
 40
1.0
 40
1.0
 40
1.0
 40
1.0
 10
11.12343207250776
 20
3.034954856424736
 30
0.0
 10
11.13586526459453
 20
3.028239691068122
 30
0.0
 10
11.16072618833987
 20
3.014812309531429
 30
0.0
 10
11.19996844797594
 20
2.998511518065298
 30
0.0
 10
11.2408080717531
 20
2.98645994442862
 30
0.0
 10
11.27646745098176
 20
2.980656148973098
 30
0.0
 10
11.29815678147766
 20
2.980135050304368
 30
0.0
 10
11.30565789241954
 20
2.979954831789714
 30
0.0
  0
LINE
  5
19C
330
1F
100
AcDbEntity
  8
0
  6
Continuous
 62
     7
370
    15
100
AcDbLine
 10
11.1234320725
 20
3.4999548314
 30
0.0
 11
11.1234320725
 21
3.0349548564
 31
0.0
  0
LINE
  5
19D
330
1F
100
AcDbEntity
  8
0
  6
Continuous
 62
     7
370
    15
100
AcDbLine
 10
11.862883717
 20
3.0349548564
 30
0.0
 11
11.8681578994
 21
3.0349548564
 31
0.0
  0
SPLINE
  5
19E
330
1F
100
AcDbEntity
  8
0
  6
Continuous
 62
     7
370
    15
100
AcDbSpline
210
0.0
220
0.0
230
1.0
 70
    24
 71
     3
 72
    11
 73
     7
 74
     0
 42
0.00000001
 43
0.00000001
 40
0.0
 40
0.0
 40
0.0
 40
0.0
 40
0.34722136097872
 40
0.6690318951356844
 40
0.8345288197324428
 40
1.0
 40
1.0
 40
1.0
 40
1.0
 10
11.86815789937146
 20
3.034954856424736
 30
0.0
 10
11.86815789937146
 20
3.024410641032345
 30
0.0
 10
11.86815789937146
 20
3.004093871387742
 30
0.0
 10
11.86815789937146
 20
2.988057617365539
 30
0.0
 10
11.86815789937146
 20
2.980989553369364
 30
0.0
 10
11.86815789937146
 20
2.980299721096747
 30
0.0
 10
11.86815789937146
 20
2.979954831789714
 30
0.0
  0
LINE
  5
19F
330
1F
100
AcDbEntity
  8
0
  6
Continuous
 62
     7
370
    15
100
AcDbLine
 10
11.6806578971
 20
2.9799548318
 30
0.0
 11
11.8681578994
 21
2.9799548318
 31
0.0
  0
SPLINE
  5
1A0
330
1F
100
AcDbEntity
  8
0
  6
Continuous
 62
     7
370
    15
100
AcDbSpline
210
0.0
220
0.0
230
1.0
 70
    24
 71
     3
 72
    10
 73
     6
 74
     0
 42
0.00000001
 43
0.00000001
 40
0.0
 40
0.0
 40
0.0
 40
0.0
 40
0.3213230924946635
 40
0.6526568993291907
 40
1.0
 40
1.0
 40
1.0
 40
1.0
 10
11.86815789937146
 20
3.554954837673913
 30
0.0
 10
11.86815789937146
 20
3.553625373333203
 30
0.0
 10
11.86815789937146
 20
3.550925025631333
 30
0.0
 10
11.86815789937146
 20
3.5308952020685
 30
0.0
 10
11.86815789937146
 20
3.510429212191082
 30
0.0
 10
11.86815789937146
 20
3.499954831372012
 30
0.0
  0
LINE
  5
1A1
330
1F
100
AcDbEntity
  8
0
  6
Continuous
 62
     7
370
    15
100
AcDbLine
 10
11.862883717
 20
3.4999548314
 30
0.0
 11
11.8681578994
 21
3.4999548314
 31
0.0
  0
LINE
  5
1A2
330
1F
100
AcDbEntity
  8
0
  6
Continuous
 62
     7
370
    15
100
AcDbLine
 10
11.6806578971
 20
3.5549548377
 30
0.0
 11
11.8681578994
 21
3.5549548377
 31
0.0
  0
SPLINE
  5
1A3
330
1F
100
AcDbEntity
  8
0
  6
Continuous
 62
     7
370
    15
100
AcDbSpline
210
0.0
220
0.0
230
1.0
 70
    24
 71
     3
 72
    10
 73
     6
 74
     0
 42
0.00000001
 43
0.00000001
 40
0.0
 40
0.0
 40
0.0
 40
0.0
 40
0.3213230942627418
 40
0.6526568732263297
 40
0.9999999999999999
 40
0.9999999999999999
 40
0.9999999999999999
 40
0.9999999999999999
 10
11.11815789010223
 20
2.979954831789714
 30
0.0
 10
11.11815789010223
 20
2.981284305875889
 30
0.0
 10
11.11815789010223
 20
2.983984673249447
 30
0.0
 10
11.11815789010223
 20
3.004014457386165
 30
0.0
 10
11.11815789010223
 20
3.024480465472172
 30
0.0
 10
11.11815789010223
 20
3.034954856424736
 30
0.0
  0
LINE
  5
1A4
330
1F
100
AcDbEntity
  8
0
  6
Continuous
 62
     7
370
    15
100
AcDbLine
 10
11.1181578901
 20
3.0349548564
 30
0.0
 11
11.1234320725
 21
3.0349548564
 31
0.0
  0
LINE
  5
1A5
330
1F
100
AcDbEntity
  8
0
  6
Continuous
 62
     7
370
    15
100
AcDbLine
 10
11.1181578901
 20
2.9799548318
 30
0.0
 11
11.3056578924
 21
2.9799548318
 31
0.0
  0
LINE
  5
1A6
330
1F
100
AcDbEntity
  8
0
  6
Continuous
 62
     7
370
    15
100
AcDbLine
 10
11.1181578901
 20
3.4999548314
 30
0.0
 11
11.1234320725
 21
3.4999548314
 31
0.0
  0
SPLINE
  5
1A7
330
1F
100
AcDbEntity
  8
0
  6
Continuous
 62
     7
370
    15
100
AcDbSpline
210
0.0
220
0.0
230
1.0
 70
    24
 71
     3
 72
    11
 73
     7
 74
     0
 42
0.00000001
 43
0.00000001
 40
0.0
 40
0.0
 40
0.0
 40
0.0
 40
0.3472213450108974
 40
0.6690318616475516
 40
0.8345288118415027
 40
1.0
 40
1.0
 40
1.0
 40
1.0
 10
11.11815789010223
 20
3.499954831372012
 30
0.0
 10
11.11815789010223
 20
3.510499044944125
 30
0.0
 10
11.11815789010223
 20
3.530815810998754
 30
0.0
 10
11.11815789010223
 20
3.546852001658061
 30
0.0
 10
11.11815789010223
 20
3.553920125072603
 30
0.0
 10
11.11815789010223
 20
3.554609951371805
 30
0.0
 10
11.11815789010223
 20
3.554954837673913
 30
0.0
  0
LINE
  5
1A8
330
1F
100
AcDbEntity
  8
0
  6
Continuous
 62
     7
370
    15
100
AcDbLine
 10
11.1181578901
 20
3.5549548377
 30
0.0
 11
11.3056578924
 21
3.5549548377
 31
0.0
  0
LINE
  5
1A9
330
1F
100
AcDbEntity
  8
0
  6
Continuous
 62
     7
370
    15
100
AcDbLine
 10
11.4931578947
 20
3.964954843
 30
0.0
 11
11.178157907
 21
3.964954843
 31
0.0
  0
LINE
  5
1AA
330
1F
100
AcDbEntity
  8
0
  6
Continuous
 62
     7
370
    15
100
AcDbLine
 10
11.8081578825
 20
3.964954843
 30
0.0
 11
11.4931578947
 21
3.964954843
 31
0.0
  0
LINE
  5
1AB
330
1F
100
AcDbEntity
  8
0
  6
Continuous
 62
     7
370
    15
100
AcDbLine
 10
11.4931578947
 20
3.979954838
 30
0.0
 11
11.7931578874
 21
3.979954838
 31
0.0
  0
LINE
  5
1AC
330
1F
100
AcDbEntity
  8
0
  6
Continuous
 62
     7
370
    15
100
AcDbLine
 10
11.193157902
 20
3.979954838
 30
0.0
 11
11.4931578947
 21
3.979954838
 31
0.0
  0
LINE
  5
1AD
330
1F
100
AcDbEntity
  8
0
  6
Continuous
 62
     7
370
    15
100
AcDbLine
 10
11.4931578947
 20
2.7449548665
 30
0.0
 11
11.7181578939
 21
2.7449548665
 31
0.0
  0
LINE
  5
1AE
330
1F
100
AcDbEntity
  8
0
  6
Continuous
 62
     7
370
    15
100
AcDbLine
 10
11.2681578956
 20
2.7449548665
 30
0.0
 11
11.4931578947
 21
2.7449548665
 31
0.0
  0
LINE
  5
1AF
330
1F
100
AcDbEntity
  8
0
  6
Continuous
 62
     7
370
    15
100
AcDbLine
 10
11.4931578947
 20
2.7299548531
 30
0.0
 11
11.2831578907
 21
2.7299548531
 31
0.0
  0
LINE
  5
1B0
330
1F
100
AcDbEntity
  8
0
  6
Continuous
 62
     7
370
    15
100
AcDbLine
 10
11.7031578988
 20
2.7299548531
 30
0.0
 11
11.4931578947
 21
2.7299548531
 31
0.0
  0
LINE
  5
1B1
330
1F
100
AcDbEntity
  8
0
  6
Continuous
 62
     7
370
    15
100
AcDbLine
 10
11.8681578994
 20
3.4999548314
 30
0.0
 11
11.8681578994
 21
3.0349548564
 31
0.0
  0
LINE
  5
1B2
330
1F
100
AcDbEntity
  8
0
  6
Continuous
 62
     7
370
    15
100
AcDbLine
 10
11.1181578901
 20
3.0349548564
 30
0.0
 11
11.1181578901
 21
3.4999548314
 31
0.0
  0
LINE
  5
1B3
330
1F
100
AcDbEntity
  8
0
  6
Continuous
 62
     7
370
    15
100
AcDbLine
 10
11.7569078979
 20
4.8174548582
 30
0.0
 11
11.2294078916
 21
4.8174548582
 31
0.0
  0
ARC
  5
1B4
330
1F
100
AcDbEntity
  8
0
  6
Continuous
 62
     7
370
    15
100
AcDbCircle
 10
12.0196658684
 20
4.0224561125
 30
0.0
 40
0.2646095861629165
100
AcDbArc
 50
173.2179055381
 51
186.6971930493
  0
LINE
  5
1B5
330
1F
100
AcDbEntity
  8
0
  6
Continuous
 62
     7
370
    15
100
AcDbLine
 10
11.6862252444
 20
4.862454825
 30
0.0
 11
11.7231578861
 21
4.862454825
 31
0.0
  0
LINE
  5
1B6
330
1F
100
AcDbEntity
  8
0
  6
Continuous
 62
     7
370
    15
100
AcDbLine
 10
11.2631579034
 20
4.862454825
 30
0.0
 11
11.3000905451
 21
4.862454825
 31
0.0
  0
LINE
  5
1B7
330
1F
100
AcDbEntity
  8
0
  6
Continuous
 62
     7
370
    15
100
AcDbLine
 10
11.3000905451
 20
4.8599548472
 30
0.0
 11
11.3000905451
 21
4.862454825
 31
0.0
  0
SPLINE
  5
1B8
330
1F
100
AcDbEntity
  8
0
  6
Continuous
 62
     7
370
    15
100
AcDbSpline
210
0.0
220
0.0
230
1.0
 70
     8
 71
     3
 72
    14
 73
    10
 74
     0
 42
0.00000001
 43
0.00000001
 40
0.0
 40
0.0
 40
0.0
 40
0.0
 40
0.25
 40
0.25
 40
0.5
 40
0.5
 40
0.75
 40
0.75
 40
1.0
 40
1.0
 40
1.0
 40
1.0
 10
11.31262050248803
 20
4.842454836501767
 30
0.0
 10
11.31101999977029
 20
4.842454836501767
 30
0.0
 10
11.30948925531185
 20
4.84279655195763
 30
0.0
 10
11.3065664008713
 20
4.844249000768347
 30
0.0
 10
11.30520798465904
 20
4.845352868703662
 30
0.0
 10
11.30283872609416
 20
4.848395995877023
 30
0.0
 10
11.30184648712623
 20
4.85032847731096
 30
0.0
 10
11.30046912668551
 20
4.854817114444546
 30
0.0
 10
11.30009054897376
 20
4.857355004713963
 30
0.0
 10
11.30009054897376
 20
4.859954836501767
 30
0.0
  0
LINE
  5
1B9
330
1F
100
AcDbEntity
  8
0
  6
Continuous
 62
     7
370
    15
100
AcDbLine
 10
11.6736952892
 20
4.842454856
 30
0.0
 11
11.3126205003
 21
4.842454856
 31
0.0
  0
SPLINE
  5
1BA
330
1F
100
AcDbEntity
  8
0
  6
Continuous
 62
     7
370
    15
100
AcDbSpline
210
0.0
220
0.0
230
1.0
 70
     8
 71
     3
 72
    14
 73
    10
 74
     0
 42
0.00000001
 43
0.00000001
 40
0.0
 40
0.0
 40
0.0
 40
0.0
 40
0.25
 40
0.25
 40
0.5
 40
0.5
 40
0.75
 40
0.75
 40
1.0
 40
1.0
 40
1.0
 40
1.0
 10
11.68622524049992
 20
4.859954836501766
 30
0.0
 10
11.68622524049992
 20
4.857361809623672
 30
0.0
 10
11.68584682354454
 20
4.854823425278942
 30
0.0
 10
11.68447844728588
 20
4.850352531696459
 30
0.0
 10
11.68349064226547
 20
4.848418864011812
 30
0.0
 10
11.68112386892699
 20
4.845368142176049
 30
0.0
 10
11.67976324225669
 20
4.844258544029787
 30
0.0
 10
11.67683955520004
 20
4.842800387811584
 30
0.0
 10
11.67529419710749
 20
4.842454836501767
 30
0.0
 10
11.67369528698565
 20
4.842454836501767
 30
0.0
  0
LINE
  5
1BB
330
1F
100
AcDbEntity
  8
0
  6
Continuous
 62
     7
370
    15
100
AcDbLine
 10
11.6862252444
 20
4.862454825
 30
0.0
 11
11.6862252444
 21
4.8599548472
 31
0.0
  0
LINE
  5
1BC
330
1F
100
AcDbEntity
  8
0
  6
Continuous
 62
     7
370
    15
100
AcDbLine
 10
11.3000905451
 20
4.8599548472
 30
0.0
 11
11.6862252444
 21
4.8599548472
 31
0.0
  0
SPLINE
  5
1BD
330
1F
100
AcDbEntity
  8
0
  6
Continuous
 62
     7
370
    15
100
AcDbSpline
210
0.0
220
0.0
230
1.0
 70
     8
 71
     3
 72
    12
 73
     8
 74
     0
 42
0.00000001
 43
0.00000001
 40
0.0
 40
0.0
 40
0.0
 40
0.0
 40
0.25
 40
0.25
 40
0.5
 40
0.5
 40
1.0
 40
1.0
 40
1.0
 40
1.0
 10
11.57607351449573
 20
4.942454836501765
 30
0.0
 10
11.58598603430524
 20
4.936975485012582
 30
0.0
 10
11.59561783377736
 20
4.930982305414637
 30
0.0
 10
11.61453571699596
 20
4.918363151106219
 30
0.0
 10
11.62383131338938
 20
4.911724225659913
 30
0.0
 10
11.65120427699316
 20
4.891318802047416
 30
0.0
 10
11.66885072879996
 20
4.877039405448901
 30
0.0
 10
11.68622524049992
 20
4.862454836501766
 30
0.0
  0
LINE
  5
1BE
330
1F
100
AcDbEntity
  8
0
  6
Continuous
 62
     7
370
    15
100
AcDbLine
 10
11.5760735161
 20
4.9424547742
 30
0.0
 11
11.6431578911
 21
4.9424547742
 31
0.0
  0
SPLINE
  5
1BF
330
1F
100
AcDbEntity
  8
0
  6
Continuous
 62
     7
370
    15
100
AcDbSpline
210
0.0
220
0.0
230
1.0
 70
     8
 71
     3
 72
    12
 73
     8
 74
     0
 42
0.00000001
 43
0.00000001
 40
0.0
 40
0.0
 40
0.0
 40
0.0
 40
0.5
 40
0.5
 40
0.75
 40
0.75
 40
1.0
 40
1.0
 40
1.0
 40
1.0
 10
11.30009054897376
 20
4.862454836501766
 30
0.0
 10
11.31749480279334
 20
4.877064371675382
 30
0.0
 10
11.33515045017212
 20
4.891347601707965
 30
0.0
 10
11.36245712034821
 20
4.911703946426716
 30
0.0
 10
11.3716997164237
 20
4.918307192988497
 30
0.0
 10
11.39062829532939
 20
4.930938176628143
 30
0.0
 10
11.40030861628994
 20
4.936963800057829
 30
0.0
 10
11.41024227497796
 20
4.942454836501765
 30
0.0
  0
LINE
  5
1C0
330
1F
100
AcDbEntity
  8
0
  6
Continuous
 62
     7
370
    15
100
AcDbLine
 10
11.5760735161
 20
4.9424547742
 30
0.0
 11
11.4102422734
 21
4.9424547742
 31
0.0
  0
LINE
  5
1C1
330
1F
100
AcDbEntity
  8
0
  6
Continuous
 62
     7
370
    15
100
AcDbLine
 10
11.3431578984
 20
4.9424547742
 30
0.0
 11
11.4102422734
 21
4.9424547742
 31
0.0
  0
LINE
  5
1C2
330
1F
100
AcDbEntity
  8
0
  6
Continuous
 62
     8
370
    15
100
AcDbLine
 10
11.5615518871
 20
5.5003319562
 30
0.0
 11
11.9142634268
 21
5.5003319562
 31
0.0
  0
LINE
  5
1C3
330
1F
100
AcDbEntity
  8
0
  6
Continuous
 62
     8
370
    15
100
AcDbLine
 10
11.9142634268
 20
5.8878319597
 30
0.0
 11
11.5615518871
 21
5.8878319597
 31
0.0
  0
LINE
  5
1C4
330
1F
100
AcDbEntity
  8
0
  6
Continuous
 62
     8
370
    15
100
AcDbLine
 10
11.0720523627
 20
5.5003319562
 30
0.0
 11
11.4247639023
 21
5.5003319562
 31
0.0
  0
LINE
  5
1C5
330
1F
100
AcDbEntity
  8
0
  6
Continuous
 62
     8
370
    15
100
AcDbLine
 10
11.4247639023
 20
5.8878319597
 30
0.0
 11
11.0720523627
 21
5.8878319597
 31
0.0
  0
LINE
  5
1C6
330
1F
100
AcDbEntity
  8
0
  6
Continuous
 62
     8
370
    15
100
AcDbLine
 10
11.8056579047
 20
5.453456951
 30
0.0
 11
11.1806578848
 21
5.453456951
 31
0.0
  0
LINE
  5
1C7
330
1F
100
AcDbEntity
  8
0
  6
Continuous
 62
     8
370
    15
100
AcDbLine
 10
11.1806578848
 20
5.3897069675
 30
0.0
 11
11.8056579047
 21
5.3897069675
 31
0.0
  0
LINE
  5
1C8
330
1F
100
AcDbEntity
  8
0
  6
Continuous
 62
     8
370
    15
100
AcDbLine
 10
11.9417715056
 20
5.8878319597
 30
0.0
 11
11.9142634268
 21
5.8878319597
 31
0.0
  0
LINE
  5
1C9
330
1F
100
AcDbEntity
  8
0
  6
Continuous
 62
     8
370
    15
100
AcDbLine
 10
11.9142634268
 20
5.5003319562
 30
0.0
 11
11.9417715056
 21
5.5003319562
 31
0.0
  0
LINE
  5
1CA
330
1F
100
AcDbEntity
  8
0
  6
Continuous
 62
     8
370
    15
100
AcDbLine
 10
11.0720523627
 20
5.8878319597
 30
0.0
 11
11.0445442838
 21
5.8878319597
 31
0.0
  0
LINE
  5
1CB
330
1F
100
AcDbEntity
  8
0
  6
Continuous
 62
     8
370
    15
100
AcDbLine
 10
11.0445442838
 20
5.5003319562
 30
0.0
 11
11.0720523627
 21
5.5003319562
 31
0.0
  0
LINE
  5
1CC
330
1F
100
AcDbEntity
  8
0
  6
Continuous
 62
     8
370
    15
100
AcDbLine
 10
11.9417715056
 20
5.5003319562
 30
0.0
 11
12.0410728952
 21
5.5003319562
 31
0.0
  0
LINE
  5
1CD
330
1F
100
AcDbEntity
  8
0
  6
Continuous
 62
     8
370
    15
100
AcDbLine
 10
12.0410728952
 20
5.8878319597
 30
0.0
 11
11.9417715056
 21
5.8878319597
 31
0.0
  0
LINE
  5
1CE
330
1F
100
AcDbEntity
  8
0
  6
Continuous
 62
     8
370
    15
100
AcDbLine
 10
11.0445442838
 20
5.8878319597
 30
0.0
 11
10.9452428943
 21
5.8878319597
 31
0.0
  0
LINE
  5
1CF
330
1F
100
AcDbEntity
  8
0
  6
Continuous
 62
     8
370
    15
100
AcDbLine
 10
10.9452428943
 20
5.5003319562
 30
0.0
 11
11.0445442838
 21
5.5003319562
 31
0.0
  0
LINE
  5
1D0
330
1F
100
AcDbEntity
  8
0
  6
Continuous
 62
     8
370
    15
100
AcDbLine
 10
11.178157907
 20
3.5799548355
 30
0.0
 11
11.8081578825
 21
3.5799548355
 31
0.0
  0
LINE
  5
1D1
330
1F
100
AcDbEntity
  8
0
  6
Continuous
 62
     8
370
    15
100
AcDbLine
 10
11.2681578956
 20
2.9549548339
 30
0.0
 11
11.7181578939
 21
2.9549548339
 31
0.0
  0
LINE
  5
1D2
330
1F
100
AcDbEntity
  8
0
  6
Continuous
 62
     7
370
    15
100
AcDbLine
 10
6.1972946889
 20
7.19788286
 30
0.0
 11
6.1972946889
 21
7.3011752171
 31
0.0
  0
LINE
  5
1D3
330
1F
100
AcDbEntity
  8
0
  6
Continuous
 62
     7
370
    15
100
AcDbLine
 10
5.5117332629
 20
7.3917520737
 30
0.0
 11
5.5117332629
 21
7.2884597165
 31
0.0
  0
LINE
  5
1D4
330
1F
100
AcDbEntity
  8
0
  6
Continuous
 62
     7
370
    15
100
AcDbLine
 10
6.1972946889
 20
6.973334096
 30
0.0
 11
6.1972946889
 21
7.0766265131
 31
0.0
  0
LINE
  5
1D5
330
1F
100
AcDbEntity
  8
0
  6
Continuous
 62
     7
370
    15
100
AcDbLine
 10
5.5117332629
 20
7.1672033696
 30
0.0
 11
5.5117332629
 21
7.0639109525
 31
0.0
  0
LINE
  5
1D6
330
1F
100
AcDbEntity
  8
0
  6
Continuous
 62
     7
370
    15
100
AcDbLine
 10
5.7607639751
 20
7.7991337322
 30
0.0
 11
5.7607639751
 21
7.7375417469
 31
0.0
  0
LINE
  5
1D7
330
1F
100
AcDbEntity
  8
0
  6
Continuous
 62
     7
370
    15
100
AcDbLine
 10
5.9482639767
 20
7.7375417469
 30
0.0
 11
5.9482639767
 21
7.79014051
 31
0.0
  0
SPLINE
  5
1D8
330
1F
100
AcDbEntity
  8
0
  6
Continuous
 62
     7
370
    15
100
AcDbSpline
210
0.0
220
0.0
230
1.0
 70
     8
 71
     3
 72
    10
 73
     6
 74
     0
 42
0.00000001
 43
0.00000001
 40
0.0
 40
0.0
 40
0.0
 40
0.0
 40
0.1966341286784604
 40
0.7460684646956566
 40
1.0
 40
1.0
 40
1.0
 40
1.0
 10
6.228358544509717
 20
8.327486676046115
 30
0.0
 10
6.228563598473457
 20
8.329896109775493
 30
0.0
 10
6.22934161344438
 20
8.339037974086354
 30
0.0
 10
6.22686528965466
 20
8.351312919269608
 30
0.0
 10
6.223663388092239
 20
8.360727605455944
 30
0.0
 10
6.222651316496141
 20
8.363703442248429
 30
0.0
  0
LINE
  5
1D9
330
1F
100
AcDbEntity
  8
0
  6
Continuous
 62
     7
370
    15
100
AcDbLine
 10
6.2289149304
 20
8.013517792
 30
0.0
 11
6.2289149304
 21
8.3299273595
 31
0.0
  0
SPLINE
  5
1DA
330
1F
100
AcDbEntity
  8
0
  6
Continuous
 62
     7
370
    15
100
AcDbSpline
210
0.0
220
0.0
230
1.0
 70
     8
 71
     3
 72
    12
 73
     8
 74
     0
 42
0.00000001
 43
0.00000001
 40
0.0
 40
0.0
 40
0.0
 40
0.0
 40
0.1501742539449376
 40
0.4192692055053289
 40
0.6813768254685827
 40
0.9328719717702595
 40
0.9999999999999999
 40
0.9999999999999999
 40
0.9999999999999999
 40
0.9999999999999999
 10
5.42628961492716
 20
8.443023381574386
 30
0.0
 10
5.423180482326067
 20
8.439771914805748
 30
0.0
 10
5.414500142512634
 20
8.430694194404257
 30
0.0
 10
5.403332153648356
 20
8.414259759484182
 30
0.0
 10
5.395039990285091
 20
8.393732923478096
 30
0.0
 10
5.391433485108761
 20
8.377599868629012
 30
0.0
 10
5.39206963151652
 20
8.368720236564892
 30
0.0
 10
5.392203655835627
 20
8.366849461808012
 30
0.0
  0
LINE
  5
1DB
330
1F
100
AcDbEntity
  8
0
  6
Continuous
 62
     7
370
    15
100
AcDbLine
 10
5.3917561048
 20
8.366986387
 30
0.0
 11
5.3917561048
 21
8.0505768195
 31
0.0
  0
SPLINE
  5
1DC
330
1F
100
AcDbEntity
  8
0
  6
Continuous
 62
     7
370
    15
100
AcDbSpline
210
0.0
220
0.0
230
1.0
 70
     8
 71
     3
 72
    24
 73
    20
 74
     0
 42
0.00000001
 43
0.00000001
 40
0.0
 40
0.0
 40
0.0
 40
0.0
 40
0.0335918135540583
 40
0.0956968157670392
 40
0.1577170610431566
 40
0.2195617298199509
 40
0.2812165594590494
 40
0.3427553424216656
 40
0.4042859917620948
 40
0.4659098016015316
 40
0.5277333042971982
 40
0.5898834351456378
 40
0.6524663122567438
 40
0.7155090330688022
 40
0.7787608646725225
 40
0.841397153191089
 40
0.8961742410868314
 40
0.9548016784030485
 40
1.0
 40
1.0
 40
1.0
 40
1.0
 10
5.858091272649655
 20
7.916386547310783
 30
0.0
 10
5.86214586491076
 20
7.913884665157786
 30
0.0
 10
5.87369664254285
 20
7.906757269220055
 30
0.0
 10
5.894992427806821
 20
7.896822639051201
 30
0.0
 10
5.922311794410698
 20
7.887450602393397
 30
0.0
 10
5.951453008738471
 20
7.880693718011307
 30
0.0
 10
5.981766756838855
 20
7.876593650386893
 30
0.0
 10
6.012673801283944
 20
7.875204695664696
 30
0.0
 10
6.043581313645198
 20
7.876537936300529
 30
0.0
 10
6.073907349975333
 20
7.880579468331376
 30
0.0
 10
6.103084140241368
 20
7.887290351347178
 30
0.0
 10
6.130568135337641
 20
7.896617002126769
 30
0.0
 10
6.155831600462164
 20
7.908499240515743
 30
0.0
 10
6.178334736348607
 20
7.922864217093212
 30
0.0
 10
6.197451730463817
 20
7.939568867874227
 30
0.0
 10
6.212087553463011
 20
7.957698869096604
 30
0.0
 10
6.222327928876413
 20
7.977159042111881
 30
0.0
 10
6.228212303535051
 20
7.995954638627902
 30
0.0
 10
6.228443027663907
 20
8.008642745559696
 30
0.0
 10
6.22854346847441
 20
8.014166241304515
 30
0.0
  0
SPLINE
  5
1DD
330
1F
100
AcDbEntity
  8
0
  6
Continuous
 62
     7
370
    15
100
AcDbSpline
210
0.0
220
0.0
230
1.0
 70
     8
 71
     3
 72
     9
 73
     5
 74
     0
 42
0.00000001
 43
0.00000001
 40
0.0
 40
0.0
 40
0.0
 40
0.0
 40
0.443459864767874
 40
1.0
 40
1.0
 40
1.0
 40
1.0
 10
6.222651316496141
 20
8.363703442248429
 30
0.0
 10
6.222314589228191
 20
8.364663326719175
 30
0.0
 10
6.22155527075384
 20
8.366827861882346
 30
0.0
 10
6.221700611694589
 20
8.368647156194035
 30
0.0
 10
6.221781499761409
 20
8.369659666496288
 30
0.0
  0
SPLINE
  5
1DE
330
1F
100
AcDbEntity
  8
0
  6
Continuous
 62
     7
370
    15
100
AcDbSpline
210
0.0
220
0.0
230
1.0
 70
     8
 71
     3
 72
    22
 73
    18
 74
     0
 42
0.00000001
 43
0.00000001
 40
0.0
 40
0.0
 40
0.0
 40
0.0
 40
0.0403948652388823
 40
0.1042731897233227
 40
0.1686064788711482
 40
0.2346770120425567
 40
0.3030605655571142
 40
0.3734649655494628
 40
0.4450383649194746
 40
0.5169104842399225
 40
0.5886159699069767
 40
0.6600919090258942
 40
0.7314043002243633
 40
0.8026707131501049
 40
0.8740183767327833
 40
0.9455564419153806
 40
1.0
 40
1.0
 40
1.0
 40
1.0
 10
5.392306890465338
 20
8.048414747536018
 30
0.0
 10
5.392369815714053
 20
8.044155162816205
 30
0.0
 10
5.392532247655806
 20
8.033159693887049
 30
0.0
 10
5.397754426869342
 20
8.015865407880128
 30
0.0
 10
5.407081325483134
 20
7.997163848003707
 30
0.0
 10
5.420486081415441
 20
7.979695584430504
 30
0.0
 10
5.437657678508537
 20
7.963616347121629
 30
0.0
 10
5.458489981883831
 20
7.949219107936852
 30
0.0
 10
5.48256080813744
 20
7.936856280211277
 30
0.0
 10
5.509277439119416
 20
7.926833958918178
 30
0.0
 10
5.53797696047749
 20
7.919350134406346
 30
0.0
 10
5.568027532834339
 20
7.914511584913585
 30
0.0
 10
5.5988281482901
 20
7.912376417255727
 30
0.0
 10
5.62980200372133
 20
7.912951866936202
 30
0.0
 10
5.660317342096945
 20
7.91628359971751
 30
0.0
 10
5.687565409573367
 20
7.921667053522048
 30
0.0
 10
5.703837484042478
 20
7.926737887073358
 30
0.0
 10
5.71086953846868
 20
7.928929271926389
 30
0.0
  0
SPLINE
  5
1DF
330
1F
100
AcDbEntity
  8
0
  6
Continuous
 62
     7
370
    15
100
AcDbSpline
210
0.0
220
0.0
230
1.0
 70
     8
 71
     3
 72
    16
 73
    12
 74
     0
 42
0.00000001
 43
0.00000001
 40
0.0
 40
0.0
 40
0.0
 40
0.0
 40
0.0679842049114064
 40
0.1998181890520563
 40
0.3327651351460393
 40
0.4663886439630284
 40
0.5999999883646013
 40
0.7327208841290007
 40
0.8639079775967344
 40
0.9856929881035449
 40
1.0
 40
1.0
 40
1.0
 40
1.0
 10
5.71086953846868
 20
7.928929271926389
 30
0.0
 10
5.714041900120897
 20
7.929931868008044
 30
0.0
 10
5.723366059478062
 20
7.932878683869876
 30
0.0
 10
5.740533068902346
 20
7.936377283163782
 30
0.0
 10
5.762169320351154
 20
7.938472283316474
 30
0.0
 10
5.784297894768458
 20
7.938248126882206
 30
0.0
 10
5.805877557597357
 20
7.935729269059724
 30
0.0
 10
5.825937766680832
 20
7.931078037961075
 30
0.0
 10
5.843206682663705
 20
7.924765695169142
 30
0.0
 10
5.853237405105032
 20
7.919491911727262
 30
0.0
 10
5.857629538696188
 20
7.916681951372757
 30
0.0
 10
5.858091272649655
 20
7.916386547310783
 30
0.0
  0
SPLINE
  5
1E0
330
1F
100
AcDbEntity
  8
0
  6
Continuous
 62
     7
370
    15
100
AcDbSpline
210
0.0
220
0.0
230
1.0
 70
     8
 71
     3
 72
    10
 73
     6
 74
     0
 42
0.00000001
 43
0.00000001
 40
0.0
 40
0.0
 40
0.0
 40
0.0
 40
0.4281186319044715
 40
0.7726076649629073
 40
1.0
 40
1.0
 40
1.0
 40
1.0
 10
5.435873006098731
 20
8.460935886014317
 30
0.0
 10
5.435695894343003
 20
8.458993676300969
 30
0.0
 10
5.435376268216428
 20
8.45548865222663
 30
0.0
 10
5.431839055253857
 20
8.449000060509677
 30
0.0
 10
5.427868423524378
 20
8.444723739003308
 30
0.0
 10
5.42628961492716
 20
8.443023381574386
 30
0.0
  0
SPLINE
  5
1E1
330
1F
100
AcDbEntity
  8
0
  6
Continuous
 62
     7
370
    15
100
AcDbSpline
210
0.0
220
0.0
230
1.0
 70
     8
 71
     3
 72
    18
 73
    14
 74
     0
 42
0.00000001
 43
0.00000001
 40
0.0
 40
0.0
 40
0.0
 40
0.0
 40
0.0477234366828115
 40
0.1372880138501894
 40
0.226974273155129
 40
0.3187306195998151
 40
0.4136405211345746
 40
0.51157789435996
 40
0.6114656577299955
 40
0.7120542988234431
 40
0.812478507911509
 40
0.9125802209376309
 40
1.0
 40
1.0
 40
1.0
 40
1.0
 10
6.414646863046344
 20
8.54025797734982
 30
0.0
 10
6.414774647673192
 20
8.543851365361185
 30
0.0
 10
6.415142251073953
 20
8.554188615512558
 30
0.0
 10
6.410890232765483
 20
8.571021452286098
 30
0.0
 10
6.402549756714297
 20
8.590001101225363
 30
0.0
 10
6.390071849358743
 20
8.607778170363849
 30
0.0
 10
6.373817756518118
 20
8.62421553301326
 30
0.0
 10
6.353839869145473
 20
8.639052249712707
 30
0.0
 10
6.330502766006433
 20
8.651936960770527
 30
0.0
 10
6.304365866015158
 20
8.662558847810386
 30
0.0
 10
6.276079106845732
 20
8.670630788836561
 30
0.0
 10
6.247550786494802
 20
8.676027174314616
 30
0.0
 10
6.228351132250828
 20
8.677568970990075
 30
0.0
 10
6.219400534037318
 20
8.678287734067453
 30
0.0
  0
LINE
  5
1E2
330
1F
100
AcDbEntity
  8
0
  6
Continuous
 62
     7
370
    15
100
AcDbLine
 10
6.4152162707
 20
8.2245955153
 30
0.0
 11
6.4152162707
 21
8.5410050828
 31
0.0
  0
SPLINE
  5
1E3
330
1F
100
AcDbEntity
  8
0
  6
Continuous
 62
     7
370
    15
100
AcDbSpline
210
0.0
220
0.0
230
1.0
 70
     8
 71
     3
 72
    12
 73
     8
 74
     0
 42
0.00000001
 43
0.00000001
 40
0.0
 40
0.0
 40
0.0
 40
0.0
 40
0.022710094579612
 40
0.2915140107977326
 40
0.5600499191672271
 40
0.828406107343682
 40
1.0
 40
1.0
 40
1.0
 40
1.0
 10
5.724297792488905
 20
7.932626974345512
 30
0.0
 10
5.725225940431561
 20
7.932338523657163
 30
0.0
 10
5.737139943186093
 20
7.928635878704133
 30
0.0
 10
5.761814033796002
 20
7.92373820182079
 30
0.0
 10
5.79783785149534
 20
7.918368247200739
 30
0.0
 10
5.830412411844552
 20
7.915781087628563
 30
0.0
 10
5.850729091333831
 20
7.915975089173275
 30
0.0
 10
5.858653213345167
 20
7.916050755667472
 30
0.0
  0
SPLINE
  5
1E4
330
1F
100
AcDbEntity
  8
0
  6
Continuous
 62
     7
370
    15
100
AcDbSpline
210
0.0
220
0.0
230
1.0
 70
     8
 71
     3
 72
    20
 73
    16
 74
     0
 42
0.00000001
 43
0.00000001
 40
0.0
 40
0.0
 40
0.0
 40
0.0
 40
0.0445413359984744
 40
0.1279696477211285
 40
0.211449489995772
 40
0.2950709339869578
 40
0.3789865068776155
 40
0.4633668114734018
 40
0.5483478144100024
 40
0.6339413758253631
 40
0.7197084320418039
 40
0.8044578058562695
 40
0.8784068976147096
 40
0.9574974426111317
 40
1.0
 40
1.0
 40
1.0
 40
1.0
 10
5.586759397868408
 20
8.736131803540875
 30
0.0
 10
5.581355703423525
 20
8.736732976569508
 30
0.0
 10
5.56583059940491
 20
8.7384601789304
 30
0.0
 10
5.539682575401815
 20
8.739237862585329
 30
0.0
 10
5.508835541613805
 20
8.737573452862463
 30
0.0
 10
5.478626369186547
 20
8.733168100076947
 30
0.0
 10
5.449643953374396
 20
8.726109645185819
 30
0.0
 10
5.422423455067512
 20
8.716440535990552
 30
0.0
 10
5.397493887944411
 20
8.704224799082272
 30
0.0
 10
5.375399949180789
 20
8.689539631581406
 30
0.0
 10
5.356783992935569
 20
8.672542904762855
 30
0.0
 10
5.342689824890986
 20
8.65418534384007
 30
0.0
 10
5.333125954378066
 20
8.634581506595845
 30
0.0
 10
5.328088880939997
 20
8.617389021816075
 30
0.0
 10
5.32812680679213
 20
8.606441073400493
 30
0.0
 10
5.328140063676567
 20
8.602614246083025
 30
0.0
  0
SPLINE
  5
1E5
330
1F
100
AcDbEntity
  8
0
  6
Continuous
 62
     7
370
    15
100
AcDbSpline
210
0.0
220
0.0
230
1.0
 70
     8
 71
     3
 72
    12
 73
     8
 74
     0
 42
0.00000001
 43
0.00000001
 40
0.0
 40
0.0
 40
0.0
 40
0.0
 40
0.0038223045940789
 40
0.2741505520013197
 40
0.5369945111651039
 40
0.8002528950720348
 40
1.0
 40
1.0
 40
1.0
 40
1.0
 10
6.228914930356378
 20
8.069267576701678
 30
0.0
 10
6.22894010577423
 20
8.069302946501251
 30
0.0
 10
6.23074578466013
 20
8.07183980609425
 30
0.0
 10
6.237798987911557
 20
8.077777906407686
 30
0.0
 10
6.250585018527233
 20
8.085761328904304
 30
0.0
 10
6.265505305077936
 20
8.092273098199344
 30
0.0
 10
6.276447965862836
 20
8.095349717078394
 30
0.0
 10
6.2811687842218
 20
8.096677013900734
 30
0.0
  0
LINE
  5
1E6
330
1F
100
AcDbEntity
  8
0
  6
Continuous
 62
     7
370
    15
100
AcDbLine
 10
5.3275610242
 20
8.6009678501
 30
0.0
 11
5.3275610242
 21
8.2845582826
 31
0.0
  0
SPLINE
  5
1E7
330
1F
100
AcDbEntity
  8
0
  6
Continuous
 62
     7
370
    15
100
AcDbSpline
210
0.0
220
0.0
230
1.0
 70
     8
 71
     3
 72
    16
 73
    12
 74
     0
 42
0.00000001
 43
0.00000001
 40
0.0
 40
0.0
 40
0.0
 40
0.0
 40
0.0673251494130703
 40
0.1941898071403005
 40
0.3219939120755382
 40
0.450695065098092
 40
0.5794807794198247
 40
0.7064677610531045
 40
0.8170880195312901
 40
0.9353101748148952
 40
1.0
 40
1.0
 40
1.0
 40
1.0
 10
6.2811687842218
 20
8.096677013900734
 30
0.0
 10
6.286233040814396
 20
8.098046037513042
 30
0.0
 10
6.300840167862743
 20
8.101994791189227
 30
0.0
 10
6.323586302196166
 20
8.11053144557309
 30
0.0
 10
6.348208239834439
 20
8.123030814244046
 30
0.0
 10
6.369901461065838
 20
8.138023187061874
 30
0.0
 10
6.38804149386418
 20
8.155287330001467
 30
0.0
 10
6.401599503544025
 20
8.173854641026464
 30
0.0
 10
6.410583891413534
 20
8.193577410776658
 30
0.0
 10
6.415119071025175
 20
8.210867684811072
 30
0.0
 10
6.414773797212057
 20
8.221824490105998
 30
0.0
 10
6.414651685458882
 20
8.225699544201962
 30
0.0
  0
SPLINE
  5
1E8
330
1F
100
AcDbEntity
  8
0
  6
Continuous
 62
     7
370
    15
100
AcDbSpline
210
0.0
220
0.0
230
1.0
 70
     8
 71
     3
 72
    26
 73
    22
 74
     0
 42
0.00000001
 43
0.00000001
 40
0.0
 40
0.0
 40
0.0
 40
0.0
 40
0.0326613371005598
 40
0.0837654726879214
 40
0.1357465042464042
 40
0.1895048483156451
 40
0.2450048513161174
 40
0.3016564260700658
 40
0.3587499314965081
 40
0.4157620318321961
 40
0.4725919592370935
 40
0.5292699188049809
 40
0.5858807228856276
 40
0.6425300689870329
 40
0.6992984199246124
 40
0.7563005200605311
 40
0.8136486510037275
 40
0.8714195041202868
 40
0.9295757270362242
 40
0.982582772095507
 40
1.0
 40
1.0
 40
1.0
 40
1.0
 10
6.123679414272942
 20
8.724405145475844
 30
0.0
 10
6.122764916268326
 20
8.728655546510309
 30
0.0
 10
6.120419532875329
 20
8.739556412285308
 30
0.0
 10
6.112946715021826
 20
8.756362583019081
 30
0.0
 10
6.100788686468155
 20
8.774247559573114
 30
0.0
 10
6.084737546035933
 20
8.790770467516495
 30
0.0
 10
6.064985752401127
 20
8.805714007455423
 30
0.0
 10
6.041836322106856
 20
8.818730082990093
 30
0.0
 10
6.015849806406687
 20
8.829487656232784
 30
0.0
 10
5.987678951288101
 20
8.837755016103767
 30
0.0
 10
5.957973840268925
 20
8.843401184168227
 30
0.0
 10
5.927336583571432
 20
8.846359500159142
 30
0.0
 10
5.896357271724048
 20
8.84659937137253
 30
0.0
 10
5.865624151378303
 20
8.844119420488035
 30
0.0
 10
5.835714915758248
 20
8.838944789385982
 30
0.0
 10
5.807187393728354
 20
8.831122869777198
 30
0.0
 10
5.780578983735457
 20
8.820708761538892
 30
0.0
 10
5.756402573815083
 20
8.80777061033003
 30
0.0
 10
5.735895483785441
 20
8.792826692647328
 30
0.0
 10
5.722710649765256
 20
8.779871091672032
 30
0.0
 10
5.716634805271156
 20
8.772168574029738
 30
0.0
 10
5.715132136321766
 20
8.770263598663034
 30
0.0
  0
SPLINE
  5
1E9
330
1F
100
AcDbEntity
  8
0
  6
Continuous
 62
     7
370
    15
100
AcDbSpline
210
0.0
220
0.0
230
1.0
 70
     8
 71
     3
 72
    15
 73
    11
 74
     0
 42
0.00000001
 43
0.00000001
 40
0.0
 40
0.0
 40
0.0
 40
0.0
 40
0.0697187097914822
 40
0.2049906890987163
 40
0.3392392261416357
 40
0.4716679563817999
 40
0.6019587465160626
 40
0.7306409712214134
 40
0.8597720191938066
 40
1.0
 40
1.0
 40
1.0
 40
1.0
 10
6.219400534037318
 20
8.678287734067453
 30
0.0
 10
6.215667959969124
 20
8.678564008224523
 30
0.0
 10
6.20469324553968
 20
8.679376324315962
 30
0.0
 10
6.187139777701268
 20
8.682410530237707
 30
0.0
 10
6.168113738908739
 20
8.687913314240394
 30
0.0
 10
6.151899743130065
 20
8.69500706424572
 30
0.0
 10
6.139161538733999
 20
8.70304325369326
 30
0.0
 10
6.130329513586439
 20
8.711207420383564
 30
0.0
 10
6.125130461216259
 20
8.718793423599767
 30
0.0
 10
6.124176200982859
 20
8.722483892093502
 30
0.0
 10
6.123679414272942
 20
8.724405145475844
 30
0.0
  0
SPLINE
  5
1EA
330
1F
100
AcDbEntity
  8
0
  6
Continuous
 62
     7
370
    15
100
AcDbSpline
210
0.0
220
0.0
230
1.0
 70
     8
 71
     3
 72
    14
 73
    10
 74
     0
 42
0.00000001
 43
0.00000001
 40
0.0
 40
0.0
 40
0.0
 40
0.0
 40
0.0618612582684744
 40
0.2350983767113854
 40
0.4082059484081641
 40
0.5849104142583623
 40
0.7675707947672927
 40
0.9562396765036969
 40
1.0
 40
1.0
 40
1.0
 40
1.0
 10
5.328081935456611
 20
8.284290050611357
 30
0.0
 10
5.327947810965043
 20
8.2818837299124
 30
0.0
 10
5.32743808240265
 20
8.272738715633569
 30
0.0
 10
5.331151206460139
 20
8.256994521198092
 30
0.0
 10
5.338936824974033
 20
8.237885871094296
 30
0.0
 10
5.350907439725361
 20
8.219921519294653
 30
0.0
 10
5.366829784770036
 20
8.2034234831643
 30
0.0
 10
5.380767647749264
 20
8.192002699647292
 30
0.0
 10
5.390015054243889
 20
8.186709291409594
 30
0.0
 10
5.391756098357953
 20
8.18571268146702
 30
0.0
  0
SPLINE
  5
1EB
330
1F
100
AcDbEntity
  8
0
  6
Continuous
 62
     7
370
    15
100
AcDbSpline
210
0.0
220
0.0
230
1.0
 70
     8
 71
     3
 72
    16
 73
    12
 74
     0
 42
0.00000001
 43
0.00000001
 40
0.0
 40
0.0
 40
0.0
 40
0.0
 40
0.0663426116722581
 40
0.1971930284640067
 40
0.3269691310749334
 40
0.4572005991227909
 40
0.5890054346407966
 40
0.7223215770188286
 40
0.856625010647658
 40
0.9841624297268696
 40
1.0
 40
1.0
 40
1.0
 40
1.0
 10
5.715132136321766
 20
8.770263598663034
 30
0.0
 10
5.714062116854975
 20
8.7689537549966
 30
0.0
 10
5.710881651482064
 20
8.76506044973038
 30
0.0
 10
5.702600422229232
 20
8.75802524929546
 30
0.0
 10
5.689092812464115
 20
8.750095268722577
 30
0.0
 10
5.672362916660232
 20
8.743313270235594
 30
0.0
 10
5.653088958229512
 20
8.738180856463392
 30
0.0
 10
5.631991328637545
 20
8.735048718880703
 30
0.0
 10
5.610367366884574
 20
8.734178829913537
 30
0.0
 10
5.595215071339712
 20
8.735102105108831
 30
0.0
 10
5.587600520724065
 20
8.736029374930244
 30
0.0
 10
5.586759397868408
 20
8.736131803540875
 30
0.0
  0
LINE
  5
1EC
330
1F
100
AcDbEntity
  8
0
  6
Continuous
 62
     7
370
    15
100
AcDbLine
 10
5.539513963
 20
6.9393731595
 30
0.0
 11
5.539513963
 21
6.6250049408
 31
0.0
  0
LINE
  5
1ED
330
1F
100
AcDbEntity
  8
0
  6
Continuous
 62
     7
370
    15
100
AcDbLine
 10
6.1695139889
 20
6.6250049408
 30
0.0
 11
6.1695139889
 21
6.9393731595
 31
0.0
  0
LINE
  5
1EE
330
1F
100
AcDbEntity
  8
0
  6
Continuous
 62
     7
370
    15
100
AcDbLine
 10
5.5504086556
 20
6.0044909979
 30
0.0
 11
5.5893058399
 21
5.982028803
 31
0.0
  0
LINE
  5
1EF
330
1F
100
AcDbEntity
  8
0
  6
Continuous
 62
     7
370
    15
100
AcDbLine
 10
5.6295139741
 20
5.9618941287
 30
0.0
 11
5.6295139741
 21
5.9431933882
 31
0.0
  0
LINE
  5
1F0
330
1F
100
AcDbEntity
  8
0
  6
Continuous
 62
     7
370
    15
100
AcDbLine
 10
6.0795139778
 20
5.9431933882
 30
0.0
 11
6.0795139778
 21
5.9618941287
 31
0.0
  0
LINE
  5
1F1
330
1F
100
AcDbEntity
  8
0
  6
Continuous
 62
     7
370
    15
100
AcDbLine
 10
5.6953890969
 20
5.8513624011
 30
0.0
 11
5.7059974187
 21
5.8452363418
 31
0.0
  0
LINE
  5
1F2
330
1F
100
AcDbEntity
  8
0
  6
Continuous
 62
     7
370
    15
100
AcDbLine
 10
6.0030305331
 20
5.8452363418
 30
0.0
 11
6.0136388549
 21
5.8513624011
 31
0.0
  0
LINE
  5
1F3
330
1F
100
AcDbEntity
  8
0
  6
Continuous
 62
     7
370
    15
100
AcDbLine
 10
6.1182639811
 20
7.1219149413
 30
0.0
 11
6.1182639811
 21
7.1403033532
 31
0.0
  0
LINE
  5
1F4
330
1F
100
AcDbEntity
  8
0
  6
Continuous
 62
     7
370
    15
100
AcDbLine
 10
6.1182639811
 20
7.3464636454
 30
0.0
 11
6.1182639811
 21
7.635474214
 31
0.0
  0
LINE
  5
1F5
330
1F
100
AcDbEntity
  8
0
  6
Continuous
 62
     7
370
    15
100
AcDbLine
 10
5.5907639707
 20
7.635474214
 30
0.0
 11
5.5907639707
 21
7.3464636454
 31
0.0
  0
LINE
  5
1F6
330
1F
100
AcDbEntity
  8
0
  6
Continuous
 62
     7
370
    15
100
AcDbLine
 10
5.6245139879
 20
7.6558877325
 30
0.0
 11
5.6245139879
 21
7.635474214
 31
0.0
  0
LINE
  5
1F7
330
1F
100
AcDbEntity
  8
0
  6
Continuous
 62
     7
370
    15
100
AcDbLine
 10
6.084513964
 20
7.635474214
 30
0.0
 11
6.084513964
 21
7.6558877325
 31
0.0
  0
LINE
  5
1F8
330
1F
100
AcDbEntity
  8
0
  6
Continuous
 62
     7
370
    15
100
AcDbLine
 10
5.7484307254
 20
7.7987624037
 30
0.0
 11
5.691852994
 21
7.766090196
 31
0.0
  0
LWPOLYLINE
  5
1F9
330
1F
100
AcDbEntity
  8
0
  6
Continuous
 62
     7
370
    15
100
AcDbPolyline
 90
       15
 70
   128
 43
0.0
 10
5.5927889692
 20
7.3464636454
 10
5.5928288448
 20
7.3438267498
 10
5.5960112482
 20
7.3228278695
 10
5.6042251131
 20
7.3022890244
 10
5.6173105739
 20
7.2826099914
 10
5.6350129147
 20
7.2641737895
 10
5.656987614
 20
7.2473392772
 10
5.682806929
 20
7.2324341039
 10
5.7119683193
 20
7.21974838
 10
5.7439042181
 20
7.2095290362
 10
5.7779929968
 20
7.2019749604
 10
5.8135711749
 20
7.1972331971
 10
5.8499462438
 20
7.1953960348
 10
5.8864102291
 20
7.1964992228
 10
5.9222533937
 20
7.2005213054
  0
LINE
  5
1FA
330
1F
100
AcDbEntity
  8
0
  6
Continuous
 62
     7
370
    15
100
AcDbLine
 10
6.1955909643
 20
7.3086458726
 30
0.0
 11
6.1182639714
 21
7.4752443396
 31
0.0
  0
ARC
  5
1FB
330
1F
100
AcDbEntity
  8
0
  6
Continuous
 62
     7
370
    15
100
AcDbCircle
 10
6.1748648345
 20
7.3013222261
 30
0.0
 40
0.0219819983999956
100
AcDbArc
 50
290.7421043061
 51
19.4610299227
  0
LINE
  5
1FC
330
1F
100
AcDbEntity
  8
0
  6
Continuous
 62
     7
370
    15
100
AcDbLine
 10
5.9683196774
 20
7.1570347354
 30
0.0
 11
6.1826500267
 21
7.2807650124
 31
0.0
  0
ARC
  5
1FD
330
1F
100
AcDbEntity
  8
0
  6
Continuous
 62
     7
370
    15
100
AcDbCircle
 10
5.9330492115
 20
7.2252030801
 30
0.0
 40
0.0767523875719846
100
AcDbArc
 50
260.2289009291
 51
297.3571543413
  0
LINE
  5
1FE
330
1F
100
AcDbEntity
  8
0
  6
Continuous
 62
     7
370
    15
100
AcDbLine
 10
5.6272426712
 20
7.194852511
 30
0.0
 11
5.9200233779
 21
7.1495640911
 31
0.0
  0
ARC
  5
1FF
330
1F
100
AcDbEntity
  8
0
  6
Continuous
 62
     7
370
    15
100
AcDbCircle
 10
5.629976347
 20
7.2404149308
 30
0.0
 40
0.0456443543670301
100
AcDbArc
 50
213.4389199421
 51
266.5664565906
  0
LINE
  5
200
330
1F
100
AcDbEntity
  8
0
  6
Continuous
 62
     7
370
    15
100
AcDbLine
 10
5.5134369875
 20
7.3842814182
 30
0.0
 11
5.591887332
 21
7.2152627139
 31
0.0
  0
ARC
  5
201
330
1F
100
AcDbEntity
  8
0
  6
Continuous
 62
     7
370
    15
100
AcDbCircle
 10
5.5341631173
 20
7.3916050647
 30
0.0
 40
0.0219819983999941
100
AcDbArc
 50
110.7421043061
 51
199.4610299227
  0
LINE
  5
202
330
1F
100
AcDbEntity
  8
0
  6
Continuous
 62
     7
370
    15
100
AcDbLine
 10
5.5907639675
 20
7.4493315496
 30
0.0
 11
5.5263779251
 21
7.4121622785
 31
0.0
  0
LINE
  5
203
330
1F
100
AcDbEntity
  8
0
  6
Continuous
 62
     7
370
    15
100
AcDbLine
 10
5.6272426712
 20
7.194852511
 30
0.0
 11
5.6272426712
 21
7.0915601538
 31
0.0
  0
LINE
  5
204
330
1F
100
AcDbEntity
  8
0
  6
Continuous
 62
     7
370
    15
100
AcDbLine
 10
5.9200233779
 20
7.046271734
 30
0.0
 11
5.9200233779
 21
7.1495640911
 31
0.0
  0
LINE
  5
205
330
1F
100
AcDbEntity
  8
0
  6
Continuous
 62
     7
370
    15
100
AcDbLine
 10
5.6272426712
 20
7.0915601538
 30
0.0
 11
5.9200233779
 21
7.046271734
 31
0.0
  0
LINE
  5
206
330
1F
100
AcDbEntity
  8
0
  6
Continuous
 62
     7
370
    15
100
AcDbLine
 10
5.9683196774
 20
7.1570347354
 30
0.0
 11
5.9683196774
 21
7.0537423782
 31
0.0
  0
ARC
  5
207
330
1F
100
AcDbEntity
  8
0
  6
Continuous
 62
     7
370
    15
100
AcDbCircle
 10
5.9330492115
 20
7.121910723
 30
0.0
 40
0.0767523875719913
100
AcDbArc
 50
260.2289009291
 51
297.3571543413
  0
LINE
  5
208
330
1F
100
AcDbEntity
  8
0
  6
Continuous
 62
     7
370
    15
100
AcDbLine
 10
6.1826500267
 20
7.1774726552
 30
0.0
 11
6.1826500267
 21
7.2807650124
 31
0.0
  0
LINE
  5
209
330
1F
100
AcDbEntity
  8
0
  6
Continuous
 62
     7
370
    15
100
AcDbLine
 10
5.9683196774
 20
7.0537423782
 30
0.0
 11
6.1826500267
 21
7.1774726552
 31
0.0
  0
LINE
  5
20A
330
1F
100
AcDbEntity
  8
0
  6
Continuous
 62
     7
370
    15
100
AcDbLine
 10
5.591887332
 20
7.1119703567
 30
0.0
 11
5.591887332
 21
7.2152627139
 31
0.0
  0
ARC
  5
20B
330
1F
100
AcDbEntity
  8
0
  6
Continuous
 62
     7
370
    15
100
AcDbCircle
 10
5.629976347
 20
7.1371225737
 30
0.0
 40
0.0456443543670329
100
AcDbArc
 50
213.4389199421
 51
266.5664565906
  0
LINE
  5
20C
330
1F
100
AcDbEntity
  8
0
  6
Continuous
 62
     7
370
    15
100
AcDbLine
 10
5.5134369875
 20
7.3842814182
 30
0.0
 11
5.5134369875
 21
7.280989061
 31
0.0
  0
LINE
  5
20D
330
1F
100
AcDbEntity
  8
0
  6
Continuous
 62
     7
370
    15
100
AcDbLine
 10
5.5134369875
 20
7.280989061
 30
0.0
 11
5.591887332
 21
7.1119703567
 31
0.0
  0
ARC
  5
20E
330
1F
100
AcDbEntity
  8
0
  6
Continuous
 62
     7
370
    15
100
AcDbCircle
 10
6.172163826
 20
7.2004556761
 30
0.0
 40
0.0252622179340085
100
AcDbArc
 50
294.525250314
 51
354.1546093348
  0
LWPOLYLINE
  5
20F
330
1F
100
AcDbEntity
  8
0
  6
Continuous
 62
     7
370
    15
100
AcDbPolyline
 90
        3
 70
   128
 43
0.0
 10
5.5134369875
 20
7.280989061
 10
5.5121610187
 20
7.2846921529
 10
5.5117332629
 20
7.2884597165
  0
LWPOLYLINE
  5
210
330
1F
100
AcDbEntity
  8
0
  6
Continuous
 62
     7
370
    15
100
AcDbPolyline
 90
       12
 70
   128
 43
0.0
 10
5.9222533937
 20
6.9759726013
 10
5.9567780757
 20
6.9828352884
 10
5.9893123198
 20
6.992404993
 10
6.0192228523
 20
7.0044954722
 10
6.0459275184
 20
7.018871385
 10
6.0689065402
 20
7.0352529211
 10
6.087712656
 20
7.053321234
 10
6.1019798218
 20
7.0727246478
 10
6.1114303568
 20
7.0930854904
 10
6.1158802963
 20
7.1140074649
 10
6.1152430248
 20
7.1350833595
 10
6.1147050795
 20
7.1382488481
  0
LWPOLYLINE
  5
211
330
1F
100
AcDbEntity
  8
0
  6
Continuous
 62
     7
370
    15
100
AcDbPolyline
 90
       14
 70
   128
 43
0.0
 10
5.5937969182
 20
7.1086675781
 10
5.5960112482
 20
7.0982791654
 10
5.6042251131
 20
7.0777403203
 10
5.6173105739
 20
7.0580612873
 10
5.6350129147
 20
7.0396250854
 10
5.656987614
 20
7.0227905731
 10
5.682806929
 20
7.0078853998
 10
5.7119683193
 20
6.9951996759
 10
5.7439042181
 20
6.9849803321
 10
5.7779929968
 20
6.9774262563
 10
5.8135711749
 20
6.9726844931
 10
5.8499462438
 20
6.9708473307
 10
5.8864102291
 20
6.9719505187
 10
5.9222533937
 20
6.9759726013
  0
LINE
  5
212
330
1F
100
AcDbEntity
  8
0
  6
Continuous
 62
     7
370
    15
100
AcDbLine
 10
6.1955909643
 20
7.0840971685
 30
0.0
 11
6.1586747352
 21
7.16363199
 31
0.0
  0
ARC
  5
213
330
1F
100
AcDbEntity
  8
0
  6
Continuous
 62
     7
370
    15
100
AcDbCircle
 10
6.1748648345
 20
7.076773522
 30
0.0
 40
0.0219819983999953
100
AcDbArc
 50
290.7421043061
 51
19.4610299227
  0
LINE
  5
214
330
1F
100
AcDbEntity
  8
0
  6
Continuous
 62
     7
370
    15
100
AcDbLine
 10
5.9683196774
 20
6.9324860313
 30
0.0
 11
6.1826500267
 21
7.0562163083
 31
0.0
  0
ARC
  5
215
330
1F
100
AcDbEntity
  8
0
  6
Continuous
 62
     7
370
    15
100
AcDbCircle
 10
5.9330492115
 20
7.0006543761
 30
0.0
 40
0.0767523875719948
100
AcDbArc
 50
260.2289009291
 51
297.3571543413
  0
LINE
  5
216
330
1F
100
AcDbEntity
  8
0
  6
Continuous
 62
     7
370
    15
100
AcDbLine
 10
5.6272426712
 20
6.9703038069
 30
0.0
 11
5.9200233779
 21
6.9250153871
 31
0.0
  0
ARC
  5
217
330
1F
100
AcDbEntity
  8
0
  6
Continuous
 62
     7
370
    15
100
AcDbCircle
 10
5.629976347
 20
7.0158662267
 30
0.0
 40
0.0456443543670347
100
AcDbArc
 50
213.4389199421
 51
266.5664565906
  0
LINE
  5
218
330
1F
100
AcDbEntity
  8
0
  6
Continuous
 62
     7
370
    15
100
AcDbLine
 10
5.5134369875
 20
7.1597327141
 30
0.0
 11
5.591887332
 21
6.9907140098
 31
0.0
  0
ARC
  5
219
330
1F
100
AcDbEntity
  8
0
  6
Continuous
 62
     7
370
    15
100
AcDbCircle
 10
5.5341631173
 20
7.1670563607
 30
0.0
 40
0.0219819983999948
100
AcDbArc
 50
110.7421043061
 51
199.4610299227
  0
LINE
  5
21A
330
1F
100
AcDbEntity
  8
0
  6
Continuous
 62
     7
370
    15
100
AcDbLine
 10
5.5503532102
 20
7.2014542118
 30
0.0
 11
5.5263779251
 21
7.1876135744
 31
0.0
  0
LINE
  5
21B
330
1F
100
AcDbEntity
  8
0
  6
Continuous
 62
     7
370
    15
100
AcDbLine
 10
5.6272426712
 20
6.9703038069
 30
0.0
 11
5.6272426712
 21
6.8670113898
 31
0.0
  0
LINE
  5
21C
330
1F
100
AcDbEntity
  8
0
  6
Continuous
 62
     7
370
    15
100
AcDbLine
 10
5.9200233779
 20
6.82172297
 30
0.0
 11
5.9200233779
 21
6.9250153871
 31
0.0
  0
LINE
  5
21D
330
1F
100
AcDbEntity
  8
0
  6
Continuous
 62
     7
370
    15
100
AcDbLine
 10
5.6272426712
 20
6.8670113898
 30
0.0
 11
5.9200233779
 21
6.82172297
 31
0.0
  0
LINE
  5
21E
330
1F
100
AcDbEntity
  8
0
  6
Continuous
 62
     7
370
    15
100
AcDbLine
 10
5.9683196774
 20
6.9324860313
 30
0.0
 11
5.9683196774
 21
6.8291936142
 31
0.0
  0
ARC
  5
21F
330
1F
100
AcDbEntity
  8
0
  6
Continuous
 62
     7
370
    15
100
AcDbCircle
 10
5.9330492115
 20
6.897361959
 30
0.0
 40
0.0767523875719984
100
AcDbArc
 50
260.2289009291
 51
297.3571543413
  0
LINE
  5
220
330
1F
100
AcDbEntity
  8
0
  6
Continuous
 62
     7
370
    15
100
AcDbLine
 10
6.1826500267
 20
6.9529238912
 30
0.0
 11
6.1826500267
 21
7.0562163083
 31
0.0
  0
LINE
  5
221
330
1F
100
AcDbEntity
  8
0
  6
Continuous
 62
     7
370
    15
100
AcDbLine
 10
5.9683196774
 20
6.8291936142
 30
0.0
 11
6.1826500267
 21
6.9529238912
 31
0.0
  0
LINE
  5
222
330
1F
100
AcDbEntity
  8
0
  6
Continuous
 62
     7
370
    15
100
AcDbLine
 10
5.591887332
 20
6.8874215928
 30
0.0
 11
5.591887332
 21
6.9907140098
 31
0.0
  0
ARC
  5
223
330
1F
100
AcDbEntity
  8
0
  6
Continuous
 62
     7
370
    15
100
AcDbCircle
 10
5.629976347
 20
6.9125738097
 30
0.0
 40
0.0456443543670328
100
AcDbArc
 50
213.4389199421
 51
266.5664565906
  0
LINE
  5
224
330
1F
100
AcDbEntity
  8
0
  6
Continuous
 62
     7
370
    15
100
AcDbLine
 10
5.5134369875
 20
7.1597327141
 30
0.0
 11
5.5134369875
 21
7.0564402971
 31
0.0
  0
LINE
  5
225
330
1F
100
AcDbEntity
  8
0
  6
Continuous
 62
     7
370
    15
100
AcDbLine
 10
5.5134369875
 20
7.0564402971
 30
0.0
 11
5.591887332
 21
6.8874215928
 31
0.0
  0
ARC
  5
226
330
1F
100
AcDbEntity
  8
0
  6
Continuous
 62
     7
370
    15
100
AcDbCircle
 10
6.172163826
 20
6.9759069121
 30
0.0
 40
0.0252622179340104
100
AcDbArc
 50
294.525250314
 51
354.1546093348
  0
LWPOLYLINE
  5
227
330
1F
100
AcDbEntity
  8
0
  6
Continuous
 62
     7
370
    15
100
AcDbPolyline
 90
        3
 70
   128
 43
0.0
 10
5.5134369875
 20
7.0564402971
 10
5.5121610187
 20
7.060143389
 10
5.5117332629
 20
7.0639109525
  0
LINE
  5
228
330
1F
100
AcDbEntity
  8
0
  6
Continuous
 62
     7
370
    15
100
AcDbLine
 10
5.8126737849
 20
7.8365315461
 30
0.0
 11
5.8126737849
 21
7.769166869
 31
0.0
  0
LINE
  5
229
330
1F
100
AcDbEntity
  8
0
  6
Continuous
 62
     7
370
    15
100
AcDbLine
 10
5.8126737849
 20
7.8365315461
 30
0.0
 11
5.9688234964
 21
7.8606853743
 31
0.0
  0
LINE
  5
22A
330
1F
100
AcDbEntity
  8
0
  6
Continuous
 62
     7
370
    15
100
AcDbLine
 10
5.9688234964
 20
7.8606853743
 30
0.0
 11
5.9688234964
 21
7.7933206972
 31
0.0
  0
LINE
  5
22B
330
1F
100
AcDbEntity
  8
0
  6
Continuous
 62
     7
370
    15
100
AcDbLine
 10
5.8126737849
 20
7.769166869
 30
0.0
 11
5.9688234964
 21
7.7933206972
 31
0.0
  0
LINE
  5
22C
330
1F
100
AcDbEntity
  8
0
  6
Continuous
 62
     7
370
    15
100
AcDbLine
 10
5.7105825596
 20
7.9288449398
 30
0.0
 11
5.6983642644
 21
7.9025210277
 31
0.0
  0
LINE
  5
22D
330
1F
100
AcDbEntity
  8
0
  6
Continuous
 62
     7
370
    15
100
AcDbLine
 10
5.9688234964
 20
7.8606853743
 30
0.0
 11
5.9767394542
 21
7.8777400505
 31
0.0
  0
LINE
  5
22E
330
1F
100
AcDbEntity
  8
0
  6
Continuous
 62
     7
370
    15
100
AcDbLine
 10
5.6983642644
 20
7.9025210277
 30
0.0
 11
5.8126737849
 21
7.8365315461
 31
0.0
  0
LINE
  5
22F
330
1F
100
AcDbEntity
  8
0
  6
Continuous
 62
     7
370
    15
100
AcDbLine
 10
5.6983642644
 20
7.9025210277
 30
0.0
 11
5.6983642644
 21
7.8351563506
 31
0.0
  0
LINE
  5
230
330
1F
100
AcDbEntity
  8
0
  6
Continuous
 62
     7
370
    15
100
AcDbLine
 10
5.6983642644
 20
7.8351563506
 30
0.0
 11
5.8126737849
 21
7.769166869
 31
0.0
  0
LINE
  5
231
330
1F
100
AcDbEntity
  8
0
  6
Continuous
 62
     7
370
    15
100
AcDbLine
 10
5.9688234964
 20
7.7933206972
 30
0.0
 11
6.0071558296
 21
7.8759064475
 31
0.0
  0
LWPOLYLINE
  5
232
330
1F
100
AcDbEntity
  8
0
  6
Continuous
 62
     7
370
    15
100
AcDbPolyline
 90
       17
 70
   128
 43
0.0
 10
5.448247913
 20
8.4463051825
 10
5.4351514202
 20
8.4305268622
 10
5.4267017497
 20
8.4137244562
 10
5.4231263716
 20
8.3963504636
 10
5.4245216887
 20
8.3788728786
 10
5.4308500292
 20
8.361762378
 10
5.4419410206
 20
8.3454798539
 10
5.4574958905
 20
8.3304638131
 10
5.4770957404
 20
8.3171187152
 10
5.5002126328
 20
8.3058039627
 10
5.5262239968
 20
8.2968243274
 10
5.5544292118
 20
8.2904216344
 10
5.5840686796
 20
8.2867683612
 10
5.6143440254
 20
8.2859628617
 10
5.6444399242
 20
8.2880268836
 10
5.6735456988
 20
8.2929047746
 10
5.7008775127
 20
8.3004652189
  0
LWPOLYLINE
  5
233
330
1F
100
AcDbEntity
  8
0
  6
Continuous
 62
     7
370
    15
100
AcDbPolyline
 90
        9
 70
   128
 43
0.0
 10
5.4206557018
 20
8.5468746487
 10
5.4370399651
 20
8.5368710006
 10
5.450226217
 20
8.525399793
 10
5.4598274459
 20
8.5127976555
 10
5.4655619037
 20
8.4994344153
 10
5.4672613374
 20
8.4857022534
 10
5.4648758248
 20
8.4720041272
 10
5.4584754074
 20
8.4587420361
 10
5.448247913
 20
8.4463051825
  0
LWPOLYLINE
  5
234
330
1F
100
AcDbEntity
  8
0
  6
Continuous
 62
     7
370
    15
100
AcDbPolyline
 90
       17
 70
   128
 43
0.0
 10
5.5828538919
 20
8.7306437344
 10
5.5528127815
 20
8.7329583567
 10
5.5225204196
 20
8.7324052912
 10
5.4927926924
 20
8.7289994253
 10
5.4644302831
 20
8.7228324828
 10
5.4381970589
 20
8.7140705751
 10
5.4147995883
 20
8.7029496811
 10
5.3948680452
 20
8.6897693227
 10
5.3789392407
 20
8.6748845059
 10
5.3674421944
 20
8.6586961038
 10
5.3606865778
 20
8.6416401441
 10
5.3588543332
 20
8.6241759959
 10
5.3619947868
 20
8.6067740294
 10
5.3700234166
 20
8.5899029309
 10
5.3827239012
 20
8.5740171154
 10
5.3997542251
 20
8.559544416
 10
5.4206557018
 20
8.5468746487
  0
ARC
  5
235
330
1F
100
AcDbEntity
  8
0
  6
Continuous
 62
     7
370
    15
100
AcDbCircle
 10
5.6169304958
 20
8.9050512642
 30
0.0
 40
0.1777053780475136
100
AcDbArc
 50
258.9445453047
 51
313.8371842074
  0
LWPOLYLINE
  5
236
330
1F
100
AcDbEntity
  8
0
  6
Continuous
 62
     7
370
    15
100
AcDbPolyline
 90
       17
 70
   128
 43
0.0
 10
6.0928848943
 20
8.7446060186
 10
6.0874149174
 20
8.7618148395
 10
6.0771429064
 20
8.7782754445
 10
6.062345528
 20
8.7935444872
 10
6.0434213052
 20
8.8072107106
 10
6.0208799101
 20
8.8189060387
 10
5.9953284869
 20
8.8283154771
 10
5.9674552406
 20
8.8351855992
 10
5.93801086
 20
8.8393313792
 10
5.9077884117
 20
8.8406411535
 10
5.8776018463
 20
8.8390796291
 10
5.848264233
 20
8.8346888642
 10
5.8205656954
 20
8.8275871454
 10
5.7952522686
 20
8.8179657325
 10
5.7730057407
 20
8.806083747
 10
5.7544252704
 20
8.7922612125
 10
5.7400112737
 20
8.7768704408
  0
LWPOLYLINE
  5
237
330
1F
100
AcDbEntity
  8
0
  6
Continuous
 62
     7
370
    15
100
AcDbPolyline
 90
        9
 70
   128
 43
0.0
 10
6.2176057053
 20
8.672606227
 10
6.1941649789
 20
8.6751398126
 10
6.1718172904
 20
8.6799458493
 10
6.1512184298
 20
8.6868832888
 10
6.1329729097
 20
8.6957485457
 10
6.1176161704
 20
8.7062814602
 10
6.1055988706
 20
8.7181729294
 10
6.0972736689
 20
8.7310739753
 10
6.0928848943
 20
8.7446060186
  0
LWPOLYLINE
  5
238
330
1F
100
AcDbEntity
  8
0
  6
Continuous
 62
     7
370
    15
100
AcDbPolyline
 90
       17
 70
   128
 43
0.0
 10
6.2734953795
 20
8.4688966219
 10
6.3001558669
 20
8.477217645
 10
6.3240997933
 20
8.4879439222
 10
6.344682226
 20
8.5007865695
 10
6.3613488078
 20
8.5153996997
 10
6.3736506785
 20
8.5313897251
 10
6.3812565305
 20
8.5483259688
 10
6.3839614632
 20
8.565752302
 10
6.3816926218
 20
8.5831993501
 10
6.3745111421
 20
8.6001972291
 10
6.362610452
 20
8.6162881117
 10
6.3463110606
 20
8.6310386344
 10
6.3260519629
 20
8.6440515048
 10
6.3023788046
 20
8.6549762261
 10
6.2759291811
 20
8.6635185708
 10
6.2474154873
 20
8.6694484765
 10
6.2176057053
 20
8.672606227
  0
LWPOLYLINE
  5
239
330
1F
100
AcDbEntity
  8
0
  6
Continuous
 62
     7
370
    15
100
AcDbPolyline
 90
        9
 70
   128
 43
0.0
 10
6.193419699
 20
8.3781715965
 10
6.1903500876
 20
8.3918242577
 10
6.1913620067
 20
8.4055790296
 10
6.1964257408
 20
8.4190322719
 10
6.2053926928
 20
8.4317891864
 10
6.2179997237
 20
8.4434753919
 10
6.2338768493
 20
8.4537479539
 10
6.2525581366
 20
8.4623054156
 10
6.2734953795
 20
8.4688966219
  0
LWPOLYLINE
  5
23A
330
1F
100
AcDbEntity
  8
0
  6
Continuous
 62
     7
370
    15
100
AcDbPolyline
 90
       17
 70
   128
 43
0.0
 10
5.8750878138
 20
8.2845365745
 10
5.8970348725
 20
8.2724704088
 10
5.9221050397
 20
8.262639012
 10
5.9496230609
 20
8.2553071784
 10
5.9788478272
 20
8.250672349
 10
6.0089921835
 20
8.2488594038
 10
6.0392442533
 20
8.249917136
 10
6.0687892434
 20
8.2538170705
 10
6.0968314168
 20
8.2604541741
 10
6.1226154695
 20
8.2696496772
 10
6.1454469937
 20
8.2811559121
 10
6.1647110345
 20
8.2946629844
 10
6.1798887483
 20
8.3098071023
 10
6.1905713635
 20
8.3261803727
 10
6.1964711356
 20
8.3433418243
 10
6.1974291769
 20
8.3608292326
 10
6.193419699
 20
8.3781715965
  0
ARC
  5
23B
330
1F
100
AcDbEntity
  8
0
  6
Continuous
 62
     7
370
    15
100
AcDbCircle
 10
5.7701133718
 20
8.0970658964
 30
0.0
 40
0.2148601605435129
100
AcDbArc
 50
60.7532997212
 51
108.7982535564
  0
LINE
  5
23C
330
1F
100
AcDbEntity
  8
0
  6
Continuous
 62
     7
370
    15
100
AcDbLine
 10
6.2289149304
 20
8.3299273595
 30
0.0
 11
6.2288896321
 21
8.3280196899
 31
0.0
  0
ARC
  5
23D
330
1F
100
AcDbEntity
  8
0
  6
Continuous
 62
     7
370
    15
100
AcDbCircle
 10
5.897468333
 20
8.244599779
 30
0.0
 40
0.0457802934750126
100
AcDbArc
 50
119.2662037401
 51
176.968412632
  0
LINE
  5
23E
330
1F
100
AcDbEntity
  8
0
  6
Continuous
 62
     7
370
    15
100
AcDbLine
 10
5.8517521077
 20
7.9306113708
 30
0.0
 11
5.8517521077
 21
8.2470209383
 31
0.0
  0
ARC
  5
23F
330
1F
100
AcDbEntity
  8
0
  6
Continuous
 62
     7
370
    15
100
AcDbCircle
 10
5.6523621747
 20
8.2582731745
 30
0.0
 40
0.0642954635534169
100
AcDbArc
 50
0.9809803805
 51
41.0123106734
  0
LINE
  5
240
330
1F
100
AcDbEntity
  8
0
  6
Continuous
 62
     7
370
    15
100
AcDbLine
 10
5.3917561048
 20
8.0505768195
 30
0.0
 11
5.3917758677
 21
8.0488897905
 31
0.0
  0
LINE
  5
241
330
1F
100
AcDbEntity
  8
0
  6
Continuous
 62
     7
370
    15
100
AcDbLine
 10
5.7166482147
 20
7.9429643775
 30
0.0
 11
5.7166482147
 21
8.259373945
 31
0.0
  0
ARC
  5
242
330
1F
100
AcDbEntity
  8
0
  6
Continuous
 62
     7
370
    15
100
AcDbCircle
 10
5.7703421545
 20
8.1016334786
 30
0.0
 40
0.1666286107889131
100
AcDbArc
 50
60.75328106
 51
108.7982763778
  0
ARC
  5
243
330
1F
100
AcDbEntity
  8
0
  6
Continuous
 62
     7
370
    15
100
AcDbCircle
 10
5.7703421545
 20
7.785223911
 30
0.0
 40
0.1666286107889105
100
AcDbArc
 50
60.75328106
 51
108.7982763778
  0
ARC
  5
244
330
1F
100
AcDbEntity
  8
0
  6
Continuous
 62
     7
370
    15
100
AcDbCircle
 10
6.2071713105
 20
8.4261918935
 30
0.0
 40
0.0788833059709846
100
AcDbArc
 50
0.4851978388
 51
32.7766670049
  0
LINE
  5
245
330
1F
100
AcDbEntity
  8
0
  6
Continuous
 62
     7
370
    15
100
AcDbLine
 10
6.286051788
 20
8.1104503255
 30
0.0
 11
6.286051788
 21
8.426859893
 31
0.0
  0
ARC
  5
246
330
1F
100
AcDbEntity
  8
0
  6
Continuous
 62
     7
370
    15
100
AcDbCircle
 10
5.4504658967
 20
8.5059483437
 30
0.0
 40
0.0506321059681234
100
AcDbArc
 50
126.0691139535
 51
177.8063308198
  0
LWPOLYLINE
  5
247
330
1F
100
AcDbEntity
  8
0
  6
Continuous
 62
     7
370
    15
100
AcDbPolyline
 90
       27
 70
   128
 43
0.0
 10
5.5555179686
 20
6.9657782017
 10
5.5548607464
 20
6.9599458305
 10
5.5554768874
 20
6.9377565028
 10
5.5610032166
 20
6.9157948504
 10
5.5713489832
 20
6.8944214543
 10
5.5863442944
 20
6.8739872794
 10
5.6057429609
 20
6.8548278552
 10
5.6292264458
 20
6.8372577787
 10
5.6564091376
 20
6.8215655448
 10
5.6868447005
 20
6.8080088175
 10
5.7200333927
 20
6.7968102057
 10
5.7554302572
 20
6.7881535968
 10
5.7924540767
 20
6.7821811129
 10
5.8304968966
 20
6.7789908309
 10
5.8689341043
 20
6.7786351403
 10
5.9071345211
 20
6.7811198708
 10
5.9444708964
 20
6.7864042364
 10
5.980330194
 20
6.7944014605
 10
6.0141235967
 20
6.8049802256
 10
6.0452962125
 20
6.817966834
 10
6.0733361878
 20
6.8331480442
 10
6.0977831011
 20
6.8502745846
 10
6.1182355457
 20
6.8690652311
 10
6.134357707
 20
6.8892114425
 10
6.1458848156
 20
6.9103824244
 10
6.1526276373
 20
6.9322305498
 10
6.1532868429
 20
6.9359729085
  0
LWPOLYLINE
  5
248
330
1F
100
AcDbEntity
  8
0
  6
Continuous
 62
     7
370
    15
100
AcDbPolyline
 90
       30
 70
   128
 43
0.0
 10
6.1693496768
 20
6.9452457853
 10
6.1693585439
 20
6.9450850663
 10
6.1681159948
 20
6.9222599797
 10
6.1619277506
 20
6.8997047687
 10
6.1508914132
 20
6.8777751538
 10
6.1351810302
 20
6.8568169696
 10
6.1150443564
 20
6.8371607524
 10
6.0907989643
 20
6.8191164862
 10
6.0628272151
 20
6.8029687391
 10
6.0315702426
 20
6.7889721722
 10
5.9975209864
 20
6.7773475178
 10
5.9612164129
 20
6.7682781068
 10
5.9232290896
 20
6.7619069648
 10
5.8841580847
 20
6.7583345675
 10
5.844619591
 20
6.7576172592
 10
5.8052371256
 20
6.7597663552
 10
5.7666317752
 20
6.7647479509
 10
5.7294123888
 20
6.7724834941
 10
5.694165933
 20
6.7828509824
 10
5.6614482459
 20
6.7956869187
 10
5.6317753485
 20
6.8107888868
 10
5.6056151378
 20
6.8279186859
 10
5.5833802349
 20
6.8468062046
 10
5.5654212724
 20
6.8671535504
 10
5.5520214668
 20
6.8886398449
 10
5.5433921549
 20
6.9109262393
 10
5.539669408
 20
6.9336612526
 10
5.540911957
 20
6.9564863392
 10
5.5471002012
 20
6.9790415502
 10
5.5481479481
 20
6.9816566909
  0
LWPOLYLINE
  5
249
330
1F
100
AcDbEntity
  8
0
  6
Continuous
 62
     7
370
    15
100
AcDbPolyline
 90
       16
 70
   128
 43
0.0
 10
5.6694464537
 20
6.8447840611
 10
5.6970039422
 20
6.8309549298
 10
5.727627179
 20
6.8194744293
 10
5.7607201197
 20
6.8105660122
 10
5.7956386644
 20
6.804403088
 10
5.8317031349
 20
6.8011055915
 10
5.8682116109
 20
6.8007377025
 10
5.9044534607
 20
6.8033065979
 10
5.9397232961
 20
6.8087622756
 10
5.9733346365
 20
6.8169985351
 10
6.0046332638
 20
6.8278550747
 10
6.0330099912
 20
6.8411205816
 10
6.057912501
 20
6.8565368572
 10
6.0788560944
 20
6.8738038401
 10
6.0954331051
 20
6.8925854594
 10
6.1052069103
 20
6.9082169541
  0
LWPOLYLINE
  5
24A
330
1F
100
AcDbEntity
  8
0
  6
Continuous
 62
     7
370
    15
100
AcDbPolyline
 90
        3
 70
   128
 43
0.0
 10
5.6400318567
 20
6.8650331279
 10
5.6454911
 20
6.8606926606
 10
5.6694464537
 20
6.8447840611
  0
SPLINE
  5
24B
330
1F
100
AcDbEntity
  8
0
  6
Continuous
 62
     7
370
    15
100
AcDbSpline
210
0.0
220
0.0
230
1.0
 70
     8
 71
     3
 72
    11
 73
     7
 74
     0
 42
0.00000001
 43
0.00000001
 40
0.0
 40
0.0
 40
0.0
 40
0.0
 40
0.2595785341797668
 40
0.5246624395033311
 40
0.7613709686591963
 40
1.0
 40
1.0
 40
1.0
 40
1.0
 10
5.757456843703715
 20
6.395485009597953
 30
0.0
 10
5.739110894091914
 20
6.397635451987228
 30
0.0
 10
5.702029897742399
 20
6.401981945249982
 30
0.0
 10
5.649450520343995
 20
6.399644593910791
 30
0.0
 10
5.599933594600293
 20
6.392959323611195
 30
0.0
 10
5.569492422010197
 20
6.385672382715009
 30
0.0
 10
5.554210340113571
 20
6.382014191585156
 30
0.0
  0
SPLINE
  5
24C
330
1F
100
AcDbEntity
  8
0
  6
Continuous
 62
     7
370
    15
100
AcDbSpline
210
0.0
220
0.0
230
1.0
 70
     8
 71
     3
 72
    11
 73
     7
 74
     0
 42
0.00000001
 43
0.00000001
 40
0.0
 40
0.0
 40
0.0
 40
0.0
 40
0.4331278195989693
 40
0.6573877467045065
 40
0.8815098289412882
 40
1.0
 40
1.0
 40
1.0
 40
1.0
 10
5.960703331494625
 20
6.319136322165195
 30
0.0
 10
5.932737184151132
 20
6.334089903444002
 30
0.0
 10
5.890291047573787
 20
6.356785977575512
 30
0.0
 10
5.829762453375082
 20
6.378949155749734
 30
0.0
 10
5.790017492980922
 20
6.389880440257634
 30
0.0
 10
5.765824001842263
 20
6.394044795136329
 30
0.0
 10
5.757456843703715
 20
6.395485009597953
 30
0.0
  0
LINE
  5
24D
330
1F
100
AcDbEntity
  8
0
  6
Continuous
 62
     7
370
    15
100
AcDbLine
 10
5.9607033315
 20
5.9394448651
 30
0.0
 11
5.9607033315
 21
6.3191363222
 31
0.0
  0
SPLINE
  5
24E
330
1F
100
AcDbEntity
  8
0
  6
Continuous
 62
     7
370
    15
100
AcDbSpline
210
0.0
220
0.0
230
1.0
 70
     8
 71
     3
 72
    11
 73
     7
 74
     0
 42
0.00000001
 43
0.00000001
 40
0.0
 40
0.0
 40
0.0
 40
0.0
 40
0.2595784543646303
 40
0.5246623755296098
 40
0.7613709604461143
 40
1.0
 40
1.0
 40
1.0
 40
1.0
 10
5.757456843703715
 20
5.92597403795896
 30
0.0
 10
5.77580278416166
 20
5.923823586142176
 30
0.0
 10
5.812883768889573
 20
5.919477073017977
 30
0.0
 10
5.865463143908078
 20
5.921814433567524
 30
0.0
 10
5.91498007346813
 20
5.928499739524603
 30
0.0
 10
5.945421249434045
 20
5.935786676366706
 30
0.0
 10
5.960703331494625
 20
5.939444865094893
 30
0.0
  0
SPLINE
  5
24F
330
1F
100
AcDbEntity
  8
0
  6
Continuous
 62
     7
370
    15
100
AcDbSpline
210
0.0
220
0.0
230
1.0
 70
     8
 71
     3
 72
    11
 73
     7
 74
     0
 42
0.00000001
 43
0.00000001
 40
0.0
 40
0.0
 40
0.0
 40
0.0
 40
0.4331277721151017
 40
0.6573877345285355
 40
0.881509753828233
 40
1.0
 40
1.0
 40
1.0
 40
1.0
 10
5.554210340113571
 20
6.002322734514854
 30
0.0
 10
5.582176491581949
 20
5.987369167783267
 30
0.0
 10
5.624622638287116
 20
5.964673113663266
 30
0.0
 10
5.685151213222468
 20
5.94250987168398
 30
0.0
 10
5.724896173138556
 20
5.93157858135154
 30
0.0
 10
5.749089676374623
 20
5.92741424639309
 30
0.0
 10
5.757456843703715
 20
5.92597403795896
 30
0.0
  0
LINE
  5
250
330
1F
100
AcDbEntity
  8
0
  6
Continuous
 62
     7
370
    15
100
AcDbLine
 10
5.5542103401
 20
6.3820141916
 30
0.0
 11
5.5542103401
 21
6.0023227345
 31
0.0
  0
LWPOLYLINE
  5
251
330
1F
100
AcDbEntity
  8
0
  6
Continuous
 62
     7
370
    15
100
AcDbPolyline
 90
       10
 70
   128
 43
0.0
 10
5.4922917975
 20
6.5485615325
 10
5.5060086573
 20
6.5246646069
 10
5.5244384597
 20
6.5018485644
 10
5.5473319558
 20
6.4804219333
 10
5.5743795681
 20
6.4606744866
 10
5.6052155193
 20
6.4428732709
 10
5.6394228068
 20
6.4272590166
 10
5.6765388419
 20
6.4140428827
 10
5.7160616693
 20
6.4034035842
 10
5.7574568437
 20
6.3954850096
  0
ARC
  5
252
330
1F
100
AcDbEntity
  8
0
  6
Continuous
 62
     7
370
    15
100
AcDbCircle
 10
5.6281045296
 20
6.6047667956
 30
0.0
 40
0.1469834337846384
100
AcDbArc
 50
127.0652970683
 51
202.4819165477
  0
ARC
  5
253
330
1F
100
AcDbEntity
  8
0
  6
Continuous
 62
     7
370
    15
100
AcDbCircle
 10
6.0423410225
 20
6.5754282098
 30
0.0
 40
0.1940915419986758
100
AcDbArc
 50
26.0357956848
 51
49.0635492587
  0
LWPOLYLINE
  5
254
330
1F
100
AcDbEntity
  8
0
  6
Continuous
 62
     7
370
    15
100
AcDbPolyline
 90
       10
 70
   128
 43
0.0
 10
6.1196790221
 20
6.4515148994
 10
6.1486698528
 20
6.4703210483
 10
6.1736827247
 20
6.4909429788
 10
6.1943794044
 20
6.5131017956
 10
6.2104799556
 20
6.5364978663
 10
6.2217666955
 20
6.560814782
 10
6.2280869856
 20
6.5857236922
 10
6.229355332
 20
6.6108877651
 10
6.2255545968
 20
6.635966689
 10
6.2167361544
 20
6.660621312
  0
ARC
  5
255
330
1F
100
AcDbEntity
  8
0
  6
Continuous
 62
     7
370
    15
100
AcDbCircle
 10
5.8556281195
 20
6.959689478
 30
0.0
 40
0.5726816581501427
100
AcDbArc
 50
260.1293868974
 51
297.4566895451
  0
SPLINE
  5
256
330
1F
100
AcDbEntity
  8
0
  6
Continuous
 62
     7
370
    15
100
AcDbSpline
210
0.0
220
0.0
230
1.0
 70
     8
 71
     3
 72
    11
 73
     7
 74
     0
 42
0.00000001
 43
0.00000001
 40
0.0
 40
0.0
 40
0.0
 40
0.0
 40
0.032884276469791
 40
0.3851525687094848
 40
0.7498351183414511
 40
1.0
 40
1.0
 40
1.0
 40
1.0
 10
6.119679022138177
 20
6.451514899394399
 30
0.0
 10
6.117980054356515
 20
6.450522072391885
 30
0.0
 10
6.098081127711056
 20
6.438893722573883
 30
0.0
 10
6.059368385088853
 20
6.410806232241105
 30
0.0
 10
6.0114506881303
 20
6.365858211458475
 30
0.0
 10
5.982621912781312
 20
6.333768727642006
 30
0.0
 10
5.970892259526676
 20
6.320712379818317
 30
0.0
  0
ARC
  5
257
330
1F
100
AcDbEntity
  8
0
  6
Continuous
 62
     7
370
    15
100
AcDbCircle
 10
5.8594734731
 20
7.0072918892
 30
0.0
 40
0.695561333513354
100
AcDbArc
 50
278.3683726195
 51
279.2176589948
  0
ARC
  5
258
330
1F
100
AcDbEntity
  8
0
  6
Continuous
 62
     7
370
    15
100
AcDbCircle
 10
5.7530993284
 20
6.7351505181
 30
0.0
 40
0.40529260383105
100
AcDbArc
 50
239.3939094279
 51
240.6114671048
  0
SPLINE
  5
259
330
1F
100
AcDbEntity
  8
0
  6
Continuous
 62
     7
370
    15
100
AcDbSpline
210
0.0
220
0.0
230
1.0
 70
     8
 71
     3
 72
    11
 73
     7
 74
     0
 42
0.00000001
 43
0.00000001
 40
0.0
 40
0.0
 40
0.0
 40
0.0
 40
0.433127809681361
 40
0.6573877240468329
 40
0.881509752112264
 40
1.0
 40
1.0
 40
1.0
 40
1.0
 10
5.546751525496763
 20
6.386320073610163
 30
0.0
 10
5.539258027037155
 20
6.413092265731596
 30
0.0
 10
5.527884631500316
 20
6.453726254251983
 30
0.0
 10
5.5116660193012
 20
6.501469031104445
 30
0.0
 10
5.501016372912636
 20
6.529196706105078
 30
0.0
 10
5.49453376548673
 20
6.543585322273258
 30
0.0
 10
5.492291797481593
 20
6.548561532456579
 30
0.0
  0
SPLINE
  5
25A
330
1F
100
AcDbEntity
  8
0
  6
Continuous
 62
     7
370
    15
100
AcDbSpline
210
0.0
220
0.0
230
1.0
 70
     8
 71
     3
 72
    10
 73
     6
 74
     0
 42
0.00000001
 43
0.00000001
 40
0.0
 40
0.0
 40
0.0
 40
0.0
 40
0.3473461159248446
 40
0.6692722723194097
 40
1.0
 40
1.0
 40
1.0
 40
1.0
 10
6.268465784749677
 20
6.492497919371533
 30
0.0
 10
6.252112819874554
 20
6.4916105449623
 30
0.0
 10
6.220603655213272
 20
6.489900737194091
 30
0.0
 10
6.170531378823834
 20
6.477461107689147
 30
0.0
 10
6.136781522503037
 20
6.460241044370742
 30
0.0
 10
6.119679022138177
 20
6.451514899394399
 30
0.0
  0
LINE
  5
25B
330
1F
100
AcDbEntity
  8
0
  6
Continuous
 62
     7
370
    15
100
AcDbLine
 10
6.2684657847
 20
6.1128064623
 30
0.0
 11
6.2684657847
 21
6.4924979194
 31
0.0
  0
SPLINE
  5
25C
330
1F
100
AcDbEntity
  8
0
  6
Continuous
 62
     7
370
    15
100
AcDbSpline
210
0.0
220
0.0
230
1.0
 70
     8
 71
     3
 72
    10
 73
     6
 74
     0
 42
0.00000001
 43
0.00000001
 40
0.0
 40
0.0
 40
0.0
 40
0.0
 40
0.3213230942627418
 40
0.6526568732263297
 40
0.9999999999999999
 40
0.9999999999999999
 40
0.9999999999999999
 40
0.9999999999999999
 10
6.119679022138177
 20
5.982003927755406
 30
0.0
 10
6.136294243633001
 20
5.992681260807653
 30
0.0
 10
6.170042326800369
 20
6.014368574694211
 30
0.0
 10
6.220161548970203
 20
6.059656921993034
 30
0.0
 10
6.252113136886657
 20
6.094813511937431
 30
0.0
 10
6.268465784749677
 20
6.11280646230123
 30
0.0
  0
SPLINE
  5
25D
330
1F
100
AcDbEntity
  8
0
  6
Continuous
 62
     7
370
    15
100
AcDbSpline
210
0.0
220
0.0
230
1.0
 70
     8
 71
     3
 72
    11
 73
     7
 74
     0
 42
0.00000001
 43
0.00000001
 40
0.0
 40
0.0
 40
0.0
 40
0.0
 40
0.250168620010333
 40
0.6033674875861232
 40
0.967115235364799
 40
1.0
 40
1.0
 40
1.0
 40
1.0
 10
5.970892259526676
 20
5.941020922748015
 30
0.0
 10
5.982622230372226
 20
5.94150701146003
 30
0.0
 10
6.010913080912339
 20
5.942679381219681
 30
0.0
 10
6.058774324910889
 20
5.952904924540892
 30
0.0
 10
6.097488367052469
 20
5.969350788049799
 30
0.0
 10
6.117980057955389
 20
5.981035176221185
 30
0.0
 10
6.119679022138177
 20
5.982003927755406
 30
0.0
  0
LINE
  5
25E
330
1F
100
AcDbEntity
  8
0
  6
Continuous
 62
     7
370
    15
100
AcDbLine
 10
5.9708922595
 20
6.3207123798
 30
0.0
 11
5.9708922595
 21
5.9410209227
 31
0.0
  0
LWPOLYLINE
  5
25F
330
1F
100
AcDbEntity
  8
0
  6
Continuous
 62
     7
370
    15
100
AcDbPolyline
 90
       32
 70
   128
 43
0.0
 10
6.1196790221
 20
6.1674281035
 10
6.1371746878
 20
6.1795826136
 10
6.1539540794
 20
6.1953484822
 10
6.1693302446
 20
6.2140802531
 10
6.1826736851
 20
6.2350110303
 10
6.1934381136
 20
6.2572839034
 10
6.2011828368
 20
6.2799870246
 10
6.2055907876
 20
6.3021909635
 10
6.2064815015
 20
6.3229866172
 10
6.2038185057
 20
6.3415226785
 10
6.1977108359
 20
6.3570402237
 10
6.1884085253
 20
6.3689039996
 10
6.1762924277
 20
6.3766282845
 10
6.161858571
 20
6.3798968525
 10
6.1456978774
 20
6.3785758754
 10
6.1284719687
 20
6.3727194472
 10
6.1108860756
 20
6.3625673272
 10
6.0936601668
 20
6.3485351445
 10
6.0774994733
 20
6.3311973819
 10
6.0630656166
 20
6.3112638378
 10
6.050949519
 20
6.2895506043
 10
6.0416472084
 20
6.2669466092
 10
6.0355395386
 20
6.2443772986
 10
6.0328765428
 20
6.2227666078
 10
6.0337672566
 20
6.2029993504
 10
6.0381752074
 20
6.1858847232
 10
6.0459199307
 20
6.1721234691
 10
6.0566843592
 20
6.1622789406
 10
6.0700277997
 20
6.1567541718
 10
6.0854039648
 20
6.1557753434
 10
6.1021833564
 20
6.159382548
 10
6.1196790221
 20
6.1674281035
  0
ARC
  5
260
330
1F
100
AcDbEntity
  8
0
  6
Continuous
 62
     7
370
    15
100
AcDbCircle
 10
5.8594734731
 20
6.6276004321
 30
0.0
 40
0.6955613334885182
100
AcDbArc
 50
278.3683726195
 51
279.2176589948
  0
SPLINE
  5
261
330
1F
100
AcDbEntity
  8
0
  6
Continuous
 62
     7
370
    15
100
AcDbSpline
210
0.0
220
0.0
230
1.0
 70
     8
 71
     3
 72
    11
 73
     7
 74
     0
 42
0.00000001
 43
0.00000001
 40
0.0
 40
0.0
 40
0.0
 40
0.0
 40
0.2595784661031647
 40
0.5246623870380194
 40
0.7613709525386331
 40
0.9999999999999999
 40
0.9999999999999999
 40
0.9999999999999999
 40
0.9999999999999999
 10
5.492291797481593
 20
6.548561532456579
 30
0.0
 10
5.487376015331172
 20
6.558465046096659
 30
0.0
 10
5.477440191162407
 20
6.578482119101487
 30
0.0
 10
5.463351579339661
 20
6.598365010021916
 30
0.0
 10
5.450083563372153
 20
6.612605781608495
 30
0.0
 10
5.441926879026417
 20
6.618183403932107
 30
0.0
 10
5.437832059338708
 20
6.620983482583341
 30
0.0
  0
LINE
  5
262
330
1F
100
AcDbEntity
  8
0
  6
Continuous
 62
     7
370
    15
100
AcDbLine
 10
5.5467515255
 20
6.0066286165
 30
0.0
 11
5.5467515255
 21
6.3863200736
 31
0.0
  0
SPLINE
  5
263
330
1F
100
AcDbEntity
  8
0
  6
Continuous
 62
     7
370
    15
100
AcDbSpline
210
0.0
220
0.0
230
1.0
 70
     8
 71
     3
 72
    11
 73
     7
 74
     0
 42
0.00000001
 43
0.00000001
 40
0.0
 40
0.0
 40
0.0
 40
0.0
 40
0.2595785224412309
 40
0.5246624279949195
 40
0.7613709765666772
 40
1.0
 40
1.0
 40
1.0
 40
1.0
 10
5.492291797481593
 20
6.079050560817585
 30
0.0
 10
5.497207568895267
 20
6.069147038044413
 30
0.0
 10
5.50714336998201
 20
6.049129949361541
 30
0.0
 10
5.521231984995437
 20
6.029247063395348
 30
0.0
 10
5.534500026765458
 20
6.015006323550356
 30
0.0
 10
5.542656707620793
 20
6.009428697181305
 30
0.0
 10
5.546751525496763
 20
6.006628616539861
 30
0.0
  0
SPLINE
  5
264
330
1F
100
AcDbEntity
  8
0
  6
Continuous
 62
     7
370
    15
100
AcDbSpline
210
0.0
220
0.0
230
1.0
 70
     8
 71
     3
 72
    11
 73
     7
 74
     0
 42
0.00000001
 43
0.00000001
 40
0.0
 40
0.0
 40
0.0
 40
0.0
 40
0.4331277820327066
 40
0.6573877571862083
 40
0.8815098306572562
 40
0.9999999999999999
 40
0.9999999999999999
 40
0.9999999999999999
 40
0.9999999999999999
 10
5.437832059338708
 20
6.241292025513038
 30
0.0
 10
5.445325555270496
 20
6.214519848514532
 30
0.0
 10
5.456698948270048
 20
6.173885878304994
 30
0.0
 10
5.472917572581099
 20
6.126143036854328
 30
0.0
 10
5.483567174896689
 20
6.09841537733842
 30
0.0
 10
5.490049818302387
 20
6.084026766381363
 30
0.0
 10
5.492291797481593
 20
6.079050560817585
 30
0.0
  0
LINE
  5
265
330
1F
100
AcDbEntity
  8
0
  6
Continuous
 62
     7
370
    15
100
AcDbLine
 10
5.4378320593
 20
6.6209834826
 30
0.0
 11
5.4378320593
 21
6.2412920255
 31
0.0
  0
ARC
  5
266
330
1F
100
AcDbEntity
  8
0
  6
Continuous
 62
     7
370
    15
100
AcDbCircle
 10
5.7530993284
 20
6.355459061
 30
0.0
 40
0.4052926038333334
100
AcDbArc
 50
239.3939094279
 51
240.6114671048
  0
SPLINE
  5
267
330
1F
100
AcDbEntity
  8
0
  6
Continuous
 62
     7
370
    15
100
AcDbSpline
210
0.0
220
0.0
230
1.0
 70
     8
 71
     3
 72
    11
 73
     7
 74
     0
 42
0.00000001
 43
0.00000001
 40
0.0
 40
0.0
 40
0.0
 40
0.0
 40
0.2595784661031647
 40
0.5246623870380194
 40
0.7613709525386331
 40
0.9999999999999999
 40
0.9999999999999999
 40
0.9999999999999999
 40
0.9999999999999999
 10
6.216736154350516
 20
6.660621312049471
 30
0.0
 10
6.221651936500937
 20
6.649343053795012
 30
0.0
 10
6.231587760669701
 20
6.626547334310855
 30
0.0
 10
6.245676372492448
 20
6.585723373000176
 30
0.0
 10
6.258944388459956
 20
6.542793107389708
 30
0.0
 10
6.267101072805691
 20
6.513224099390055
 30
0.0
 10
6.271195892493401
 20
6.49837986232376
 30
0.0
  0
ARC
  5
268
330
1F
100
AcDbEntity
  8
0
  6
Continuous
 62
     7
370
    15
100
AcDbCircle
 10
6.1128668589
 20
6.5682938267
 30
0.0
 40
0.1730781479733046
100
AcDbArc
 50
334.0281944463
 51
336.1749995817
  0
ARC
  5
269
330
1F
100
AcDbEntity
  8
0
  6
Continuous
 62
     7
370
    15
100
AcDbCircle
 10
5.8556281195
 20
6.4901785064
 30
0.0
 40
0.5726816581501246
100
AcDbArc
 50
260.1293868974
 51
297.4566895451
  0
ARC
  5
26A
330
1F
100
AcDbEntity
  8
0
  6
Continuous
 62
     7
370
    15
100
AcDbCircle
 10
5.8245446687
 20
6.4074555586
 30
0.0
 40
0.4861329355105244
100
AcDbArc
 50
241.0596925261
 51
262.067692544
  0
ARC
  5
26B
330
1F
100
AcDbEntity
  8
0
  6
Continuous
 62
     7
370
    15
100
AcDbCircle
 10
5.596161093
 20
6.5510695182
 30
0.0
 40
0.1730781479726834
100
AcDbArc
 50
154.0281944463
 51
156.1749995817
  0
SPLINE
  5
26C
330
1F
100
AcDbEntity
  8
0
  6
Continuous
 62
     7
370
    15
100
AcDbSpline
210
0.0
220
0.0
230
1.0
 70
     8
 71
     3
 72
    10
 73
     6
 74
     0
 42
0.00000001
 43
0.00000001
 40
0.0
 40
0.0
 40
0.0
 40
0.0
 40
0.3699094073167302
 40
0.8921635079743162
 40
1.0
 40
1.0
 40
1.0
 40
1.0
 10
5.440562167082432
 20
6.626865425535567
 30
0.0
 10
5.452306557120125
 20
6.639807702033071
 30
0.0
 10
5.480632184984125
 20
6.671022444272108
 30
0.0
 10
5.513858158800314
 20
6.704448904303901
 30
0.0
 10
5.53576477709321
 20
6.719846742813536
 30
0.0
 10
5.539513972679183
 20
6.722481997027674
 30
0.0
  0
ARC
  5
26D
330
1F
100
AcDbEntity
  8
0
  6
Continuous
 62
     7
370
    15
100
AcDbCircle
 10
6.1128668589
 20
6.1886023697
 30
0.0
 40
0.1730781479733049
100
AcDbArc
 50
334.0281944463
 51
336.1749995817
  0
LINE
  5
26E
330
1F
100
AcDbEntity
  8
0
  6
Continuous
 62
     7
370
    15
100
AcDbLine
 10
6.2711958925
 20
6.4983798623
 30
0.0
 11
6.2711958925
 21
6.1186884053
 31
0.0
  0
SPLINE
  5
26F
330
1F
100
AcDbEntity
  8
0
  6
Continuous
 62
     7
370
    15
100
AcDbSpline
210
0.0
220
0.0
230
1.0
 70
     8
 71
     3
 72
    11
 73
     7
 74
     0
 42
0.00000001
 43
0.00000001
 40
0.0
 40
0.0
 40
0.0
 40
0.0
 40
0.342735537432936
 40
0.6027554759801157
 40
0.8626155411617653
 40
1.0
 40
1.0
 40
1.0
 40
1.0
 10
6.169513979152924
 20
6.726666229710453
 30
0.0
 10
6.174637075457707
 20
6.722800074685006
 30
0.0
 10
6.18364686293061
 20
6.716000820280197
 30
0.0
 10
6.197368355169029
 20
6.696938673191687
 30
0.0
 10
6.208010817477755
 20
6.678858824157221
 30
0.0
 10
6.214493990676491
 20
6.665307834501142
 30
0.0
 10
6.216736154350516
 20
6.660621312049471
 30
0.0
  0
LWPOLYLINE
  5
270
330
1F
100
AcDbEntity
  8
0
  6
Continuous
 62
     7
370
    15
100
AcDbPolyline
 90
       23
 70
   128
 43
0.0
 10
5.6295139741
 20
5.9431933882
 10
5.6296713118
 20
5.9383366535
 10
5.6334365205
 20
5.9190453823
 10
5.6421402233
 20
5.9002935292
 10
5.65558801
 20
5.8824999898
 10
5.6734794781
 20
5.8660622436
 10
5.6954149508
 20
5.851347476
 10
5.7209044377
 20
5.8386843972
 10
5.7493785346
 20
5.8283558725
 10
5.7802011885
 20
5.8205926304
 10
5.8126838705
 20
5.8155680898
 10
5.8461009532
 20
5.813394481
 10
5.8797059803
 20
5.8141203768
 10
5.9127482565
 20
5.8177295413
 10
5.944489687
 20
5.824141357
 10
5.9742211988
 20
5.8332126034
 10
6.0012786488
 20
5.8447406391
 10
6.0250576182
 20
5.858467946
 10
6.0450269255
 20
5.8740878794
 10
6.0607404878
 20
5.8912515158
 10
6.0718472817
 20
5.9095754536
 10
6.0780992155
 20
5.9286503536
 10
6.0795139778
 20
5.9431933882
  0
ARC
  5
271
330
1F
100
AcDbEntity
  8
0
  6
Continuous
 62
     7
370
    15
100
AcDbCircle
 10
5.8545139759
 20
6.1290399537
 30
0.0
 40
0.3203149354694753
100
AcDbArc
 50
242.376600439
 51
297.623399561
  0
LWPOLYLINE
  5
272
330
1F
100
AcDbEntity
  8
0
  6
Continuous
 62
     7
370
    15
100
AcDbPolyline
 90
       38
 70
   128
 43
0.0
 10
5.9719168861
 20
7.7718175659
 10
5.9991681514
 20
7.762790995
 10
6.0278514528
 20
7.750234287
 10
6.0533057925
 20
7.7355398094
 10
6.0750570056
 20
7.718981292
 10
6.092699938
 20
7.7008672071
 10
6.1059059073
 20
7.6815349666
 10
6.1144289251
 20
7.6613447102
 10
6.1181102084
 20
7.6406725251
 10
6.1168812191
 20
7.6199035127
 10
6.1107647926
 20
7.5994245519
 10
6.0998749165
 20
7.5796171218
 10
6.0844144207
 20
7.5608502134
 10
6.0646713244
 20
7.5434734013
 10
6.0410133917
 20
7.527810393
 10
6.0138813255
 20
7.5141529591
 10
5.9837805427
 20
7.5027555122
 10
5.9512717815
 20
7.493830358
 10
5.9169605885
 20
7.4875437663
 10
5.8814861441
 20
7.4840128284
 10
5.8455092613
 20
7.483303348
 10
5.8097001064
 20
7.4854285076
 10
5.7747257669
 20
7.4903487411
 10
5.7412377157
 20
7.4979723849
 10
5.7098598005
 20
7.508157433
 10
5.681176499
 20
7.520714141
 10
5.6557221593
 20
7.5354086185
 10
5.6339709463
 20
7.551967136
 10
5.6163280139
 20
7.5700812209
 10
5.6031220445
 20
7.5894134614
 10
5.5945990267
 20
7.6096037178
 10
5.5909177435
 20
7.6302759029
 10
5.5921467327
 20
7.6510449152
 10
5.5982631593
 20
7.6715238761
 10
5.6091530353
 20
7.6913313062
 10
5.6246135311
 20
7.7100982146
 10
5.6443566274
 20
7.7274750266
 10
5.6469486774
 20
7.7294156299
  0
ARC
  5
273
330
1F
100
AcDbEntity
  8
0
  6
Continuous
 62
     7
370
    15
100
AcDbCircle
 10
5.9708059153
 20
7.6459502566
 30
0.0
 40
0.1141896134140255
100
AcDbArc
 50
293.9437225015
 51
354.7361391928
  0
LWPOLYLINE
  5
274
330
1F
100
AcDbEntity
  8
0
  6
Continuous
 62
     7
370
    15
100
AcDbPolyline
 90
       18
 70
   128
 43
0.0
 10
5.6245139879
 20
7.635474214
 10
5.6245523338
 20
7.6330491806
 10
5.6276145917
 20
7.6137458869
 10
5.635512809
 20
7.5949056892
 10
5.6480786516
 20
7.5769301399
 10
5.6650443008
 20
7.5602023534
 10
5.6860481704
 20
7.5450788562
 10
5.7106426047
 20
7.5318819847
 10
5.7383034008
 20
7.5208929966
 10
5.7684410161
 20
7.5123461093
 10
5.8004131445
 20
7.5064234852
 10
5.8335383287
 20
7.5032513548
 10
5.8671105777
 20
7.5028973181
 10
5.9004143466
 20
7.5053689335
 10
5.932739827
 20
7.5106135198
 10
5.9633980619
 20
7.5185192861
 10
5.9917356226
 20
7.5289177503
 10
6.0171485295
 20
7.5415872847
  0
ARC
  5
275
330
1F
100
AcDbEntity
  8
0
  6
Continuous
 62
     7
370
    15
100
AcDbCircle
 10
5.753549805
 20
7.6456199132
 30
0.0
 40
0.1353498633929347
100
AcDbArc
 50
117.1184851084
 51
156.3090597735
  0
LINE
  5
276
330
1F
100
AcDbEntity
  8
0
  6
Continuous
 62
     7
370
    15
100
AcDbLine
 10
5.6296063972
 20
7.6979625584
 30
0.0
 11
5.6296063972
 21
7.7000038923
 31
0.0
  0
SPLINE
  5
277
330
1F
100
AcDbEntity
  8
0
  6
Continuous
 62
     7
370
    15
100
AcDbSpline
210
0.0
220
0.0
230
1.0
 70
     8
 71
     3
 72
    14
 73
    10
 74
     0
 42
0.00000001
 43
0.00000001
 40
0.0
 40
0.0
 40
0.0
 40
0.0
 40
0.25
 40
0.25
 40
0.5
 40
0.5
 40
0.75
 40
0.75
 40
1.0
 40
1.0
 40
1.0
 40
1.0
 10
5.626092045280104
 20
7.671414734391076
 30
0.0
 10
5.626394135933741
 20
7.672895791015118
 30
0.0
 10
5.626732779711246
 20
7.674620022715406
 30
0.0
 10
5.627469501641862
 20
7.678617549039244
 30
0.0
 10
5.627860545298423
 20
7.680853668972104
 30
0.0
 10
5.628606330152103
 20
7.685703320848171
 30
0.0
 10
5.628954850690932
 20
7.688292539373957
 30
0.0
 10
5.629457590038173
 20
7.693372408267529
 30
0.0
 10
5.629606398852975
 20
7.695839678663653
 30
0.0
 10
5.629606398852975
 20
7.697962547422432
 30
0.0
  0
LWPOLYLINE
  5
278
330
1F
100
AcDbEntity
  8
0
  6
Continuous
 62
     7
370
    15
100
AcDbPolyline
 90
       13
 70
   128
 43
0.0
 10
5.8814104763
 20
7.5240225584
 10
5.8468736022
 20
7.5231848381
 10
5.8125093108
 20
7.5253445984
 10
5.7790938226
 20
7.5304530645
 10
5.74738191
 20
7.538394831
 10
5.7180898956
 20
7.5489905221
 10
5.6918794224
 20
7.5620008032
 10
5.6693425126
 20
7.5771317874
 10
5.6509882484
 20
7.5940417073
 10
5.6372312147
 20
7.6123486048
 10
5.6283821331
 20
7.6316389555
 10
5.6246409132
 20
7.6514770387
 10
5.6260920446
 20
7.6714147517
  0
SPLINE
  5
279
330
1F
100
AcDbEntity
  8
0
  6
Continuous
 62
     7
370
    15
100
AcDbSpline
210
0.0
220
0.0
230
1.0
 70
     8
 71
     3
 72
    14
 73
    10
 74
     0
 42
0.00000001
 43
0.00000001
 40
0.0
 40
0.0
 40
0.0
 40
0.0
 40
0.25
 40
0.25
 40
0.5
 40
0.5
 40
0.75
 40
0.75
 40
1.0
 40
1.0
 40
1.0
 40
1.0
 10
5.902644857682497
 20
7.540340800213375
 30
0.0
 10
5.902644857682497
 20
7.538223487941096
 30
0.0
 10
5.901961003997643
 20
7.536064955870261
 30
0.0
 10
5.89952625034223
 20
7.532125888904943
 30
0.0
 10
5.897782051959344
 20
7.53034651806148
 30
0.0
 10
5.893689340934027
 20
7.527425060345224
 30
0.0
 10
5.89137309722571
 20
7.526292715793793
 30
0.0
 10
5.886500869362411
 20
7.524676316285039
 30
0.0
 10
5.883973464348536
 20
7.52419676256243
 30
0.0
 10
5.88141047391384
 20
7.524022542871832
 30
0.0
  0
LINE
  5
27A
330
1F
100
AcDbEntity
  8
0
  6
Continuous
 62
     7
370
    15
100
AcDbLine
 10
5.9026448615
 20
7.5423821419
 30
0.0
 11
5.9026448615
 21
7.540340808
 31
0.0
  0
LWPOLYLINE
  5
27B
330
1F
100
AcDbEntity
  8
0
  6
Continuous
 62
     7
370
    15
100
AcDbPolyline
 90
        9
 70
   128
 43
0.0
 10
5.9026448615
 20
7.5423821419
 10
5.9343447505
 20
7.5476968201
 10
5.9644002779
 20
7.555576403
 10
5.9921923663
 20
7.5658585889
 10
6.0171485295
 20
7.5783315941
 10
6.0387547493
 20
7.5927384804
 10
6.0565659476
 20
7.6087825116
 10
6.0702152645
 20
7.6261331982
 10
6.0794215547
 20
7.6444331546
  0
LINE
  5
27C
330
1F
100
AcDbEntity
  8
0
  6
Continuous
 62
     7
370
    15
100
AcDbLine
 10
6.0794215547
 20
7.6423918207
 30
0.0
 11
6.0794215547
 21
7.6444331546
 31
0.0
  0
SPLINE
  5
27D
330
1F
100
AcDbEntity
  8
0
  6
Continuous
 62
     7
370
    15
100
AcDbSpline
210
0.0
220
0.0
230
1.0
 70
     8
 71
     3
 72
    14
 73
    10
 74
     0
 42
0.00000001
 43
0.00000001
 40
0.0
 40
0.0
 40
0.0
 40
0.0
 40
0.25
 40
0.25
 40
0.5
 40
0.5
 40
0.75
 40
0.75
 40
1.0
 40
1.0
 40
1.0
 40
1.0
 10
6.082935906552005
 20
7.640360698806568
 30
0.0
 10
6.082633815898368
 20
7.638879642182527
 30
0.0
 10
6.082295172120862
 20
7.637713459713769
 30
0.0
 10
6.081558450190247
 20
7.636087900852182
 30
0.0
 10
6.081167406533686
 20
7.635654487359555
 30
0.0
 10
6.080421621680006
 20
7.635774510549103
 30
0.0
 10
6.080073101141177
 20
7.636341191941361
 30
0.0
 10
6.079570361793935
 20
7.638591633866427
 30
0.0
 10
6.079421552979134
 20
7.640268945432435
 30
0.0
 10
6.079421552979134
 20
7.642391814191214
 30
0.0
  0
LWPOLYLINE
  5
27E
330
1F
100
AcDbEntity
  8
0
  6
Continuous
 62
     7
370
    15
100
AcDbPolyline
 90
        9
 70
   128
 43
0.0
 10
5.9799519198
 20
7.7671790493
 10
5.9909380562
 20
7.762784943
 10
6.0171485295
 20
7.7497746619
 10
6.0396854393
 20
7.7346436777
 10
6.0580397034
 20
7.7177337578
 10
6.0717967371
 20
7.6994268603
 10
6.0806458187
 20
7.6801365096
 10
6.0843870386
 20
7.6602984264
 10
6.0829359073
 20
7.6403607134
  0
SPLINE
  5
27F
330
1F
100
AcDbEntity
  8
0
  6
Continuous
 62
     7
370
    15
100
AcDbSpline
210
0.0
220
0.0
230
1.0
 70
     8
 71
     3
 72
    12
 73
     8
 74
     0
 42
0.00000001
 43
0.00000001
 40
0.0
 40
0.0
 40
0.0
 40
0.0
 40
0.25
 40
0.25
 40
0.5
 40
0.5
 40
1.0
 40
1.0
 40
1.0
 40
1.0
 10
5.824755825265528
 20
7.652669798514498
 30
0.0
 10
5.831765035241479
 20
7.644149353610369
 30
0.0
 10
5.838575745963249
 20
7.635323938265438
 30
0.0
 10
5.851952709472812
 20
7.617297527102044
 30
0.0
 10
5.858525688717775
 20
7.608082073378158
 30
0.0
 10
5.877881296903179
 20
7.580246457449361
 30
0.0
 10
5.890359222639649
 20
7.561383394157591
 30
0.0
 10
5.902644857682497
 20
7.54238215224309
 30
0.0
  0
LWPOLYLINE
  5
280
330
1F
100
AcDbEntity
  8
0
  6
Continuous
 62
     7
370
    15
100
AcDbPolyline
 90
       11
 70
   128
 43
0.0
 10
5.8247558274
 20
7.6526697476
 10
5.85411041
 20
7.6509489037
 10
5.8834806006
 20
7.6525785368
 10
5.9117300177
 20
7.6574955953
 10
5.9377656024
 20
7.665509827
 10
5.9605799905
 20
7.67631114
 10
5.9792904407
 20
7.6894816059
 10
5.9931730013
 20
7.704511629
 10
6.0016905194
 20
7.7208196704
 10
6.0045134327
 20
7.7377747205
 10
6.0015325206
 20
7.7547207603
  0
SPLINE
  5
281
330
1F
100
AcDbEntity
  8
0
  6
Continuous
 62
     7
370
    15
100
AcDbSpline
210
0.0
220
0.0
230
1.0
 70
     8
 71
     3
 72
    12
 73
     8
 74
     0
 42
0.00000001
 43
0.00000001
 40
0.0
 40
0.0
 40
0.0
 40
0.0
 40
0.5
 40
0.5
 40
0.75
 40
0.75
 40
1.0
 40
1.0
 40
1.0
 40
1.0
 10
6.079421552979134
 20
7.644433166220929
 30
0.0
 10
6.067114887081821
 20
7.663466934932127
 30
0.0
 10
6.054630459094047
 20
7.682336882049042
 30
0.0
 10
6.035321727440911
 20
7.710105361812031
 30
0.0
 10
6.028786225080156
 20
7.719270047325838
 30
0.0
 10
6.015401698577723
 20
7.737310483643809
 30
0.0
 10
6.008556677982458
 20
7.746182197369821
 30
0.0
 10
6.001532520562166
 20
7.754720812492336
 30
0.0
  0
SPLINE
  5
282
330
1F
100
AcDbEntity
  8
0
  6
Continuous
 62
     7
370
    15
100
AcDbSpline
210
0.0
220
0.0
230
1.0
 70
     8
 71
     3
 72
    12
 73
     8
 74
     0
 42
0.00000001
 43
0.00000001
 40
0.0
 40
0.0
 40
0.0
 40
0.0
 40
0.5
 40
0.5
 40
0.75
 40
0.75
 40
1.0
 40
1.0
 40
1.0
 40
1.0
 10
5.629606398852975
 20
7.700003899452147
 30
0.0
 10
5.641913064750288
 20
7.704828694164824
 30
0.0
 10
5.654397492738062
 20
7.709284427542221
 30
0.0
 10
5.673706224391198
 20
7.714759520266584
 30
0.0
 10
5.680241726751952
 20
7.716378475370052
 30
0.0
 10
5.693626253254386
 20
7.718965466324146
 30
0.0
 10
5.700471273849651
 20
7.719934087492923
 30
0.0
 10
5.707495431269943
 20
7.720362783082459
 30
0.0
  0
LINE
  5
283
330
1F
100
AcDbEntity
  8
0
  6
Continuous
 62
     7
370
    15
100
AcDbLine
 10
5.8247558274
 20
7.6526697476
 30
0.0
 11
5.7074954312
 21
7.7203627334
 31
0.0
  0
LINE
  5
284
330
1F
100
AcDbEntity
  8
0
  6
Continuous
 62
     7
370
    15
100
AcDbLine
 10
5.6296063972
 20
7.6979625584
 30
0.0
 11
5.9026448615
 21
7.540340808
 31
0.0
  0
LINE
  5
285
330
1F
100
AcDbEntity
  8
0
  6
Continuous
 62
     7
370
    15
100
AcDbLine
 10
5.8814104763
 20
7.5240225584
 30
0.0
 11
5.6260920446
 21
7.6714147517
 31
0.0
  0
ARC
  5
286
330
1F
100
AcDbEntity
  8
0
  6
Continuous
 62
     7
370
    15
100
AcDbCircle
 10
5.7794593316
 20
7.733424135
 30
0.0
 40
0.0731396141939537
100
AcDbArc
 50
109.440423251
 51
190.2871626946
  0
LINE
  5
287
330
1F
100
AcDbEntity
  8
0
  6
Continuous
 62
     7
370
    15
100
AcDbLine
 10
5.9482639747
 20
7.7854720373
 30
0.0
 11
6.0015325206
 21
7.7547207603
 31
0.0
  0
LWPOLYLINE
  5
288
330
1F
100
AcDbEntity
  8
0
  6
Continuous
 62
     8
370
    15
100
AcDbPolyline
 90
       17
 70
   128
 43
0.0
 10
6.2288896321
 20
8.3280196899
 10
6.2279528218
 20
8.3181733754
 10
6.2222519637
 20
8.299200761
 10
6.21155729
 20
8.2809614101
 10
6.1961240386
 20
8.2638905794
 10
6.1763204871
 20
8.2483956558
 10
6.1526192564
 20
8.2348464056
 10
6.1255859201
 20
8.2235661846
 10
6.095865612
 20
8.2148241759
 10
6.0641675832
 20
8.2088289903
 10
6.0312482785
 20
8.2057237152
 10
5.9978933233
 20
8.2055824313
 10
5.964898636
 20
8.2084085286
 10
5.9330516439
 20
8.2141345796
 10
5.9031123568
 20
8.2226238952
 10
5.8757952047
 20
8.2336739302
 10
5.8517521077
 20
8.2470209383
  0
ARC
  5
289
330
1F
100
AcDbEntity
  8
0
  6
Continuous
 62
     8
370
    15
100
AcDbCircle
 10
6.1986797205
 20
8.3520331405
 30
0.0
 40
0.0266624587831809
100
AcDbArc
 50
25.9818899964
 51
101.3780588495
  0
LWPOLYLINE
  5
28A
330
1F
100
AcDbEntity
  8
0
  6
Continuous
 62
     8
370
    15
100
AcDbPolyline
 90
       17
 70
   128
 43
0.0
 10
5.8517521077
 20
7.9306113708
 10
5.8757952047
 20
7.9172643627
 10
5.9031123568
 20
7.9062143276
 10
5.9330516439
 20
7.8977250121
 10
5.964898636
 20
7.8919989611
 10
5.9978933233
 20
7.8891728638
 10
6.0312482785
 20
7.8893141477
 10
6.0641675832
 20
7.8924194228
 10
6.095865612
 20
7.8984146084
 10
6.1255859201
 20
7.907156617
 10
6.1526192564
 20
7.9184368381
 10
6.1763204871
 20
7.9319860882
 10
6.1961240386
 20
7.9474810119
 10
6.21155729
 20
7.9645518425
 10
6.2222519637
 20
7.9827911935
 10
6.2279528218
 20
8.0017638079
 10
6.2289149304
 20
8.013517792
  0
LWPOLYLINE
  5
28B
330
1F
100
AcDbEntity
  8
0
  6
Continuous
 62
     8
370
    15
100
AcDbPolyline
 90
       15
 70
   128
 43
0.0
 10
5.7166482147
 20
8.259373945
 10
5.6866373562
 20
8.2509692621
 10
5.6547422438
 20
8.2453332246
 10
5.6217240018
 20
8.2426003211
 10
5.5883706152
 20
8.2428357719
 10
5.5554780217
 20
8.2460339603
 10
5.5238311857
 20
8.2521185831
 10
5.4941852977
 20
8.260944403
 10
5.4672478587
 20
8.2723008264
 10
5.4436616917
 20
8.2859168307
 10
5.423989658
 20
8.3014674833
 10
5.4087012328
 20
8.3185816902
 10
5.398161215
 20
8.3368510197
 10
5.3926211899
 20
8.3558395097
 10
5.3917562215
 20
8.3668497879
  0
ARC
  5
28C
330
1F
100
AcDbEntity
  8
0
  6
Continuous
 62
     8
370
    15
100
AcDbCircle
 10
5.4398830688
 20
8.4271697389
 30
0.0
 40
0.0208838650499711
100
AcDbArc
 50
66.3879966471
 51
130.5955925123
  0
LWPOLYLINE
  5
28D
330
1F
100
AcDbEntity
  8
0
  6
Continuous
 62
     8
370
    15
100
AcDbPolyline
 90
       15
 70
   128
 43
0.0
 10
5.3917758677
 20
8.0488897905
 10
5.3926211899
 20
8.0394299422
 10
5.398161215
 20
8.0204414522
 10
5.4087012328
 20
8.0021721226
 10
5.423989658
 20
7.9850579158
 10
5.4436616917
 20
7.9695072632
 10
5.4672478587
 20
7.9558912589
 10
5.4941852977
 20
7.9445348355
 10
5.5238311857
 20
7.9357090156
 10
5.5554780217
 20
7.9296243928
 10
5.5883706152
 20
7.9264262044
 10
5.6217240018
 20
7.9261907536
 10
5.6547422438
 20
7.928923657
 10
5.6866373562
 20
7.9345596946
 10
5.7166482147
 20
7.9429643775
  0
ARC
  5
28E
330
1F
100
AcDbEntity
  8
0
  6
Continuous
 62
     8
370
    15
100
AcDbCircle
 10
5.8678494529
 20
7.9292608171
 30
0.0
 40
0.0161539010053361
100
AcDbArc
 50
175.2041641494
 51
232.8705153885
  0
LWPOLYLINE
  5
28F
330
1F
100
AcDbEntity
  8
0
  6
Continuous
 62
     8
370
    15
100
AcDbPolyline
 90
        8
 70
   128
 43
0.0
 10
6.286051788
 20
8.426859893
 10
6.2698144787
 20
8.4217482651
 10
6.2553267329
 20
8.4151117752
 10
6.2430136877
 20
8.4071451704
 10
6.2332366481
 20
8.3980822627
 10
6.2262825867
 20
8.3881889986
 10
6.2223555483
 20
8.3777557139
 10
6.2214705838
 20
8.3695125732
  0
LWPOLYLINE
  5
290
330
1F
100
AcDbEntity
  8
0
  6
Continuous
 62
     8
370
    15
100
AcDbPolyline
 90
        6
 70
   128
 43
0.0
 10
5.7166482147
 20
7.9429643775
 10
5.7163451805
 20
7.938285536
 10
5.7154477451
 20
7.9343849658
 10
5.7139903783
 20
7.9314126767
 10
5.7120290953
 20
7.9294828295
 10
5.7108754887
 20
7.9289313162
  0
ARC
  5
291
330
1F
100
AcDbEntity
  8
0
  6
Continuous
 62
     8
370
    15
100
AcDbCircle
 10
6.3042383026
 20
8.015466683
 30
0.0
 40
0.0967090567410802
100
AcDbArc
 50
100.8392333376
 51
141.1568356538
  0
ARC
  5
292
330
1F
100
AcDbEntity
  8
0
  6
Continuous
 62
     8
370
    15
100
AcDbCircle
 10
5.3790735244
 20
8.4545471038
 30
0.0
 40
0.0572504336986217
100
AcDbArc
 50
5.9505806378
 51
68.6988382727
  0
LWPOLYLINE
  5
293
330
1F
100
AcDbEntity
  8
0
  6
Continuous
 62
     8
370
    15
100
AcDbPolyline
 90
        9
 70
   128
 43
0.0
 10
6.415214041
 20
8.5404412942
 10
6.4146113431
 20
8.5316810778
 10
6.409554525
 20
8.5126477045
 10
6.3994800126
 20
8.4942910632
 10
6.3846282265
 20
8.477049202
 10
6.3653535751
 20
8.4613335948
 10
6.3421160414
 20
8.4475192549
 10
6.315470125
 20
8.4359358972
 10
6.286051788
 20
8.426859893
  0
LWPOLYLINE
  5
294
330
1F
100
AcDbEntity
  8
0
  6
Continuous
 62
     8
370
    15
100
AcDbPolyline
 90
        5
 70
   128
 43
0.0
 10
6.2194012373
 20
8.6782877166
 10
6.2193273325
 20
8.6782790513
 10
6.218791591
 20
8.6775335461
 10
6.2182102505
 20
8.6756180601
 10
6.2176057053
 20
8.672606227
  0
LWPOLYLINE
  5
295
330
1F
100
AcDbEntity
  8
0
  6
Continuous
 62
     8
370
    15
100
AcDbPolyline
 90
        9
 70
   128
 43
0.0
 10
6.286051788
 20
8.1104503255
 10
6.315470125
 20
8.1195263296
 10
6.3421160414
 20
8.1311096874
 10
6.3653535751
 20
8.1449240273
 10
6.3846282265
 20
8.1606396345
 10
6.3994800126
 20
8.1778814957
 10
6.409554525
 20
8.196238137
 10
6.4146113431
 20
8.2152715103
 10
6.4152162707
 20
8.2245955153
  0
LINE
  5
296
330
1F
100
AcDbEntity
  8
0
  6
Continuous
 62
     8
370
    15
100
AcDbLine
 10
5.3998708964
 20
8.4037917335
 30
0.0
 11
5.3998708964
 21
8.5078864089
 31
0.0
  0
ARC
  5
297
330
1F
100
AcDbEntity
  8
0
  6
Continuous
 62
     8
370
    15
100
AcDbCircle
 10
5.8528925225
 20
8.4374051849
 30
0.0
 40
0.515043382489865
100
AcDbArc
 50
257.3928270558
 51
269.1394030132
  0
ARC
  5
298
330
1F
100
AcDbEntity
  8
0
  6
Continuous
 62
     8
370
    15
100
AcDbCircle
 10
5.4389471154
 20
8.6127040895
 30
0.0
 40
0.1118646372386112
100
AcDbArc
 50
185.3641935509
 51
249.5544547633
  0
LWPOLYLINE
  5
299
330
1F
100
AcDbEntity
  8
0
  6
Continuous
 62
     8
370
    15
100
AcDbPolyline
 90
        5
 70
   128
 43
0.0
 10
5.5828538919
 20
8.7306437344
 10
5.5841535774
 20
8.7335920163
 10
5.5854033147
 20
8.7354463833
 10
5.586555087
 20
8.7361355702
 10
5.5867601886
 20
8.7361317508
  0
LWPOLYLINE
  5
29A
330
1F
100
AcDbEntity
  8
0
  6
Continuous
 62
     8
370
    15
100
AcDbPolyline
 90
        6
 70
   128
 43
0.0
 10
6.286051788
 20
8.1104503255
 10
6.2858105119
 20
8.1057896543
 10
6.2850959781
 20
8.1019428841
 10
6.2839356434
 20
8.0990579667
 10
6.2823740892
 20
8.0972456802
 10
6.2812330053
 20
8.0966939584
  0
ARC
  5
29B
330
1F
100
AcDbEntity
  8
0
  6
Continuous
 62
     8
370
    15
100
AcDbCircle
 10
5.4362563736
 20
8.2956588383
 30
0.0
 40
0.1092607034792825
100
AcDbArc
 50
185.8311381845
 51
245.9655865291
  0
ARC
  5
29C
330
1F
100
AcDbEntity
  8
0
  6
Continuous
 62
     8
370
    15
100
AcDbCircle
 10
6.0970491967
 20
8.7173826056
 30
0.0
 40
0.0275400732343879
100
AcDbArc
 50
14.760699953
 51
98.6969866761
  0
ARC
  5
29D
330
1F
100
AcDbEntity
  8
0
  6
Continuous
 62
     8
370
    15
100
AcDbCircle
 10
5.7324847597
 20
8.7550685799
 30
0.0
 40
0.0230644651423903
100
AcDbArc
 50
70.9541246467
 51
138.8182467064
  0
LWPOLYLINE
  5
29E
330
1F
100
AcDbEntity
  8
0
  6
Continuous
 62
     8
370
    15
100
AcDbPolyline
 90
       20
 70
   128
 43
0.0
 10
5.6317753485
 20
6.4964206682
 10
5.6614482459
 20
6.4813187
 10
5.694165933
 20
6.4684827638
 10
5.7294123888
 20
6.4581152754
 10
5.7666317752
 20
6.4503797323
 10
5.8052371256
 20
6.4453981366
 10
5.844619591
 20
6.4432490405
 10
5.8841580847
 20
6.4439663488
 10
5.9232290896
 20
6.4475387462
 10
5.9612164129
 20
6.4539098881
 10
5.9975209864
 20
6.4629792992
 10
6.0315702426
 20
6.4746039536
 10
6.0628272151
 20
6.4886005204
 10
6.0907989643
 20
6.5047482676
 10
6.1150443564
 20
6.5227925337
 10
6.1351810302
 20
6.5424487509
 10
6.1508914132
 20
6.5634069351
 10
6.1619277506
 20
6.58533655
 10
6.1681159948
 20
6.6078917611
 10
6.1695139889
 20
6.6250049408
  0
ARC
  5
29F
330
1F
100
AcDbEntity
  8
0
  6
Continuous
 62
     8
370
    15
100
AcDbCircle
 10
5.6987792672
 20
6.6418887974
 30
0.0
 40
0.1601577402028976
100
AcDbArc
 50
186.0513750397
 51
245.2687807429
  0
LWPOLYLINE
  5
2A0
330
1F
100
AcDbEntity
  8
0
  6
Continuous
 62
     8
370
    15
100
AcDbPolyline
 90
       24
 70
   128
 43
0.0
 10
5.6140976805
 20
6.4658020491
 10
5.6448295577
 20
6.4500847637
 10
5.6786191101
 20
6.4366205334
 10
5.714973619
 20
6.4256057015
 10
5.7533629395
 20
6.4172008913
 10
5.7932272702
 20
6.4115286479
 10
5.8339852898
 20
6.4086717029
 10
5.875042662
 20
6.4086717029
 10
5.9158006816
 20
6.4115286479
 10
5.9556650123
 20
6.4172008913
 10
5.9940543329
 20
6.4256057015
 10
6.0304088417
 20
6.4366205334
 10
6.0641983942
 20
6.4500847637
 10
6.0949302714
 20
6.4658020491
 10
6.1221563583
 20
6.4835431842
 10
6.1454796163
 20
6.5030494776
 10
6.1645599323
 20
6.5240364888
 10
6.1791190679
 20
6.5461981719
 10
6.1889447465
 20
6.5692113601
 10
6.1938936566
 20
6.592740464
 10
6.1938936566
 20
6.6164423805
 10
6.1889447465
 20
6.6399714844
 10
6.1791190679
 20
6.6629846726
 10
6.1695139694
 20
6.6784639498
  0
LWPOLYLINE
  5
2A1
330
1F
100
AcDbEntity
  8
0
  6
Continuous
 62
     8
370
    15
100
AcDbPolyline
 90
       11
 70
   128
 43
0.0
 10
5.5395139824
 20
6.6784639498
 10
5.5299088839
 20
6.6629846726
 10
5.5200832054
 20
6.6399714844
 10
5.5151342953
 20
6.6164423805
 10
5.5151342953
 20
6.592740464
 10
5.5200832054
 20
6.5692113601
 10
5.5299088839
 20
6.5461981719
 10
5.5444680196
 20
6.5240364888
 10
5.5635483355
 20
6.5030494776
 10
5.5868715935
 20
6.4835431842
 10
5.6140976805
 20
6.4658020491
  0
LINE
  5
2A2
330
1F
100
AcDbEntity
  8
0
  6
Continuous
 62
     8
370
    15
100
AcDbLine
 10
6.079421613
 20
7.6423894723
 30
0.0
 11
6.0829359073
 21
7.6403607134
 31
0.0
  0
ENDSEC
  0
SECTION
  2
OBJECTS
  0
DICTIONARY
  5
C
330
0
100
AcDbDictionary
281
     1
  3
ACAD_GROUP
350
D
  3
ACAD_LAYOUT
350
1A
  3
ACAD_MLINESTYLE
350
17
  3
ACAD_PLOTSETTINGS
350
19
  3
ACAD_PLOTSTYLENAME
350
E
  0
DICTIONARY
  5
D
102
{ACAD_REACTORS
330
C
102
}
330
C
100
AcDbDictionary
281
     1
  0
DICTIONARY
  5
1A
102
{ACAD_REACTORS
330
C
102
}
330
C
100
AcDbDictionary
281
     1
  3
Layout1
350
1E
  3
Layout2
350
26
  3
Model
350
22
  0
DICTIONARY
  5
17
102
{ACAD_REACTORS
330
C
102
}
330
C
100
AcDbDictionary
281
     1
  3
Standard
350
18
  0
DICTIONARY
  5
19
102
{ACAD_REACTORS
330
C
102
}
330
C
100
AcDbDictionary
281
     1
  0
ACDBDICTIONARYWDFLT
  5
E
102
{ACAD_REACTORS
330
C
102
}
330
C
100
AcDbDictionary
281
     1
  3
Normal
350
F
100
AcDbDictionaryWithDefault
340
F
  0
LAYOUT
  5
1E
102
{ACAD_REACTORS
330
1A
102
}
330
1A
100
AcDbPlotSettings
  1

  2
none_device
  4

  6

 40
0.0
 41
0.0
 42
0.0
 43
0.0
 44
0.0
 45
0.0
 46
0.0
 47
0.0
 48
0.0
 49
0.0
140
0.0
141
0.0
142
1.0
143
1.0
 70
   688
 72
     0
 73
     0
 74
     5
  7

 75
    16
147
1.0
148
0.0
149
0.0
100
AcDbLayout
  1
Layout1
 70
     1
 71
     1
 10
0.0
 20
0.0
 11
12.0
 21
9.0
 12
0.0
 22
0.0
 32
0.0
 14
1.0000000000E+20
 24
1.0000000000E+20
 34
1.0000000000E+20
 15
-1.0000000000E+20
 25
-1.0000000000E+20
 35
-1.0000000000E+20
146
0.0
 13
0.0
 23
0.0
 33
0.0
 16
1.0
 26
0.0
 36
0.0
 17
0.0
 27
1.0
 37
0.0
 76
     0
330
1B
  0
LAYOUT
  5
26
102
{ACAD_REACTORS
330
1A
102
}
330
1A
100
AcDbPlotSettings
  1

  2
none_device
  4

  6

 40
0.0
 41
0.0
 42
0.0
 43
0.0
 44
0.0
 45
0.0
 46
0.0
 47
0.0
 48
0.0
 49
0.0
140
0.0
141
0.0
142
1.0
143
1.0
 70
   688
 72
     0
 73
     0
 74
     5
  7

 75
    16
147
1.0
148
0.0
149
0.0
100
AcDbLayout
  1
Layout2
 70
     1
 71
     2
 10
0.0
 20
0.0
 11
0.0
 21
0.0
 12
0.0
 22
0.0
 32
0.0
 14
0.0
 24
0.0
 34
0.0
 15
0.0
 25
0.0
 35
0.0
146
0.0
 13
0.0
 23
0.0
 33
0.0
 16
1.0
 26
0.0
 36
0.0
 17
0.0
 27
1.0
 37
0.0
 76
     0
330
23
  0
LAYOUT
  5
22
102
{ACAD_REACTORS
330
1A
102
}
330
1A
100
AcDbPlotSettings
  1

  2
none_device
  4

  6

 40
0.0
 41
0.0
 42
0.0
 43
0.0
 44
0.0
 45
0.0
 46
0.0
 47
0.0
 48
0.0
 49
0.0
140
0.0
141
0.0
142
1.0
143
1.0
 70
  1712
 72
     0
 73
     0
 74
     0
  7

 75
     0
147
1.0
148
0.0
149
0.0
100
AcDbLayout
  1
Model
 70
     1
 71
     0
 10
0.0
 20
0.0
 11
17.0
 21
11.0
 12
0.0
 22
0.0
 32
0.0
 14
0.0
 24
0.0
 34
0.0
 15
17.0
 25
11.0
 35
0.0
146
0.0
 13
0.0
 23
0.0
 33
0.0
 16
1.0
 26
0.0
 36
0.0
 17
0.0
 27
1.0
 37
0.0
 76
     0
330
1F
331
29
  0
MLINESTYLE
  5
18
102
{ACAD_REACTORS
330
17
102
}
330
17
100
AcDbMlineStyle
  2
Standard
 70
     0
  3

 62
   256
 51
90.0
 52
90.0
 71
     2
 49
0.5
 62
   256
  6
BYLAYER
 49
-0.5
 62
   256
  6
BYLAYER
  0
ACDBPLACEHOLDER
  5
F
102
{ACAD_REACTORS
330
E
102
}
330
E
  0
ENDSEC
  0
EOF
