  0
SECTION
  2
HEADER
  9
$ACADVER
  1
AC1009
  9
$INSBASE
 10
0.0
 20
0.0
 30
0.0
  9
$EXTMIN
 10
-4.148233
 20
-34.824283
 30
0.0
  9
$EXTMAX
 10
63.148967
 20
21.68815
 30
0.0
  9
$LIMMIN
 10
0.0
 20
0.0
  9
$LIMMAX
 10
12.0
 20
9.0
  9
$ORTHOMODE
 70
     1
  9
$REGENMODE
 70
     1
  9
$FILLMODE
 70
     1
  9
$QTEXTMODE
 70
     0
  9
$MIRRTEXT
 70
     1
  9
$DRAGMODE
 70
     2
  9
$LTSCALE
 40
1.0
  9
$OSMODE
 70
     0
  9
$ATTMODE
 70
     1
  9
$TEXTSIZE
 40
1.0
  9
$TRACEWID
 40
0.05
  9
$TEXTSTYLE
  7
STANDARD
  9
$CLAYER
  8
0
  9
$CELTYPE
  6
BYLAYER
  9
$CECOLOR
 62
   256
  9
$DIMSCALE
 40
1.0
  9
$DIMASZ
 40
0.75
  9
$DIMEXO
 40
0.2
  9
$DIMDLI
 40
0.38
  9
$DIMRND
 40
0.0
  9
$DIMDLE
 40
0.0
  9
$DIMEXE
 40
0.18
  9
$DIMTP
 40
0.0
  9
$DIMTM
 40
0.0
  9
$DIMTXT
 40
0.75
  9
$DIMCEN
 40
-0.12
  9
$DIMTSZ
 40
0.0
  9
$DIMTOL
 70
     0
  9
$DIMLIM
 70
     0
  9
$DIMTIH
 70
     1
  9
$DIMTOH
 70
     1
  9
$DIMSE1
 70
     0
  9
$DIMSE2
 70
     0
  9
$DIMTAD
 70
     0
  9
$DIMZIN
 70
     0
  9
$DIMBLK
  1

  9
$DIMASO
 70
     1
  9
$DIMSHO
 70
     1
  9
$DIMPOST
  1

  9
$DIMAPOST
  1

  9
$DIMALT
 70
     0
  9
$DIMALTD
 70
     2
  9
$DIMALTF
 40
25.4
  9
$DIMLFAC
 40
1.0
  9
$DIMTOFL
 70
     0
  9
$DIMTVP
 40
0.0
  9
$DIMTIX
 70
     0
  9
$DIMSOXD
 70
     0
  9
$DIMSAH
 70
     0
  9
$DIMBLK1
  1

  9
$DIMBLK2
  1

  9
$DIMSTYLE
  2
*UNNAMED
  9
$DIMCLRD
 70
     0
  9
$DIMCLRE
 70
     0
  9
$DIMCLRT
 70
     0
  9
$DIMTFAC
 40
1.0
  9
$DIMGAP
 40
0.2
  9
$LUNITS
 70
     2
  9
$LUPREC
 70
     4
  9
$SKETCHINC
 40
0.1
  9
$FILLETRAD
 40
0.14
  9
$AUNITS
 70
     0
  9
$AUPREC
 70
     0
  9
$MENU
  1
acad
  9
$ELEVATION
 40
0.0
  9
$PELEVATION
 40
0.0
  9
$THICKNESS
 40
0.0
  9
$LIMCHECK
 70
     0
  9
$BLIPMODE
 70
     1
  9
$CHAMFERA
 40
0.0
  9
$CHAMFERB
 40
0.0
  9
$SKPOLY
 70
     0
  9
$TDCREATE
 40
2451439.421830903
  9
$TDUPDATE
 40
2451439.422279745
  9
$TDINDWG
 40
0.0002587963
  9
$TDUSRTIMER
 40
0.0002587963
  9
$USRTIMER
 70
     1
  9
$ANGBASE
 50
0.0
  9
$ANGDIR
 70
     0
  9
$PDMODE
 70
     0
  9
$PDSIZE
 40
0.0
  9
$PLINEWID
 40
0.0
  9
$COORDS
 70
     1
  9
$SPLFRAME
 70
     0
  9
$SPLINETYPE
 70
     6
  9
$SPLINESEGS
 70
     8
  9
$ATTDIA
 70
     0
  9
$ATTREQ
 70
     1
  9
$HANDLING
 70
     0
  9
$HANDSEED
  5
0
  9
$SURFTAB1
 70
     6
  9
$SURFTAB2
 70
     6
  9
$SURFTYPE
 70
     6
  9
$SURFU
 70
     6
  9
$SURFV
 70
     6
  9
$UCSNAME
  2

  9
$UCSORG
 10
0.0
 20
0.0
 30
0.0
  9
$UCSXDIR
 10
1.0
 20
0.0
 30
0.0
  9
$UCSYDIR
 10
0.0
 20
1.0
 30
0.0
  9
$PUCSNAME
  2

  9
$PUCSORG
 10
0.0
 20
0.0
 30
0.0
  9
$PUCSXDIR
 10
1.0
 20
0.0
 30
0.0
  9
$PUCSYDIR
 10
0.0
 20
1.0
 30
0.0
  9
$USERI1
 70
     0
  9
$USERI2
 70
     0
  9
$USERI3
 70
     0
  9
$USERI4
 70
     0
  9
$USERI5
 70
     0
  9
$USERR1
 40
0.0
  9
$USERR2
 40
0.0
  9
$USERR3
 40
0.0
  9
$USERR4
 40
0.0
  9
$USERR5
 40
0.0
  9
$WORLDVIEW
 70
     1
  9
$SHADEDGE
 70
     3
  9
$SHADEDIF
 70
    70
  9
$TILEMODE
 70
     1
  9
$MAXACTVP
 70
    16
  9
$PINSBASE
 10
0.0
 20
0.0
 30
1.076194E+26
  9
$PLIMCHECK
 70
     0
  9
$PEXTMIN
 10
1.000000E+20
 20
1.000000E+20
 30
1.000000E+20
  9
$PEXTMAX
 10
-1.000000E+20
 20
-1.000000E+20
 30
-1.000000E+20
  9
$PLIMMIN
 10
0.0
 20
0.0
  9
$PLIMMAX
 10
12.0
 20
9.0
  9
$UNITMODE
 70
     0
  9
$VISRETAIN
 70
     0
  9
$PLINEGEN
 70
     0
  9
$PSLTSCALE
 70
     1
  9
$TREEDEPTH
 70
  3020
  9
$DWGCODEPAGE
  3
iso8859-1
  0
ENDSEC
  0
SECTION
  2
TABLES
  0
TABLE
  2
VPORT
 70
     1
  0
VPORT
  2
*ACTIVE
 70
     0
 10
0.0
 20
0.0
 11
1.0
 21
1.0
 12
17.146711
 22
11.685132
 13
0.0
 23
0.0
 14
1.0
 24
1.0
 15
0.0
 25
0.0
 16
0.0
 26
0.0
 36
1.0
 17
0.0
 27
0.0
 37
0.0
 40
25.05097
 41
1.379728
 42
50.0
 43
0.0
 44
0.0
 50
0.0
 51
0.0
 71
     0
 72
   100
 73
     1
 74
     0
 75
     0
 76
     0
 77
     0
 78
     0
  0
ENDTAB
  0
TABLE
  2
LTYPE
 70
     4
  0
LTYPE
  2
CONTINUOUS
 70
    64
  3
Solid line
 72
    65
 73
     0
 40
0.0
  0
LTYPE
  2
CENTER2
 70
    64
  3
___ _ ___ _ ___ _ ___ _ ___ _ ___ _ ___ _ ___ _
 72
    65
 73
     4
 40
1.125
 49
0.75
 49
-0.125
 49
0.125
 49
-0.125
  0
LTYPE
  2
DASHED2
 70
    64
  3
_ _ _ _ _ _ _ _ _ _ _ _ _ _ _ _ _ _ _ _ _ _ _ _
 72
    65
 73
     2
 40
0.375
 49
0.25
 49
-0.125
  0
LTYPE
  2
CENTER4
 70
    64
  3
a,.25,-.062,.032,-.062
 72
    65
 73
     4
 40
0.406
 49
0.25
 49
-0.062
 49
0.032
 49
-0.062
  0
ENDTAB
  0
TABLE
  2
LAYER
 70
     3
  0
LAYER
  2
0
 70
    64
 62
     7
  6
CONTINUOUS
  0
LAYER
  2
OBJ
 70
    64
 62
     7
  6
CONTINUOUS
  0
LAYER
  2
TEXT
 70
    64
 62
     1
  6
CONTINUOUS
  0
ENDTAB
  0
TABLE
  2
STYLE
 70
     2
  0
STYLE
  2
STANDARD
 70
     0
 40
0.0
 41
1.0
 50
0.0
 71
     0
 42
0.2
  3
txt
  4

  0
STYLE
  2
ROMAND
 70
    64
 40
1.0
 41
1.0
 50
0.0
 71
     0
 42
0.225
  3
romand
  4

  0
ENDTAB
  0
TABLE
  2
VIEW
 70
     0
  0
ENDTAB
  0
TABLE
  2
UCS
 70
     0
  0
ENDTAB
  0
TABLE
  2
APPID
 70
     1
  0
APPID
  2
ACAD
 70
    64
  0
ENDTAB
  0
TABLE
  2
DIMSTYLE
 70
     0
  0
ENDTAB
  0
ENDSEC
  0
SECTION
  2
BLOCKS
  0
BLOCK
  8
0
  2
100HHT
 70
    64
 10
0.0
 20
0.0
 30
0.0
  3
100HHT
  0
LINE
  8
0
 10
8.0
 20
-4.6188
 30
0.0
 11
8.0
 21
4.6188
 31
0.0
  0
LINE
  8
0
 10
8.0
 20
4.6188
 30
0.0
 11
0.0
 21
9.23761
 31
0.0
  0
LINE
  8
0
 10
0.0
 20
9.23761
 30
0.0
 11
-8.0
 21
4.6188
 31
0.0
  0
LINE
  8
0
 10
-8.0
 20
4.6188
 30
0.0
 11
-8.0
 21
-4.6188
 31
0.0
  0
LINE
  8
0
 10
-8.0
 20
-4.6188
 30
0.0
 11
0.0
 21
-9.2376
 31
0.0
  0
LINE
  8
0
 10
0.0
 20
-9.2376
 30
0.0
 11
8.0
 21
-4.6188
 31
0.0
  0
CIRCLE
  8
0
 10
0.0
 20
0.0
 30
0.0
 40
8.0
  0
ENDBLK
  8
0
  0
ENDSEC
  0
SECTION
  2
ENTITIES
  0
LINE
  8
OBJ
 10
3.393382
 20
10.28815
 30
0.0
 11
3.750382
 21
10.28815
 31
0.0
  0
LINE
  8
OBJ
 10
4.349382
 20
10.25815
 30
0.0
 11
3.423382
 21
10.25815
 31
0.0
  0
LINE
  8
OBJ
 10
4.446382
 20
11.89815
 30
0.0
 11
3.326382
 21
11.89815
 31
0.0
  0
LINE
  8
OBJ
 10
5.881382
 20
12.62015
 30
0.0
 11
1.891382
 21
12.62015
 31
0.0
  0
LINE
  8
OBJ
 10
5.821382
 20
12.38315
 30
0.0
 11
1.951382
 21
12.38315
 31
0.0
  0
LINE
  8
OBJ
 10
4.841232
 20
12.15815
 30
0.0
 11
2.931531
 21
12.15815
 31
0.0
  0
LINE
  8
OBJ
 10
3.296382
 20
11.92815
 30
0.0
 11
4.476382
 21
11.92815
 31
0.0
  0
LINE
  8
OBJ
 10
1.782382
 20
12.78515
 30
0.0
 11
10.877098
 21
13.656026
 31
0.0
  0
LINE
  8
OBJ
 10
3.296382
 20
20.01815
 30
0.0
 11
4.476382
 21
20.01815
 31
0.0
  0
LINE
  8
OBJ
 10
3.393382
 20
21.65815
 30
0.0
 11
3.750382
 21
21.65815
 31
0.0
  0
LINE
  8
OBJ
 10
4.446382
 20
20.04815
 30
0.0
 11
3.326382
 21
20.04815
 31
0.0
  0
LINE
  8
OBJ
 10
4.349382
 20
21.68815
 30
0.0
 11
3.423382
 21
21.68815
 31
0.0
  0
LINE
  8
OBJ
 10
4.841232
 20
19.78815
 30
0.0
 11
2.931531
 21
19.78815
 31
0.0
  0
LINE
  8
OBJ
 10
5.821382
 20
19.56315
 30
0.0
 11
1.951382
 21
19.56315
 31
0.0
  0
LINE
  8
OBJ
 10
5.881382
 20
19.32615
 30
0.0
 11
1.891382
 21
19.32615
 31
0.0
  0
LINE
  8
OBJ
 10
1.782382
 20
19.16115
 30
0.0
 11
10.877098
 21
18.290274
 31
0.0
  0
ARC
  8
OBJ
 10
-7.018603
 20
-79.246116
 30
0.0
 40
86.711817
 50
77.618676
 51
84.199861
  0
LINE
  8
OBJ
 10
3.886382
 20
1.742777
 30
0.0
 11
3.142382
 21
0.927777
 31
0.0
  0
ARC
  8
OBJ
 10
-5.891765
 20
79.281218
 30
0.0
 40
78.152556
 50
275.623421
 51
280.846141
  0
CIRCLE
  8
OBJ
 10
3.886382
 20
4.048977
 30
0.0
 40
1.995
  0
ARC
  8
OBJ
 10
3.886382
 20
4.048977
 30
0.0
 40
0.5906
 50
105.416358
 51
74.583642
  0
CIRCLE
  8
OBJ
 10
3.886382
 20
4.048977
 30
0.0
 40
0.89
  0
LINE
  8
OBJ
 10
1.744382
 20
1.514519
 30
0.0
 11
3.678008
 21
1.514519
 31
0.0
  0
CIRCLE
  8
OBJ
 10
3.886382
 20
4.048977
 30
0.0
 40
1.1615
  0
ARC
  8
OBJ
 10
1.509382
 20
1.591777
 30
0.0
 40
0.08
 50
180.0
 51
270.0
  0
LINE
  8
OBJ
 10
1.744382
 20
1.511777
 30
0.0
 11
1.744382
 21
7.021777
 31
0.0
  0
CIRCLE
  8
OBJ
 10
2.114382
 20
1.095977
 30
0.0
 40
0.1875
  0
LINE
  8
OBJ
 10
1.766382
 20
0.737777
 30
0.0
 11
3.142382
 21
0.737777
 31
0.0
  0
LINE
  8
OBJ
 10
1.744382
 20
1.511777
 30
0.0
 11
1.509382
 21
1.511777
 31
0.0
  0
LINE
  8
OBJ
 10
1.766382
 20
0.737777
 30
0.0
 11
1.766382
 21
1.514519
 31
0.0
  0
LINE
  8
TEXT
 10
2.114382
 20
0.975977
 30
0.0
 11
2.114382
 21
1.215977
 31
0.0
  0
LINE
  8
TEXT
 10
1.994382
 20
1.095977
 30
0.0
 11
2.234382
 21
1.095977
 31
0.0
  0
LINE
  8
TEXT
  6
CENTER4
 10
2.704382
 20
0.379077
 30
0.0
 11
2.704382
 21
1.139482
 31
0.0
  0
LINE
  8
OBJ
 10
3.142382
 20
0.737777
 30
0.0
 11
3.142382
 21
0.927777
 31
0.0
  0
LINE
  8
OBJ
 10
1.429382
 20
1.591777
 30
0.0
 11
1.429382
 21
6.941777
 31
0.0
  0
ARC
  8
OBJ
 10
13.073848
 20
2.007703
 30
0.0
 40
12.540607
 50
159.767161
 51
174.112893
  0
LINE
  8
OBJ
 10
1.509382
 20
6.265577
 30
0.0
 11
1.509382
 21
2.302977
 31
0.0
  0
LINE
  8
OBJ
 10
0.989411
 20
3.143977
 30
0.0
 11
0.749382
 21
3.143977
 31
0.0
  0
ARC
  8
OBJ
 10
1.246061
 20
2.061777
 30
0.0
 40
0.33688
 50
142.158498
 51
217.841502
  0
ARC
  8
OBJ
 10
1.016726
 20
2.369534
 30
0.0
 40
0.107545
 50
109.954678
 51
250.045322
  0
ARC
  8
OBJ
 10
1.016726
 20
1.75402
 30
0.0
 40
0.107545
 50
109.954678
 51
250.045322
  0
LINE
  8
OBJ
 10
0.909182
 20
2.423794
 30
0.0
 11
0.952824
 21
2.456034
 31
0.0
  0
LINE
  8
OBJ
 10
0.909182
 20
1.699761
 30
0.0
 11
0.952824
 21
1.66752
 31
0.0
  0
LINE
  8
OBJ
 10
0.909182
 20
1.699761
 30
0.0
 11
0.909182
 21
2.423794
 31
0.0
  0
ARC
  8
OBJ
 10
0.749382
 20
3.293977
 30
0.0
 40
0.15
 50
180.0
 51
270.0
  0
LINE
  8
OBJ
 10
0.599382
 20
3.624977
 30
0.0
 11
0.599382
 21
4.866977
 31
0.0
  0
LINE
  8
OBJ
 10
0.399382
 20
3.897977
 30
0.0
 11
0.399382
 21
4.593977
 31
0.0
  0
ARC
  8
OBJ
 10
0.659382
 20
3.624977
 30
0.0
 40
0.06
 50
180.0
 51
241.974364
  0
LINE
  8
OBJ
  6
CONTINUOUS
 10
0.599382
 20
3.817977
 30
0.0
 11
0.479382
 21
3.817977
 31
0.0
  0
ARC
  8
OBJ
 10
0.479382
 20
3.897977
 30
0.0
 40
0.08
 50
180.0
 51
270.0
  0
POINT
  8
OBJ
 10
0.805983
 20
4.608917
 30
0.0
  0
LINE
  8
OBJ
  6
CONTINUOUS
 10
0.877756
 20
4.926977
 30
0.0
 11
0.659382
 21
4.926977
 31
0.0
  0
ARC
  8
OBJ
 10
0.659382
 20
4.866977
 30
0.0
 40
0.06
 50
90.0
 51
180.0
  0
LINE
  8
OBJ
  6
CONTINUOUS
 10
0.599382
 20
4.673977
 30
0.0
 11
0.479382
 21
4.673977
 31
0.0
  0
ARC
  8
OBJ
 10
0.479382
 20
4.593977
 30
0.0
 40
0.08
 50
90.0
 51
180.0
  0
LINE
  8
OBJ
 10
1.745782
 20
1.965097
 30
0.0
 11
1.745782
 21
2.489257
 31
0.0
  0
LINE
  8
OBJ
 10
1.139411
 20
2.197702
 30
0.0
 11
1.139411
 21
2.993977
 31
0.0
  0
LINE
  8
OBJ
 10
1.509382
 20
1.620577
 30
0.0
 11
1.744382
 21
1.620577
 31
0.0
  0
LINE
  8
OBJ
 10
1.429382
 20
1.903473
 30
0.0
 11
1.371782
 21
1.845873
 31
0.0
  0
ARC
  8
OBJ
 10
1.35013
 20
1.961777
 30
0.0
 40
0.215949
 50
142.158498
 51
217.841502
  0
LINE
  8
OBJ
  6
CONTINUOUS
 10
1.371782
 20
1.829297
 30
0.0
 11
1.179593
 21
1.829297
 31
0.0
  0
POINT
  8
OBJ
 10
1.336177
 20
1.777891
 30
0.0
  0
LINE
  8
OBJ
  6
CENTER2
 10
1.429382
 20
2.202977
 30
0.0
 11
1.371782
 21
2.202977
 31
0.0
  0
ARC
  8
OBJ
 10
1.20312
 20
2.159057
 30
0.0
 40
0.068939
 50
109.954678
 51
250.045322
  0
LINE
  8
OBJ
 10
1.134182
 20
2.193839
 30
0.0
 11
1.162157
 21
2.214506
 31
0.0
  0
LINE
  8
OBJ
  6
CONTINUOUS
 10
1.371782
 20
2.094257
 30
0.0
 11
1.179593
 21
2.094257
 31
0.0
  0
LINE
  8
OBJ
  6
CONTINUOUS
 10
1.371782
 20
2.223857
 30
0.0
 11
1.179593
 21
2.223857
 31
0.0
  0
ARC
  8
OBJ
 10
1.509382
 20
2.222977
 30
0.0
 40
0.08
 50
90.0
 51
180.0
  0
LINE
  8
OBJ
  6
CONTINUOUS
 10
1.134182
 20
1.855108
 30
0.0
 11
0.980024
 21
1.855108
 31
0.0
  0
LINE
  8
OBJ
  6
CONTINUOUS
 10
1.134182
 20
2.268446
 30
0.0
 11
0.980024
 21
2.268446
 31
0.0
  0
LINE
  8
OBJ
 10
1.429382
 20
1.591777
 30
0.0
 11
1.199411
 21
1.591777
 31
0.0
  0
LINE
  8
OBJ
  6
CENTER2
 10
1.429382
 20
1.720577
 30
0.0
 11
1.371782
 21
1.720577
 31
0.0
  0
ARC
  8
OBJ
 10
1.199411
 20
1.651777
 30
0.0
 40
0.06
 50
180.0
 51
270.0
  0
LINE
  8
OBJ
 10
1.134182
 20
1.729715
 30
0.0
 11
1.162157
 21
1.709048
 31
0.0
  0
LINE
  8
OBJ
  6
CONTINUOUS
 10
1.371782
 20
1.699697
 30
0.0
 11
1.179593
 21
1.699697
 31
0.0
  0
LINE
  8
OBJ
 10
1.139411
 20
1.651777
 30
0.0
 11
1.139411
 21
1.725852
 31
0.0
  0
ARC
  8
OBJ
 10
1.509382
 20
1.700577
 30
0.0
 40
0.08
 50
180.0
 51
270.0
  0
LINE
  8
OBJ
  6
CONTINUOUS
 10
1.134182
 20
1.652932
 30
0.0
 11
0.980024
 21
1.652932
 31
0.0
  0
LINE
  8
OBJ
 10
1.134182
 20
1.729715
 30
0.0
 11
1.134182
 21
2.193839
 31
0.0
  0
LINE
  8
OBJ
 10
1.371782
 20
1.699697
 30
0.0
 11
1.371782
 21
2.223857
 31
0.0
  0
ARC
  8
OBJ
 10
1.20312
 20
1.764497
 30
0.0
 40
0.068939
 50
109.954678
 51
250.045322
  0
ARC
  8
OBJ
 10
0.989411
 20
2.993977
 30
0.0
 40
0.15
 50
0.0
 51
90.0
  0
LINE
  8
OBJ
  6
CONTINUOUS
 10
1.134182
 20
2.470622
 30
0.0
 11
0.980024
 21
2.470622
 31
0.0
  0
LINE
  8
TEXT
 10
2.909451
 20
2.832046
 30
0.0
 11
3.029953
 21
2.832046
 31
0.0
  0
LINE
  8
OBJ
 10
2.784451
 20
3.031232
 30
0.0
 11
2.554451
 21
3.031232
 31
0.0
  0
LINE
  8
OBJ
 10
2.899451
 20
2.832046
 30
0.0
 11
2.784451
 21
3.031232
 31
0.0
  0
LINE
  8
OBJ
 10
2.784451
 20
2.63286
 30
0.0
 11
2.899451
 21
2.832046
 31
0.0
  0
LINE
  8
OBJ
 10
2.554451
 20
2.63286
 30
0.0
 11
2.784451
 21
2.63286
 31
0.0
  0
LINE
  8
OBJ
 10
2.439451
 20
2.832046
 30
0.0
 11
2.554451
 21
2.63286
 31
0.0
  0
LINE
  8
OBJ
 10
2.554451
 20
3.031232
 30
0.0
 11
2.439451
 21
2.832046
 31
0.0
  0
LINE
  8
TEXT
 10
2.669451
 20
3.072046
 30
0.0
 11
2.669451
 21
3.192549
 31
0.0
  0
ARC
  8
OBJ
 10
2.714451
 20
2.877046
 30
0.0
 40
0.03
 50
180.0
 51
270.0
  0
LINE
  8
OBJ
 10
2.684451
 20
2.952046
 30
0.0
 11
2.684451
 21
2.877046
 31
0.0
  0
LINE
  8
OBJ
 10
2.714451
 20
2.847046
 30
0.0
 11
2.789451
 21
2.847046
 31
0.0
  0
ARC
  8
OBJ
 10
2.624451
 20
2.877046
 30
0.0
 40
0.03
 50
270.0
 51
0.0
  0
LINE
  8
OBJ
 10
2.549451
 20
2.847046
 30
0.0
 11
2.624451
 21
2.847046
 31
0.0
  0
LINE
  8
OBJ
 10
2.654451
 20
2.877046
 30
0.0
 11
2.654451
 21
2.952046
 31
0.0
  0
ARC
  8
OBJ
 10
2.549451
 20
2.952046
 30
0.0
 40
0.105
 50
270.0
 51
360.0
  0
ARC
  8
OBJ
 10
2.789451
 20
2.952046
 30
0.0
 40
0.105
 50
180.0
 51
270.0
  0
LINE
  8
OBJ
 10
2.654451
 20
2.952046
 30
0.0
 11
2.684451
 21
2.952046
 31
0.0
  0
LINE
  8
TEXT
 10
2.429451
 20
2.832046
 30
0.0
 11
2.308948
 21
2.832046
 31
0.0
  0
LINE
  8
OBJ
 10
2.789451
 20
2.817046
 30
0.0
 11
2.714451
 21
2.817046
 31
0.0
  0
LINE
  8
OBJ
 10
2.684451
 20
2.787046
 30
0.0
 11
2.684451
 21
2.712046
 31
0.0
  0
LINE
  8
OBJ
 10
2.624451
 20
2.817046
 30
0.0
 11
2.549451
 21
2.817046
 31
0.0
  0
LINE
  8
OBJ
 10
2.654451
 20
2.787046
 30
0.0
 11
2.654451
 21
2.712046
 31
0.0
  0
LINE
  8
OBJ
 10
2.654451
 20
2.712046
 30
0.0
 11
2.684451
 21
2.712046
 31
0.0
  0
LINE
  8
TEXT
 10
2.669451
 20
2.592046
 30
0.0
 11
2.669451
 21
2.471544
 31
0.0
  0
CIRCLE
  8
OBJ
 10
2.669451
 20
2.832046
 30
0.0
 40
0.185975
  0
CIRCLE
  8
OBJ
 10
2.669451
 20
2.832046
 30
0.0
 40
0.166146
  0
ARC
  8
OBJ
 10
2.549451
 20
2.712046
 30
0.0
 40
0.105
 50
0.0
 51
90.0
  0
ARC
  8
OBJ
 10
2.789451
 20
2.712046
 30
0.0
 40
0.105
 50
90.0
 51
180.0
  0
LINE
  8
OBJ
 10
2.789451
 20
2.847046
 30
0.0
 11
2.789451
 21
2.817046
 31
0.0
  0
LINE
  8
OBJ
 10
2.549451
 20
2.847046
 30
0.0
 11
2.549451
 21
2.817046
 31
0.0
  0
ARC
  8
OBJ
 10
2.624451
 20
2.787046
 30
0.0
 40
0.03
 50
0.0
 51
90.0
  0
ARC
  8
OBJ
 10
2.714451
 20
2.787046
 30
0.0
 40
0.03
 50
90.0
 51
180.0
  0
LINE
  8
TEXT
 10
2.669451
 20
5.025908
 30
0.0
 11
2.669451
 21
4.905405
 31
0.0
  0
LINE
  8
OBJ
 10
1.134182
 20
6.739257
 30
0.0
 11
1.134182
 21
6.838839
 31
0.0
  0
ARC
  8
OBJ
 10
1.20312
 20
6.804057
 30
0.0
 40
0.068939
 50
109.954678
 51
250.045322
  0
LINE
  8
OBJ
 10
1.371782
 20
6.344697
 30
0.0
 11
1.371782
 21
6.868857
 31
0.0
  0
LINE
  8
OBJ
 10
1.134182
 20
6.474297
 30
0.0
 11
1.134182
 21
6.739257
 31
0.0
  0
ARC
  8
OBJ
 10
1.35013
 20
6.606777
 30
0.0
 40
0.215949
 50
142.158498
 51
217.841502
  0
LINE
  8
OBJ
 10
1.429382
 20
6.548473
 30
0.0
 11
1.371782
 21
6.490873
 31
0.0
  0
LINE
  8
OBJ
  6
CONTINUOUS
 10
1.371782
 20
6.474297
 30
0.0
 11
1.179593
 21
6.474297
 31
0.0
  0
LINE
  8
OBJ
  6
CONTINUOUS
 10
1.371782
 20
6.739257
 30
0.0
 11
1.179593
 21
6.739257
 31
0.0
  0
LINE
  8
OBJ
  6
CENTER2
 10
1.429382
 20
6.365577
 30
0.0
 11
1.371782
 21
6.365577
 31
0.0
  0
LINE
  8
OBJ
  6
CONTINUOUS
 10
1.371782
 20
6.344697
 30
0.0
 11
1.179593
 21
6.344697
 31
0.0
  0
LINE
  8
OBJ
 10
1.134182
 20
6.374715
 30
0.0
 11
1.162157
 21
6.354048
 31
0.0
  0
ARC
  8
OBJ
 10
1.509382
 20
6.345577
 30
0.0
 40
0.08
 50
180.0
 51
270.0
  0
LINE
  8
OBJ
 10
1.134182
 20
6.374715
 30
0.0
 11
1.134182
 21
6.474297
 31
0.0
  0
ARC
  8
OBJ
 10
1.20312
 20
6.409497
 30
0.0
 40
0.068939
 50
109.954678
 51
250.045322
  0
LINE
  8
TEXT
 10
2.909451
 20
5.265908
 30
0.0
 11
3.029953
 21
5.265908
 31
0.0
  0
LINE
  8
OBJ
 10
2.784451
 20
5.465094
 30
0.0
 11
2.554451
 21
5.465094
 31
0.0
  0
LINE
  8
OBJ
 10
2.899451
 20
5.265908
 30
0.0
 11
2.784451
 21
5.465094
 31
0.0
  0
LINE
  8
OBJ
 10
2.784451
 20
5.066722
 30
0.0
 11
2.899451
 21
5.265908
 31
0.0
  0
LINE
  8
OBJ
 10
2.554451
 20
5.066722
 30
0.0
 11
2.784451
 21
5.066722
 31
0.0
  0
LINE
  8
OBJ
 10
2.439451
 20
5.265908
 30
0.0
 11
2.554451
 21
5.066722
 31
0.0
  0
LINE
  8
OBJ
 10
2.554451
 20
5.465094
 30
0.0
 11
2.439451
 21
5.265908
 31
0.0
  0
LINE
  8
TEXT
 10
2.669451
 20
5.505908
 30
0.0
 11
2.669451
 21
5.62641
 31
0.0
  0
ARC
  8
OBJ
 10
2.714451
 20
5.310908
 30
0.0
 40
0.03
 50
180.0
 51
270.0
  0
LINE
  8
OBJ
 10
2.684451
 20
5.385908
 30
0.0
 11
2.684451
 21
5.310908
 31
0.0
  0
LINE
  8
OBJ
 10
2.714451
 20
5.280908
 30
0.0
 11
2.789451
 21
5.280908
 31
0.0
  0
ARC
  8
OBJ
 10
2.624451
 20
5.310908
 30
0.0
 40
0.03
 50
270.0
 51
0.0
  0
LINE
  8
OBJ
 10
2.549451
 20
5.280908
 30
0.0
 11
2.624451
 21
5.280908
 31
0.0
  0
LINE
  8
OBJ
 10
2.654451
 20
5.310908
 30
0.0
 11
2.654451
 21
5.385908
 31
0.0
  0
ARC
  8
OBJ
 10
2.549451
 20
5.385908
 30
0.0
 40
0.105
 50
270.0
 51
360.0
  0
ARC
  8
OBJ
 10
2.789451
 20
5.385908
 30
0.0
 40
0.105
 50
180.0
 51
270.0
  0
LINE
  8
OBJ
 10
2.654451
 20
5.385908
 30
0.0
 11
2.684451
 21
5.385908
 31
0.0
  0
LINE
  8
TEXT
 10
2.429451
 20
5.265908
 30
0.0
 11
2.308948
 21
5.265908
 31
0.0
  0
LINE
  8
OBJ
 10
2.789451
 20
5.250908
 30
0.0
 11
2.714451
 21
5.250908
 31
0.0
  0
LINE
  8
OBJ
 10
2.684451
 20
5.220908
 30
0.0
 11
2.684451
 21
5.145908
 31
0.0
  0
LINE
  8
OBJ
 10
2.624451
 20
5.250908
 30
0.0
 11
2.549451
 21
5.250908
 31
0.0
  0
LINE
  8
OBJ
 10
2.654451
 20
5.220908
 30
0.0
 11
2.654451
 21
5.145908
 31
0.0
  0
LINE
  8
OBJ
 10
2.654451
 20
5.145908
 30
0.0
 11
2.684451
 21
5.145908
 31
0.0
  0
CIRCLE
  8
OBJ
 10
2.669451
 20
5.265908
 30
0.0
 40
0.185975
  0
CIRCLE
  8
OBJ
 10
2.669451
 20
5.265908
 30
0.0
 40
0.166146
  0
ARC
  8
OBJ
 10
2.549451
 20
5.145908
 30
0.0
 40
0.105
 50
0.0
 51
90.0
  0
ARC
  8
OBJ
 10
2.789451
 20
5.145908
 30
0.0
 40
0.105
 50
90.0
 51
180.0
  0
LINE
  8
OBJ
 10
2.789451
 20
5.280908
 30
0.0
 11
2.789451
 21
5.250908
 31
0.0
  0
LINE
  8
OBJ
 10
2.549451
 20
5.280908
 30
0.0
 11
2.549451
 21
5.250908
 31
0.0
  0
ARC
  8
OBJ
 10
2.624451
 20
5.220908
 30
0.0
 40
0.03
 50
0.0
 51
90.0
  0
ARC
  8
OBJ
 10
2.714451
 20
5.220908
 30
0.0
 40
0.03
 50
90.0
 51
180.0
  0
LINE
  8
OBJ
 10
1.744382
 20
7.021777
 30
0.0
 11
1.509382
 21
7.021777
 31
0.0
  0
LINE
  8
OBJ
 10
1.509382
 20
6.947977
 30
0.0
 11
1.744382
 21
6.947977
 31
0.0
  0
LINE
  8
OBJ
  6
CENTER2
 10
1.429382
 20
6.847977
 30
0.0
 11
1.371782
 21
6.847977
 31
0.0
  0
LINE
  8
OBJ
  6
CONTINUOUS
 10
1.371782
 20
6.868857
 30
0.0
 11
1.179593
 21
6.868857
 31
0.0
  0
LINE
  8
OBJ
 10
1.134182
 20
6.838839
 30
0.0
 11
1.162157
 21
6.859506
 31
0.0
  0
ARC
  8
OBJ
 10
1.509382
 20
6.941777
 30
0.0
 40
0.08
 50
90.0
 51
180.0
  0
ARC
  8
OBJ
 10
1.509382
 20
6.867977
 30
0.0
 40
0.08
 50
90.0
 51
180.0
  0
ARC
  8
OBJ
 10
-1.623225
 20
15.815997
 30
0.0
 40
2.492397
 50
350.895399
 51
356.202256
  0
LINE
  8
OBJ
 10
0.599382
 20
15.35215
 30
0.0
 11
0.599382
 21
16.59415
 31
0.0
  0
LINE
  8
OBJ
  6
CONTINUOUS
 10
1.429382
 20
12.84515
 30
0.0
 11
1.429382
 21
19.10115
 31
0.0
  0
LINE
  8
OBJ
  6
CONTINUOUS
 10
1.744382
 20
12.78515
 30
0.0
 11
1.744382
 21
19.16115
 31
0.0
  0
LINE
  8
OBJ
 10
3.296382
 20
12.15815
 30
0.0
 11
3.296382
 21
11.92815
 31
0.0
  0
LINE
  8
OBJ
 10
3.393382
 20
11.89815
 30
0.0
 11
3.393382
 21
10.28815
 31
0.0
  0
LINE
  8
OBJ
 10
3.393382
 20
10.28815
 30
0.0
 11
3.423382
 21
10.25815
 31
0.0
  0
LINE
  8
OBJ
 10
3.296382
 20
11.92815
 30
0.0
 11
3.326382
 21
11.89815
 31
0.0
  0
ARC
  8
OBJ
 10
1.07111
 20
13.31315
 30
0.0
 40
0.3
 50
186.400491
 51
270.0
  0
ARC
  8
OBJ
 10
24.783711
 20
15.97315
 30
0.0
 40
24.16133
 50
181.599186
 51
186.400491
  0
ARC
  8
OBJ
 10
-0.166528
 20
15.582552
 30
0.0
 40
1.017112
 50
338.848885
 51
350.895399
  0
ARC
  8
OBJ
 10
0.749382
 20
15.228193
 30
0.0
 40
0.035043
 50
270.0
 51
338.848885
  0
ARC
  8
OBJ
 10
0.749382
 20
15.228193
 30
0.0
 40
0.035043
 50
201.151115
 51
270.0
  0
ARC
  8
OBJ
 10
1.665291
 20
15.582552
 30
0.0
 40
1.017112
 50
196.589699
 51
201.151115
  0
LINE
  8
OBJ
  6
CONTINUOUS
 10
0.808246
 20
15.29215
 30
0.0
 11
0.659382
 21
15.29215
 31
0.0
  0
ARC
  8
OBJ
 10
0.659382
 20
15.35215
 30
0.0
 40
0.06
 50
180.0
 51
270.0
  0
LINE
  8
OBJ
 10
1.489382
 20
12.78515
 30
0.0
 11
1.782382
 21
12.78515
 31
0.0
  0
ARC
  8
OBJ
 10
1.489382
 20
12.84515
 30
0.0
 40
0.06
 50
180.0
 51
270.0
  0
ARC
  8
OBJ
 10
1.951382
 20
12.44315
 30
0.0
 40
0.06
 50
180.0
 51
270.0
  0
LINE
  8
OBJ
 10
1.744382
 20
12.78515
 30
0.0
 11
1.791382
 21
12.78515
 31
0.0
  0
LINE
  8
OBJ
 10
1.891382
 20
12.68515
 30
0.0
 11
1.891382
 21
12.62015
 31
0.0
  0
ARC
  8
OBJ
 10
1.791382
 20
12.68515
 30
0.0
 40
0.1
 50
0.0
 51
90.0
  0
LINE
  8
OBJ
 10
1.891382
 20
12.62015
 30
0.0
 11
1.891382
 21
12.44315
 31
0.0
  0
LINE
  8
OBJ
  6
CENTER2
 10
1.429382
 20
12.97595
 30
0.0
 11
1.371782
 21
12.97595
 31
0.0
  0
LINE
  8
OBJ
 10
1.429382
 20
13.275454
 30
0.0
 11
1.371782
 21
13.333054
 31
0.0
  0
POINT
  8
OBJ
 10
1.336177
 20
13.401036
 30
0.0
  0
LINE
  8
OBJ
  6
CENTER2
 10
1.429382
 20
13.45835
 30
0.0
 11
1.371782
 21
13.45835
 31
0.0
  0
LINE
  8
OBJ
 10
1.371782
 20
13.47923
 30
0.0
 11
1.371782
 21
12.95507
 31
0.0
  0
LINE
  8
OBJ
 10
1.134182
 20
13.449212
 30
0.0
 11
1.134182
 21
13.34963
 31
0.0
  0
ARC
  8
OBJ
 10
1.20312
 20
13.41443
 30
0.0
 40
0.068939
 50
109.954678
 51
250.045322
  0
LINE
  8
OBJ
 10
1.07111
 20
13.01315
 30
0.0
 11
1.134182
 21
13.01315
 31
0.0
  0
LINE
  8
OBJ
 10
1.134182
 20
13.08467
 30
0.0
 11
1.134182
 21
12.985088
 31
0.0
  0
LINE
  8
OBJ
 10
1.134182
 20
13.34963
 30
0.0
 11
1.134182
 21
13.08467
 31
0.0
  0
ARC
  8
OBJ
 10
1.35013
 20
13.21715
 30
0.0
 40
0.215949
 50
142.158498
 51
217.841502
  0
LINE
  8
OBJ
 10
1.07111
 20
13.01315
 30
0.0
 11
1.134182
 21
13.01315
 31
0.0
  0
LINE
  8
OBJ
 10
1.134182
 20
13.449212
 30
0.0
 11
1.162157
 21
13.469879
 31
0.0
  0
LINE
  8
OBJ
 10
1.134182
 20
12.985088
 30
0.0
 11
1.162157
 21
12.964421
 31
0.0
  0
ARC
  8
OBJ
 10
1.20312
 20
13.01987
 30
0.0
 40
0.068939
 50
109.954678
 51
250.045322
  0
LINE
  8
OBJ
  6
CONTINUOUS
 10
1.371782
 20
12.95507
 30
0.0
 11
1.179593
 21
12.95507
 31
0.0
  0
LINE
  8
OBJ
  6
CONTINUOUS
 10
1.371782
 20
13.34963
 30
0.0
 11
1.179593
 21
13.34963
 31
0.0
  0
LINE
  8
OBJ
  6
CONTINUOUS
 10
1.371782
 20
13.08467
 30
0.0
 11
1.179593
 21
13.08467
 31
0.0
  0
LINE
  8
OBJ
  6
CONTINUOUS
 10
1.371782
 20
13.47923
 30
0.0
 11
1.179593
 21
13.47923
 31
0.0
  0
ARC
  8
OBJ
 10
2.866731
 20
12.156889
 30
0.0
 40
0.068939
 50
199.954678
 51
340.045322
  0
LINE
  8
OBJ
 10
2.901513
 20
12.08795
 30
0.0
 11
2.801931
 21
12.08795
 31
0.0
  0
LINE
  8
OBJ
 10
2.901513
 20
12.08795
 30
0.0
 11
2.92218
 21
12.115926
 31
0.0
  0
ARC
  8
OBJ
 10
2.472171
 20
12.156889
 30
0.0
 40
0.068939
 50
199.954678
 51
340.045322
  0
LINE
  8
OBJ
 10
2.437389
 20
12.08795
 30
0.0
 11
2.416722
 21
12.115926
 31
0.0
  0
LINE
  8
OBJ
 10
2.536971
 20
12.08795
 30
0.0
 11
2.437389
 21
12.08795
 31
0.0
  0
ARC
  8
OBJ
 10
2.669451
 20
12.303899
 30
0.0
 40
0.215949
 50
232.158498
 51
307.841502
  0
LINE
  8
OBJ
 10
2.801931
 20
12.08795
 30
0.0
 11
2.536971
 21
12.08795
 31
0.0
  0
LINE
  8
OBJ
  6
CENTER2
 10
2.910651
 20
12.38315
 30
0.0
 11
2.910651
 21
12.32555
 31
0.0
  0
LINE
  8
OBJ
  6
CENTER2
 10
2.428251
 20
12.38315
 30
0.0
 11
2.428251
 21
12.32555
 31
0.0
  0
LINE
  8
OBJ
 10
2.727755
 20
12.38315
 30
0.0
 11
2.785355
 21
12.32555
 31
0.0
  0
LINE
  8
OBJ
 10
2.931531
 20
12.32555
 30
0.0
 11
2.407371
 21
12.32555
 31
0.0
  0
LINE
  8
OBJ
 10
2.428251
 20
12.38315
 30
0.0
 11
2.910651
 21
12.38315
 31
0.0
  0
LINE
  8
OBJ
  6
CONTINUOUS
 10
2.407371
 20
12.32555
 30
0.0
 11
2.407371
 21
12.133362
 31
0.0
  0
LINE
  8
OBJ
  6
CONTINUOUS
 10
2.536971
 20
12.32555
 30
0.0
 11
2.536971
 21
12.133362
 31
0.0
  0
LINE
  8
OBJ
  6
CONTINUOUS
 10
2.801931
 20
12.32555
 30
0.0
 11
2.801931
 21
12.133362
 31
0.0
  0
LINE
  8
OBJ
  6
CONTINUOUS
 10
2.931531
 20
12.32555
 30
0.0
 11
2.931531
 21
12.133362
 31
0.0
  0
LINE
  8
TEXT
 10
2.704382
 20
13.88465
 30
0.0
 11
2.704382
 21
14.12465
 31
0.0
  0
LINE
  8
TEXT
 10
2.584382
 20
14.00465
 30
0.0
 11
2.824382
 21
14.00465
 31
0.0
  0
CIRCLE
  8
OBJ
 10
2.704382
 20
14.00465
 30
0.0
 40
0.197
  0
LINE
  8
OBJ
 10
1.371782
 20
18.46707
 30
0.0
 11
1.371782
 21
18.99123
 31
0.0
  0
LINE
  8
OBJ
 10
1.134182
 20
18.86163
 30
0.0
 11
1.134182
 21
18.961212
 31
0.0
  0
ARC
  8
OBJ
 10
1.07111
 20
18.63315
 30
0.0
 40
0.3
 50
90.0
 51
173.599509
  0
ARC
  8
OBJ
 10
1.20312
 20
18.92643
 30
0.0
 40
0.068939
 50
109.954678
 51
250.045322
  0
ARC
  8
OBJ
 10
24.783711
 20
15.97315
 30
0.0
 40
24.16133
 50
173.599509
 51
178.400814
  0
ARC
  8
OBJ
 10
-1.623225
 20
16.130303
 30
0.0
 40
2.492397
 50
3.797744
 51
9.104601
  0
ARC
  8
OBJ
 10
0.479382
 20
16.32115
 30
0.0
 40
0.08
 50
90.0
 51
180.0
  0
ARC
  8
OBJ
 10
-3.990688
 20
15.97315
 30
0.0
 40
4.865069
 50
356.202256
 51
0.0
  0
ARC
  8
OBJ
 10
-3.990688
 20
15.97315
 30
0.0
 40
4.865069
 50
0.0
 51
3.797744
  0
ARC
  8
OBJ
 10
0.479382
 20
15.62515
 30
0.0
 40
0.08
 50
180.0
 51
270.0
  0
LINE
  8
OBJ
  6
CONTINUOUS
 10
0.599382
 20
15.54515
 30
0.0
 11
0.479382
 21
15.54515
 31
0.0
  0
LINE
  8
OBJ
 10
0.399382
 20
15.62515
 30
0.0
 11
0.399382
 21
16.32115
 31
0.0
  0
ARC
  8
OBJ
 10
1.665291
 20
16.363748
 30
0.0
 40
1.017112
 50
158.848885
 51
163.410301
  0
ARC
  8
OBJ
 10
0.749382
 20
16.718107
 30
0.0
 40
0.035043
 50
90.0
 51
158.848885
  0
ARC
  8
OBJ
 10
0.749382
 20
16.718107
 30
0.0
 40
0.035043
 50
21.151115
 51
90.0
  0
ARC
  8
OBJ
 10
-0.166528
 20
16.363748
 30
0.0
 40
1.017112
 50
9.104601
 51
21.151115
  0
LINE
  8
OBJ
  6
CONTINUOUS
 10
0.808246
 20
16.65415
 30
0.0
 11
0.659382
 21
16.65415
 31
0.0
  0
LINE
  8
OBJ
  6
CONTINUOUS
 10
0.599382
 20
16.40115
 30
0.0
 11
0.479382
 21
16.40115
 31
0.0
  0
ARC
  8
OBJ
 10
0.659382
 20
16.59415
 30
0.0
 40
0.06
 50
90.0
 51
180.0
  0
LINE
  8
OBJ
 10
1.429382
 20
18.670846
 30
0.0
 11
1.371782
 21
18.613246
 31
0.0
  0
LINE
  8
OBJ
  6
CENTER2
 10
1.429382
 20
18.48795
 30
0.0
 11
1.371782
 21
18.48795
 31
0.0
  0
POINT
  8
OBJ
 10
1.336177
 20
18.545264
 30
0.0
  0
ARC
  8
OBJ
 10
1.20312
 20
18.53187
 30
0.0
 40
0.068939
 50
109.954678
 51
250.045322
  0
ARC
  8
OBJ
 10
1.35013
 20
18.72915
 30
0.0
 40
0.215949
 50
142.158498
 51
217.841502
  0
LINE
  8
OBJ
 10
1.134182
 20
18.497088
 30
0.0
 11
1.134182
 21
18.59667
 31
0.0
  0
LINE
  8
OBJ
 10
1.134182
 20
18.59667
 30
0.0
 11
1.134182
 21
18.86163
 31
0.0
  0
LINE
  8
OBJ
 10
1.134182
 20
18.497088
 30
0.0
 11
1.162157
 21
18.476421
 31
0.0
  0
LINE
  8
OBJ
  6
CONTINUOUS
 10
1.371782
 20
18.86163
 30
0.0
 11
1.179593
 21
18.86163
 31
0.0
  0
LINE
  8
OBJ
  6
CONTINUOUS
 10
1.371782
 20
18.59667
 30
0.0
 11
1.179593
 21
18.59667
 31
0.0
  0
LINE
  8
OBJ
  6
CONTINUOUS
 10
1.371782
 20
18.46707
 30
0.0
 11
1.179593
 21
18.46707
 31
0.0
  0
CIRCLE
  8
OBJ
 10
2.704382
 20
17.94165
 30
0.0
 40
0.197
  0
LINE
  8
TEXT
 10
2.704382
 20
17.82165
 30
0.0
 11
2.704382
 21
18.06165
 31
0.0
  0
LINE
  8
TEXT
 10
2.584382
 20
17.94165
 30
0.0
 11
2.824382
 21
17.94165
 31
0.0
  0
LINE
  8
OBJ
 10
3.393382
 20
20.04815
 30
0.0
 11
3.393382
 21
21.65815
 31
0.0
  0
LINE
  8
OBJ
 10
1.489382
 20
19.16115
 30
0.0
 11
1.782382
 21
19.16115
 31
0.0
  0
ARC
  8
OBJ
 10
1.489382
 20
19.10115
 30
0.0
 40
0.06
 50
90.0
 51
180.0
  0
LINE
  8
OBJ
  6
CENTER2
 10
1.429382
 20
18.97035
 30
0.0
 11
1.371782
 21
18.97035
 31
0.0
  0
LINE
  8
OBJ
 10
1.07111
 20
18.93315
 30
0.0
 11
1.134182
 21
18.93315
 31
0.0
  0
LINE
  8
OBJ
 10
1.134182
 20
18.961212
 30
0.0
 11
1.162157
 21
18.981879
 31
0.0
  0
LINE
  8
OBJ
  6
CONTINUOUS
 10
1.371782
 20
18.99123
 30
0.0
 11
1.179593
 21
18.99123
 31
0.0
  0
ARC
  8
OBJ
 10
1.951382
 20
19.50315
 30
0.0
 40
0.06
 50
90.0
 51
180.0
  0
LINE
  8
OBJ
 10
1.891382
 20
19.32615
 30
0.0
 11
1.891382
 21
19.50315
 31
0.0
  0
ARC
  8
OBJ
 10
1.791382
 20
19.26115
 30
0.0
 40
0.1
 50
270.0
 51
0.0
  0
LINE
  8
OBJ
 10
1.744382
 20
19.16115
 30
0.0
 11
1.791382
 21
19.16115
 31
0.0
  0
LINE
  8
OBJ
 10
1.891382
 20
19.26115
 30
0.0
 11
1.891382
 21
19.32615
 31
0.0
  0
LINE
  8
OBJ
 10
3.296382
 20
19.78815
 30
0.0
 11
3.296382
 21
20.01815
 31
0.0
  0
LINE
  8
OBJ
  6
CONTINUOUS
 10
2.536971
 20
19.62075
 30
0.0
 11
2.536971
 21
19.812938
 31
0.0
  0
LINE
  8
OBJ
  6
CONTINUOUS
 10
2.407371
 20
19.62075
 30
0.0
 11
2.407371
 21
19.812938
 31
0.0
  0
LINE
  8
OBJ
  6
CONTINUOUS
 10
2.801931
 20
19.62075
 30
0.0
 11
2.801931
 21
19.812938
 31
0.0
  0
LINE
  8
OBJ
  6
CONTINUOUS
 10
2.931531
 20
19.62075
 30
0.0
 11
2.931531
 21
19.812938
 31
0.0
  0
LINE
  8
OBJ
 10
2.428251
 20
19.56315
 30
0.0
 11
2.910651
 21
19.56315
 31
0.0
  0
LINE
  8
OBJ
 10
2.931531
 20
19.62075
 30
0.0
 11
2.407371
 21
19.62075
 31
0.0
  0
LINE
  8
OBJ
 10
2.727755
 20
19.56315
 30
0.0
 11
2.785355
 21
19.62075
 31
0.0
  0
LINE
  8
OBJ
  6
CENTER2
 10
2.910651
 20
19.56315
 30
0.0
 11
2.910651
 21
19.62075
 31
0.0
  0
LINE
  8
OBJ
  6
CENTER2
 10
2.428251
 20
19.56315
 30
0.0
 11
2.428251
 21
19.62075
 31
0.0
  0
ARC
  8
OBJ
 10
2.472171
 20
19.789411
 30
0.0
 40
0.068939
 50
19.954678
 51
160.045322
  0
LINE
  8
OBJ
 10
2.536971
 20
19.85835
 30
0.0
 11
2.437389
 21
19.85835
 31
0.0
  0
LINE
  8
OBJ
 10
2.437389
 20
19.85835
 30
0.0
 11
2.416722
 21
19.830374
 31
0.0
  0
ARC
  8
OBJ
 10
2.866731
 20
19.789411
 30
0.0
 40
0.068939
 50
19.954678
 51
160.045322
  0
LINE
  8
OBJ
 10
2.901513
 20
19.85835
 30
0.0
 11
2.801931
 21
19.85835
 31
0.0
  0
LINE
  8
OBJ
 10
2.901513
 20
19.85835
 30
0.0
 11
2.92218
 21
19.830374
 31
0.0
  0
ARC
  8
OBJ
 10
2.669451
 20
19.642401
 30
0.0
 40
0.215949
 50
52.158498
 51
127.841502
  0
LINE
  8
OBJ
 10
2.801931
 20
19.85835
 30
0.0
 11
2.536971
 21
19.85835
 31
0.0
  0
LINE
  8
OBJ
 10
3.296382
 20
20.01815
 30
0.0
 11
3.326382
 21
20.04815
 31
0.0
  0
LINE
  8
OBJ
 10
3.393382
 20
21.65815
 30
0.0
 11
3.423382
 21
21.68815
 31
0.0
  0
LINE
  8
TEXT
  6
CENTER4
 10
24.285653
 20
3.576977
 30
0.0
 11
25.27571
 21
3.576977
 31
0.0
  0
ARC
  8
OBJ
 10
24.568549
 20
6.143977
 30
0.0
 40
0.1
 50
270.0
 51
0.0
  0
ARC
  8
OBJ
 10
24.674498
 20
6.747977
 30
0.0
 40
0.2
 50
90.0
 51
180.0
  0
ARC
  8
OBJ
 10
23.983298
 20
5.49872
 30
0.0
 40
0.834097
 50
355.222937
 51
41.545152
  0
ARC
  8
OBJ
 10
23.983298
 20
2.599234
 30
0.0
 40
0.834097
 50
318.454848
 51
4.777063
  0
ARC
  8
OBJ
 10
25.068549
 20
1.914519
 30
0.0
 40
0.4
 50
180.0
 51
270.0
  0
ARC
  8
OBJ
 10
24.568549
 20
1.953977
 30
0.0
 40
0.1
 50
0.0
 51
90.0
  0
ARC
  8
0
 10
25.262298
 20
5.032977
 30
0.0
 40
0.4475
 50
38.666908
 51
218.666908
  0
LINE
  8
0
 10
14.384882
 20
3.319977
 30
0.0
 11
11.785882
 21
3.319977
 31
0.0
  0
LINE
  8
0
 10
14.384882
 20
2.809977
 30
0.0
 11
11.785882
 21
2.809977
 31
0.0
  0
LINE
  8
0
 10
14.384882
 20
3.064977
 30
0.0
 11
11.785882
 21
3.064977
 31
0.0
  0
LINE
  8
0
 10
14.384882
 20
4.777977
 30
0.0
 11
11.785882
 21
4.777977
 31
0.0
  0
LINE
  8
0
 10
14.384882
 20
5.287977
 30
0.0
 11
11.785882
 21
5.287977
 31
0.0
  0
LINE
  8
0
 10
14.384882
 20
5.032977
 30
0.0
 11
11.785882
 21
5.032977
 31
0.0
  0
LINE
  8
OBJ
 10
7.608382
 20
1.742777
 30
0.0
 11
8.352382
 21
0.927777
 31
0.0
  0
LINE
  8
OBJ
 10
9.857382
 20
0.737777
 30
0.0
 11
9.857382
 21
2.648977
 31
0.0
  0
LINE
  8
OBJ
 10
7.816755
 20
1.514519
 30
0.0
 11
9.857382
 21
1.514519
 31
0.0
  0
LINE
  8
TEXT
 10
8.686382
 20
1.095977
 30
0.0
 11
8.926382
 21
1.095977
 31
0.0
  0
CIRCLE
  8
OBJ
 10
8.806382
 20
1.095977
 30
0.0
 40
0.1875
  0
LINE
  8
OBJ
 10
9.857382
 20
0.737777
 30
0.0
 11
8.352382
 21
0.737777
 31
0.0
  0
LINE
  8
TEXT
 10
8.806382
 20
0.975977
 30
0.0
 11
8.806382
 21
1.215977
 31
0.0
  0
LINE
  8
OBJ
 10
8.352382
 20
0.737777
 30
0.0
 11
8.352382
 21
0.927777
 31
0.0
  0
LINE
  8
TEXT
  6
CENTER4
 10
9.396382
 20
0.379077
 30
0.0
 11
9.396382
 21
1.139482
 31
0.0
  0
ARC
  8
OBJ
 10
9.142032
 20
3.576977
 30
0.0
 40
0.57085
 50
180.0
 51
0.0
  0
CIRCLE
  8
OBJ
 10
9.142032
 20
3.576977
 30
0.0
 40
0.33
  0
ARC
  8
OBJ
 10
8.810882
 20
2.767253
 30
0.0
 40
4.120471
 50
79.786344
 51
100.213656
  0
LINE
  8
OBJ
  6
CONTINUOUS
 10
7.707392
 20
6.378724
 30
0.0
 11
9.914372
 21
6.378724
 31
0.0
  0
LINE
  8
OBJ
  6
CONTINUOUS
 10
8.259137
 20
6.738724
 30
0.0
 11
9.362627
 21
6.738724
 31
0.0
  0
ARC
  8
OBJ
 10
8.810882
 20
5.486452
 30
0.0
 40
1.252272
 50
63.858144
 51
116.141856
  0
LINE
  8
OBJ
 10
5.880153
 20
4.118977
 30
0.0
 11
9.923422
 21
4.118977
 31
0.0
  0
LINE
  8
OBJ
 10
5.880153
 20
3.978977
 30
0.0
 11
9.923422
 21
3.978977
 31
0.0
  0
LINE
  8
OBJ
 10
3.886382
 20
1.742777
 30
0.0
 11
7.608382
 21
1.742777
 31
0.0
  0
LINE
  8
OBJ
 10
4.873312
 20
2.832046
 30
0.0
 11
4.988312
 21
2.63286
 31
0.0
  0
LINE
  8
OBJ
 10
4.988312
 20
3.031232
 30
0.0
 11
4.873312
 21
2.832046
 31
0.0
  0
CIRCLE
  8
OBJ
 10
5.103312
 20
2.832046
 30
0.0
 40
0.185975
  0
LINE
  8
TEXT
 10
4.863312
 20
2.832046
 30
0.0
 11
4.74281
 21
2.832046
 31
0.0
  0
POINT
  8
OBJ
 10
5.373166
 20
1.74524
 30
0.0
  0
LINE
  8
OBJ
 10
5.218312
 20
3.031232
 30
0.0
 11
4.988312
 21
3.031232
 31
0.0
  0
LINE
  8
OBJ
 10
5.333312
 20
2.832046
 30
0.0
 11
5.218312
 21
3.031232
 31
0.0
  0
LINE
  8
OBJ
 10
5.218312
 20
2.63286
 30
0.0
 11
5.333312
 21
2.832046
 31
0.0
  0
LINE
  8
OBJ
 10
4.988312
 20
2.63286
 30
0.0
 11
5.218312
 21
2.63286
 31
0.0
  0
LINE
  8
TEXT
 10
5.343312
 20
2.832046
 30
0.0
 11
5.463815
 21
2.832046
 31
0.0
  0
LINE
  8
TEXT
 10
5.103312
 20
3.072046
 30
0.0
 11
5.103312
 21
3.192549
 31
0.0
  0
ARC
  8
OBJ
 10
5.148312
 20
2.877046
 30
0.0
 40
0.03
 50
180.0
 51
270.0
  0
LINE
  8
OBJ
 10
5.118312
 20
2.952046
 30
0.0
 11
5.118312
 21
2.877046
 31
0.0
  0
LINE
  8
OBJ
 10
5.148312
 20
2.847046
 30
0.0
 11
5.223312
 21
2.847046
 31
0.0
  0
ARC
  8
OBJ
 10
5.058312
 20
2.877046
 30
0.0
 40
0.03
 50
270.0
 51
0.0
  0
LINE
  8
OBJ
 10
4.983312
 20
2.847046
 30
0.0
 11
5.058312
 21
2.847046
 31
0.0
  0
LINE
  8
OBJ
 10
5.088312
 20
2.877046
 30
0.0
 11
5.088312
 21
2.952046
 31
0.0
  0
ARC
  8
OBJ
 10
4.983312
 20
2.952046
 30
0.0
 40
0.105
 50
270.0
 51
360.0
  0
ARC
  8
OBJ
 10
5.223312
 20
2.952046
 30
0.0
 40
0.105
 50
180.0
 51
270.0
  0
LINE
  8
OBJ
 10
5.088312
 20
2.952046
 30
0.0
 11
5.118312
 21
2.952046
 31
0.0
  0
LINE
  8
OBJ
 10
5.223312
 20
2.817046
 30
0.0
 11
5.148312
 21
2.817046
 31
0.0
  0
LINE
  8
OBJ
 10
5.118312
 20
2.787046
 30
0.0
 11
5.118312
 21
2.712046
 31
0.0
  0
LINE
  8
OBJ
 10
5.058312
 20
2.817046
 30
0.0
 11
4.983312
 21
2.817046
 31
0.0
  0
LINE
  8
OBJ
 10
5.088312
 20
2.787046
 30
0.0
 11
5.088312
 21
2.712046
 31
0.0
  0
LINE
  8
OBJ
 10
5.088312
 20
2.712046
 30
0.0
 11
5.118312
 21
2.712046
 31
0.0
  0
LINE
  8
TEXT
 10
5.103312
 20
2.592046
 30
0.0
 11
5.103312
 21
2.471544
 31
0.0
  0
CIRCLE
  8
OBJ
 10
5.103312
 20
2.832046
 30
0.0
 40
0.166146
  0
ARC
  8
OBJ
 10
4.983312
 20
2.712046
 30
0.0
 40
0.105
 50
0.0
 51
90.0
  0
ARC
  8
OBJ
 10
5.223312
 20
2.712046
 30
0.0
 40
0.105
 50
90.0
 51
180.0
  0
LINE
  8
OBJ
 10
5.223312
 20
2.847046
 30
0.0
 11
5.223312
 21
2.817046
 31
0.0
  0
LINE
  8
OBJ
 10
4.983312
 20
2.847046
 30
0.0
 11
4.983312
 21
2.817046
 31
0.0
  0
ARC
  8
OBJ
 10
5.058312
 20
2.787046
 30
0.0
 40
0.03
 50
0.0
 51
90.0
  0
ARC
  8
OBJ
 10
5.148312
 20
2.787046
 30
0.0
 40
0.03
 50
90.0
 51
180.0
  0
LINE
  8
TEXT
 10
3.886382
 20
3.928977
 30
0.0
 11
3.886382
 21
4.168977
 31
0.0
  0
LINE
  8
TEXT
 10
3.766382
 20
4.048977
 30
0.0
 11
4.006382
 21
4.048977
 31
0.0
  0
LINE
  8
OBJ
 10
3.729382
 20
4.482577
 30
0.0
 11
4.043382
 21
4.482577
 31
0.0
  0
LINE
  8
OBJ
 10
3.729382
 20
4.482577
 30
0.0
 11
3.729382
 21
4.796577
 31
0.0
  0
LINE
  8
OBJ
 10
4.043382
 20
4.482577
 30
0.0
 11
4.043382
 21
4.796577
 31
0.0
  0
LINE
  8
OBJ
 10
3.729382
 20
4.796577
 30
0.0
 11
4.043382
 21
4.796577
 31
0.0
  0
LINE
  8
TEXT
 10
5.103312
 20
5.025908
 30
0.0
 11
5.103312
 21
4.905405
 31
0.0
  0
LINE
  8
OBJ
 10
8.571182
 20
3.978977
 30
0.0
 11
8.571182
 21
3.576977
 31
0.0
  0
LINE
  8
OBJ
 10
4.873312
 20
5.265908
 30
0.0
 11
4.988312
 21
5.066722
 31
0.0
  0
LINE
  8
OBJ
 10
4.988312
 20
5.465094
 30
0.0
 11
4.873312
 21
5.265908
 31
0.0
  0
CIRCLE
  8
OBJ
 10
5.103312
 20
5.265908
 30
0.0
 40
0.185975
  0
LINE
  8
TEXT
 10
4.863312
 20
5.265908
 30
0.0
 11
4.74281
 21
5.265908
 31
0.0
  0
LINE
  8
OBJ
 10
5.218312
 20
5.465094
 30
0.0
 11
4.988312
 21
5.465094
 31
0.0
  0
LINE
  8
OBJ
 10
5.333312
 20
5.265908
 30
0.0
 11
5.218312
 21
5.465094
 31
0.0
  0
LINE
  8
OBJ
 10
5.218312
 20
5.066722
 30
0.0
 11
5.333312
 21
5.265908
 31
0.0
  0
LINE
  8
OBJ
 10
4.988312
 20
5.066722
 30
0.0
 11
5.218312
 21
5.066722
 31
0.0
  0
LINE
  8
TEXT
 10
5.343312
 20
5.265908
 30
0.0
 11
5.463815
 21
5.265908
 31
0.0
  0
LINE
  8
TEXT
 10
5.103312
 20
5.505908
 30
0.0
 11
5.103312
 21
5.62641
 31
0.0
  0
ARC
  8
OBJ
 10
5.148312
 20
5.310908
 30
0.0
 40
0.03
 50
180.0
 51
270.0
  0
LINE
  8
OBJ
 10
5.118312
 20
5.385908
 30
0.0
 11
5.118312
 21
5.310908
 31
0.0
  0
LINE
  8
OBJ
 10
5.148312
 20
5.280908
 30
0.0
 11
5.223312
 21
5.280908
 31
0.0
  0
ARC
  8
OBJ
 10
5.058312
 20
5.310908
 30
0.0
 40
0.03
 50
270.0
 51
0.0
  0
LINE
  8
OBJ
 10
4.983312
 20
5.280908
 30
0.0
 11
5.058312
 21
5.280908
 31
0.0
  0
LINE
  8
OBJ
 10
5.088312
 20
5.310908
 30
0.0
 11
5.088312
 21
5.385908
 31
0.0
  0
ARC
  8
OBJ
 10
4.983312
 20
5.385908
 30
0.0
 40
0.105
 50
270.0
 51
360.0
  0
ARC
  8
OBJ
 10
5.223312
 20
5.385908
 30
0.0
 40
0.105
 50
180.0
 51
270.0
  0
LINE
  8
OBJ
 10
5.088312
 20
5.385908
 30
0.0
 11
5.118312
 21
5.385908
 31
0.0
  0
LINE
  8
OBJ
 10
5.223312
 20
5.250908
 30
0.0
 11
5.148312
 21
5.250908
 31
0.0
  0
LINE
  8
OBJ
 10
5.118312
 20
5.220908
 30
0.0
 11
5.118312
 21
5.145908
 31
0.0
  0
LINE
  8
OBJ
 10
5.058312
 20
5.250908
 30
0.0
 11
4.983312
 21
5.250908
 31
0.0
  0
LINE
  8
OBJ
 10
5.088312
 20
5.220908
 30
0.0
 11
5.088312
 21
5.145908
 31
0.0
  0
LINE
  8
OBJ
 10
5.088312
 20
5.145908
 30
0.0
 11
5.118312
 21
5.145908
 31
0.0
  0
CIRCLE
  8
OBJ
 10
5.103312
 20
5.265908
 30
0.0
 40
0.166146
  0
ARC
  8
OBJ
 10
4.983312
 20
5.145908
 30
0.0
 40
0.105
 50
0.0
 51
90.0
  0
ARC
  8
OBJ
 10
5.223312
 20
5.145908
 30
0.0
 40
0.105
 50
90.0
 51
180.0
  0
LINE
  8
OBJ
 10
5.223312
 20
5.280908
 30
0.0
 11
5.223312
 21
5.250908
 31
0.0
  0
LINE
  8
OBJ
 10
4.983312
 20
5.280908
 30
0.0
 11
4.983312
 21
5.250908
 31
0.0
  0
ARC
  8
OBJ
 10
5.058312
 20
5.220908
 30
0.0
 40
0.03
 50
0.0
 51
90.0
  0
ARC
  8
OBJ
 10
5.148312
 20
5.220908
 30
0.0
 40
0.03
 50
90.0
 51
180.0
  0
ARC
  8
OBJ
 10
8.090882
 20
6.763379
 30
0.0
 40
0.06
 50
100.213656
 51
180.0
  0
LINE
  8
OBJ
  6
CONTINUOUS
 10
7.830883
 20
6.738724
 30
0.0
 11
8.259137
 21
6.738724
 31
0.0
  0
ARC
  8
OBJ
 10
7.983264
 20
6.377619
 30
0.0
 40
0.361106
 50
40.184879
 51
139.815121
  0
LINE
  8
OBJ
 10
8.030882
 20
6.738724
 30
0.0
 11
8.030882
 21
6.763379
 31
0.0
  0
ARC
  8
OBJ
 10
7.755882
 20
6.341659
 30
0.0
 40
0.15
 50
259.69192
 51
0.0
  0
LINE
  8
OBJ
 10
7.707392
 20
6.610624
 30
0.0
 11
7.707392
 21
6.378724
 31
0.0
  0
LINE
  8
OBJ
 10
7.707392
 20
6.610624
 30
0.0
 11
7.830883
 21
6.738724
 31
0.0
  0
LINE
  8
OBJ
 10
7.905882
 20
6.341659
 30
0.0
 11
7.905882
 21
6.378724
 31
0.0
  0
LINE
  8
OBJ
 10
8.259137
 20
6.610624
 30
0.0
 11
8.259137
 21
6.378724
 31
0.0
  0
ARC
  8
OBJ
 10
10.403882
 20
5.048977
 30
0.0
 40
0.4
 50
90.0
 51
180.0
  0
ARC
  8
OBJ
 10
9.993882
 20
5.048977
 30
0.0
 40
0.4
 50
90.0
 51
180.0
  0
LINE
  8
OBJ
 10
11.573882
 20
5.448977
 30
0.0
 11
11.573882
 21
2.836977
 31
0.0
  0
LINE
  8
0
 10
11.573882
 20
5.448977
 30
0.0
 11
11.573882
 21
4.048977
 31
0.0
  0
LINE
  8
0
 10
11.785882
 20
5.448977
 30
0.0
 11
11.785882
 21
4.048977
 31
0.0
  0
LINE
  8
OBJ
 10
9.857382
 20
2.648977
 30
0.0
 11
11.573882
 21
2.648977
 31
0.0
  0
LINE
  8
OBJ
 10
10.003882
 20
3.048977
 30
0.0
 11
10.003882
 21
5.048977
 31
0.0
  0
LINE
  8
OBJ
 10
10.87284
 20
2.648977
 30
0.0
 11
9.857382
 21
2.42477
 31
0.0
  0
ARC
  8
OBJ
 10
10.403882
 20
3.048977
 30
0.0
 40
0.4
 50
180.0
 51
270.0
  0
ARC
  8
OBJ
 10
9.993882
 20
3.048977
 30
0.0
 40
0.4
 50
180.0
 51
270.0
  0
LINE
  8
OBJ
 10
9.593882
 20
3.22812
 30
0.0
 11
9.593882
 21
3.048977
 31
0.0
  0
ARC
  8
OBJ
 10
9.513882
 20
4.198977
 30
0.0
 40
0.08
 50
270.0
 51
0.0
  0
ARC
  8
OBJ
 10
9.923422
 20
4.198977
 30
0.0
 40
0.08
 50
270.0
 51
0.0
  0
LINE
  8
OBJ
 10
9.234408
 20
3.736977
 30
0.0
 11
9.049656
 21
3.736977
 31
0.0
  0
LINE
  8
OBJ
 10
9.326784
 20
3.576977
 30
0.0
 11
9.234408
 21
3.736977
 31
0.0
  0
LINE
  8
OBJ
 10
9.234408
 20
3.416977
 30
0.0
 11
9.326784
 21
3.576977
 31
0.0
  0
LINE
  8
OBJ
 10
9.049656
 20
3.416977
 30
0.0
 11
9.234408
 21
3.416977
 31
0.0
  0
LINE
  8
OBJ
 10
8.95728
 20
3.576977
 30
0.0
 11
9.049656
 21
3.416977
 31
0.0
  0
LINE
  8
OBJ
 10
9.049656
 20
3.736977
 30
0.0
 11
8.95728
 21
3.576977
 31
0.0
  0
LINE
  8
OBJ
 10
9.712882
 20
3.978977
 30
0.0
 11
9.712882
 21
3.576977
 31
0.0
  0
ARC
  8
OBJ
 10
9.923422
 20
3.898977
 30
0.0
 40
0.08
 50
0.0
 51
90.0
  0
LINE
  8
OBJ
 10
9.593882
 20
4.198977
 30
0.0
 11
9.593882
 21
5.048977
 31
0.0
  0
LINE
  8
0
 10
11.573882
 20
2.468977
 30
0.0
 11
11.573882
 21
4.048977
 31
0.0
  0
LINE
  8
0
 10
11.785882
 20
2.648977
 30
0.0
 11
11.785882
 21
4.048977
 31
0.0
  0
LINE
  8
0
 10
11.573882
 20
2.468977
 30
0.0
 11
11.573882
 21
4.048977
 31
0.0
  0
LINE
  8
0
 10
13.273882
 20
2.468977
 30
0.0
 11
11.573882
 21
2.468977
 31
0.0
  0
LINE
  8
TEXT
  6
CENTER4
 10
12.423882
 20
2.962503
 30
0.0
 11
12.423882
 21
1.91817
 31
0.0
  0
LINE
  8
0
 10
11.785882
 20
2.648977
 30
0.0
 11
11.573882
 21
2.648977
 31
0.0
  0
LINE
  8
0
 10
13.273882
 20
2.468977
 30
0.0
 11
13.273882
 21
2.809977
 31
0.0
  0
LINE
  8
OBJ
 10
13.285882
 20
4.777977
 30
0.0
 11
13.285882
 21
3.319977
 31
0.0
  0
LINE
  8
OBJ
 10
9.905382
 20
5.448977
 30
0.0
 11
11.573882
 21
5.448977
 31
0.0
  0
ARC
  8
OBJ
 10
9.530882
 20
6.763379
 30
0.0
 40
0.06
 50
0.0
 51
79.786344
  0
ARC
  8
OBJ
 10
9.865882
 20
5.942657
 30
0.0
 40
0.15
 50
180.0
 51
256.005277
  0
LINE
  8
OBJ
  6
CONTINUOUS
 10
9.362627
 20
6.738724
 30
0.0
 11
9.79088
 21
6.738724
 31
0.0
  0
ARC
  8
OBJ
 10
9.638499
 20
6.377619
 30
0.0
 40
0.361106
 50
40.184879
 51
139.815121
  0
LINE
  8
OBJ
 10
9.362627
 20
6.610624
 30
0.0
 11
9.362627
 21
6.378724
 31
0.0
  0
LINE
  8
OBJ
 10
9.715882
 20
6.378724
 30
0.0
 11
9.715882
 21
5.942657
 31
0.0
  0
LINE
  8
OBJ
 10
9.590882
 20
6.738724
 30
0.0
 11
9.590882
 21
6.763379
 31
0.0
  0
LINE
  8
OBJ
 10
9.914372
 20
6.610624
 30
0.0
 11
9.914372
 21
6.378724
 31
0.0
  0
LINE
  8
OBJ
 10
9.914372
 20
6.610624
 30
0.0
 11
9.79088
 21
6.738724
 31
0.0
  0
LINE
  8
0
 10
11.785882
 20
5.448977
 30
0.0
 11
11.573882
 21
5.448977
 31
0.0
  0
LINE
  8
0
 10
16.577484
 20
4.761871
 30
0.0
 11
16.499703
 21
5.392714
 31
0.0
  0
LINE
  8
0
 10
14.384882
 20
5.320378
 30
0.0
 11
14.384882
 21
4.745576
 31
0.0
  0
LINE
  8
0
 10
14.462882
 20
5.320378
 30
0.0
 11
14.462882
 21
4.745576
 31
0.0
  0
LINE
  8
0
 10
14.540882
 20
5.380477
 30
0.0
 11
14.540882
 21
4.048977
 31
0.0
  0
ARC
  8
0
 10
15.395814
 20
5.034219
 30
0.0
 40
0.748036
 50
341.178025
 51
18.821975
  0
LINE
  8
0
 10
15.851882
 20
5.320378
 30
0.0
 11
15.851882
 21
4.745576
 31
0.0
  0
ARC
  8
0
 10
15.502063
 20
5.032977
 30
0.0
 40
0.601786
 50
342.412
 51
17.588
  0
LINE
  8
0
 10
16.10385
 20
5.30574
 30
0.0
 11
16.10385
 21
4.760214
 31
0.0
  0
LINE
  8
0
 10
15.875504
 20
5.396661
 30
0.0
 11
15.875504
 21
4.669292
 31
0.0
  0
LINE
  8
0
 10
15.851882
 20
5.380477
 30
0.0
 11
15.851882
 21
4.048977
 31
0.0
  0
LINE
  8
TEXT
  6
CENTER4
 10
16.365158
 20
4.048977
 30
0.0
 11
17.384515
 21
4.048977
 31
0.0
  0
LINE
  8
0
 10
16.796382
 20
3.331477
 30
0.0
 11
16.103728
 21
3.331477
 31
0.0
  0
LINE
  8
0
 10
16.796382
 20
4.766477
 30
0.0
 11
16.103728
 21
4.766477
 31
0.0
  0
ARC
  8
0
 10
15.942853
 20
3.33774
 30
0.0
 40
0.160996
 50
325.616
 51
34.384
  0
LINE
  8
0
 10
15.875504
 20
2.701293
 30
0.0
 11
15.875504
 21
3.428662
 31
0.0
  0
LINE
  8
0
 10
16.10385
 20
2.792214
 30
0.0
 11
16.10385
 21
3.33774
 31
0.0
  0
LINE
  8
0
 10
15.851882
 20
2.777576
 30
0.0
 11
15.851882
 21
3.352378
 31
0.0
  0
LINE
  8
0
 10
15.851882
 20
2.717477
 30
0.0
 11
15.851882
 21
4.048977
 31
0.0
  0
LINE
  8
0
 10
14.462882
 20
2.777576
 30
0.0
 11
14.462882
 21
3.352378
 31
0.0
  0
LINE
  8
0
 10
14.384882
 20
2.777576
 30
0.0
 11
14.384882
 21
3.352378
 31
0.0
  0
LINE
  8
0
 10
14.540882
 20
2.717477
 30
0.0
 11
14.540882
 21
4.048977
 31
0.0
  0
LINE
  8
0
 10
15.751882
 20
2.617477
 30
0.0
 11
14.640882
 21
2.617477
 31
0.0
  0
ARC
  8
0
 10
14.640882
 20
2.717477
 30
0.0
 40
0.1
 50
180.0
 51
270.0
  0
LINE
  8
0
 10
14.540882
 20
2.777576
 30
0.0
 11
14.384882
 21
2.777576
 31
0.0
  0
ARC
  8
0
 10
15.502063
 20
3.064977
 30
0.0
 40
0.601786
 50
342.412
 51
17.588
  0
ARC
  8
0
 10
15.942853
 20
2.792214
 30
0.0
 40
0.160996
 50
325.616
 51
34.384
  0
ARC
  8
0
 10
15.751882
 20
2.717477
 30
0.0
 40
0.1
 50
270.0
 51
360.0
  0
LINE
  8
0
 10
15.875504
 20
2.777576
 30
0.0
 11
15.851882
 21
2.777576
 31
0.0
  0
LINE
  8
0
 10
16.075719
 20
2.701293
 30
0.0
 11
15.875504
 21
2.701293
 31
0.0
  0
LINE
  8
0
 10
16.075719
 20
2.883135
 30
0.0
 11
15.875504
 21
2.883135
 31
0.0
  0
LINE
  8
0
 10
16.075719
 20
3.246819
 30
0.0
 11
15.875504
 21
3.246819
 31
0.0
  0
ARC
  8
0
 10
15.395814
 20
3.063735
 30
0.0
 40
0.748036
 50
341.178025
 51
18.821975
  0
LINE
  8
0
 10
15.851882
 20
3.64067
 30
0.0
 11
14.540882
 21
3.64067
 31
0.0
  0
LINE
  8
0
 10
15.851882
 20
4.457284
 30
0.0
 11
14.540882
 21
4.457284
 31
0.0
  0
LINE
  8
0
 10
14.540882
 20
3.352378
 30
0.0
 11
14.384882
 21
3.352378
 31
0.0
  0
LINE
  8
0
 10
14.540882
 20
4.745576
 30
0.0
 11
14.384882
 21
4.745576
 31
0.0
  0
LINE
  8
0
 10
15.875504
 20
3.352378
 30
0.0
 11
15.851882
 21
3.352378
 31
0.0
  0
LINE
  8
0
 10
16.075719
 20
3.428662
 30
0.0
 11
15.875504
 21
3.428662
 31
0.0
  0
ARC
  8
0
 10
15.942853
 20
4.760214
 30
0.0
 40
0.160996
 50
325.616
 51
34.384
  0
LINE
  8
0
 10
15.875504
 20
4.745576
 30
0.0
 11
15.851882
 21
4.745576
 31
0.0
  0
LINE
  8
0
 10
16.075719
 20
4.669292
 30
0.0
 11
15.875504
 21
4.669292
 31
0.0
  0
LINE
  8
0
 10
16.075719
 20
4.851135
 30
0.0
 11
15.875504
 21
4.851135
 31
0.0
  0
LINE
  8
0
 10
16.796382
 20
4.766477
 30
0.0
 11
16.796382
 21
4.048977
 31
0.0
  0
LINE
  8
0
 10
16.863882
 20
4.698977
 30
0.0
 11
16.863882
 21
4.048977
 31
0.0
  0
LINE
  8
0
 10
16.863882
 20
3.398977
 30
0.0
 11
16.796382
 21
3.331477
 31
0.0
  0
LINE
  8
0
 10
16.796382
 20
3.331477
 30
0.0
 11
16.796382
 21
4.048977
 31
0.0
  0
LINE
  8
0
 10
16.863882
 20
3.398977
 30
0.0
 11
16.863882
 21
4.048977
 31
0.0
  0
LINE
  8
0
 10
16.863882
 20
4.698977
 30
0.0
 11
16.796382
 21
4.766477
 31
0.0
  0
LINE
  8
0
 10
16.400454
 20
5.480477
 30
0.0
 11
14.640882
 21
5.480477
 31
0.0
  0
ARC
  8
0
 10
14.640882
 20
5.380477
 30
0.0
 40
0.1
 50
90.0
 51
180.0
  0
LINE
  8
0
 10
14.540882
 20
5.320378
 30
0.0
 11
14.384882
 21
5.320378
 31
0.0
  0
LINE
  8
0
 10
16.400454
 20
5.480477
 30
0.0
 11
15.823882
 21
5.480477
 31
0.0
  0
ARC
  8
0
 10
15.942853
 20
5.30574
 30
0.0
 40
0.160996
 50
325.616
 51
34.384
  0
LINE
  8
TEXT
  6
CENTER4
 10
15.823882
 20
5.140673
 30
0.0
 11
15.823882
 21
5.861765
 31
0.0
  0
ARC
  8
0
 10
15.751882
 20
5.380477
 30
0.0
 40
0.1
 50
0.0
 51
90.0
  0
LINE
  8
0
 10
15.875504
 20
5.320378
 30
0.0
 11
15.851882
 21
5.320378
 31
0.0
  0
LINE
  8
0
 10
16.075719
 20
5.214819
 30
0.0
 11
15.875504
 21
5.214819
 31
0.0
  0
LINE
  8
0
 10
16.075719
 20
5.396661
 30
0.0
 11
15.875504
 21
5.396661
 31
0.0
  0
ARC
  8
0
 10
16.400454
 20
5.380477
 30
0.0
 40
0.1
 50
7.028969
 51
90.0
  0
ARC
  8
OBJ
 10
23.796237
 20
5.068628
 30
0.0
 40
0.068939
 50
109.954678
 51
250.045322
  0
LINE
  8
OBJ
 10
23.727298
 20
5.033846
 30
0.0
 11
23.727298
 21
5.133428
 31
0.0
  0
LINE
  8
OBJ
 10
24.259498
 20
4.048977
 30
0.0
 11
24.259498
 21
6.043977
 31
0.0
  0
LINE
  8
OBJ
 10
24.259498
 20
2.053977
 30
0.0
 11
24.259498
 21
6.043977
 31
0.0
  0
LINE
  8
OBJ
 10
24.022498
 20
2.113977
 30
0.0
 11
24.022498
 21
5.983977
 31
0.0
  0
LINE
  8
OBJ
 10
24.022498
 20
5.507108
 30
0.0
 11
24.022498
 21
5.024708
 31
0.0
  0
LINE
  8
OBJ
 10
23.964898
 20
5.003828
 30
0.0
 11
23.964898
 21
5.527988
 31
0.0
  0
LINE
  8
OBJ
 10
23.537498
 20
3.555977
 30
0.0
 11
21.927498
 21
3.555977
 31
0.0
  0
LINE
  8
OBJ
 10
23.537498
 20
4.541977
 30
0.0
 11
21.927498
 21
4.541977
 31
0.0
  0
LINE
  8
OBJ
 10
21.897498
 20
3.585977
 30
0.0
 11
21.897498
 21
4.511977
 31
0.0
  0
LINE
  8
OBJ
 10
21.927498
 20
4.541977
 30
0.0
 11
21.927498
 21
3.555977
 31
0.0
  0
LINE
  8
OBJ
 10
21.897498
 20
3.585977
 30
0.0
 11
21.927498
 21
3.555977
 31
0.0
  0
LINE
  8
OBJ
 10
21.927498
 20
4.541977
 30
0.0
 11
21.897498
 21
4.511977
 31
0.0
  0
LINE
  8
OBJ
 10
23.797498
 20
3.094126
 30
0.0
 11
23.797498
 21
5.003828
 31
0.0
  0
LINE
  8
OBJ
 10
24.259498
 20
4.048977
 30
0.0
 11
24.259498
 21
2.053977
 31
0.0
  0
LINE
  8
OBJ
 10
24.259498
 20
2.053977
 30
0.0
 11
24.082498
 21
2.053977
 31
0.0
  0
LINE
  8
OBJ
 10
24.568549
 20
2.053977
 30
0.0
 11
24.082498
 21
2.053977
 31
0.0
  0
ARC
  8
OBJ
 10
24.082498
 20
2.113977
 30
0.0
 40
0.06
 50
180.0
 51
270.0
  0
LINE
  8
OBJ
 10
24.022498
 20
2.890351
 30
0.0
 11
23.964898
 21
2.947951
 31
0.0
  0
LINE
  8
OBJ
  6
CENTER2
 10
24.022498
 20
3.073246
 30
0.0
 11
23.964898
 21
3.073246
 31
0.0
  0
LINE
  8
OBJ
  6
CENTER2
 10
24.022498
 20
2.590846
 30
0.0
 11
23.964898
 21
2.590846
 31
0.0
  0
LINE
  8
OBJ
 10
23.727298
 20
3.064108
 30
0.0
 11
23.727298
 21
2.964526
 31
0.0
  0
LINE
  8
OBJ
 10
23.727298
 20
3.064108
 30
0.0
 11
23.755274
 21
3.084775
 31
0.0
  0
ARC
  8
OBJ
 10
23.796237
 20
3.029326
 30
0.0
 40
0.068939
 50
109.954678
 51
250.045322
  0
LINE
  8
OBJ
  6
CONTINUOUS
 10
23.964898
 20
2.964526
 30
0.0
 11
23.77271
 21
2.964526
 31
0.0
  0
LINE
  8
OBJ
  6
CONTINUOUS
 10
23.964898
 20
3.094126
 30
0.0
 11
23.77271
 21
3.094126
 31
0.0
  0
LINE
  8
OBJ
 10
23.727298
 20
2.599984
 30
0.0
 11
23.755274
 21
2.579317
 31
0.0
  0
ARC
  8
OBJ
 10
23.796237
 20
2.634766
 30
0.0
 40
0.068939
 50
109.954678
 51
250.045322
  0
LINE
  8
OBJ
 10
23.727298
 20
2.699566
 30
0.0
 11
23.727298
 21
2.599984
 31
0.0
  0
LINE
  8
OBJ
  6
CONTINUOUS
 10
23.964898
 20
2.569966
 30
0.0
 11
23.77271
 21
2.569966
 31
0.0
  0
LINE
  8
OBJ
  6
CONTINUOUS
 10
23.964898
 20
2.699566
 30
0.0
 11
23.77271
 21
2.699566
 31
0.0
  0
ARC
  8
OBJ
 10
23.943247
 20
2.832046
 30
0.0
 40
0.215949
 50
142.158498
 51
217.841502
  0
LINE
  8
OBJ
 10
23.727298
 20
2.964526
 30
0.0
 11
23.727298
 21
2.699566
 31
0.0
  0
LINE
  8
OBJ
 10
23.964898
 20
3.094126
 30
0.0
 11
23.964898
 21
2.569966
 31
0.0
  0
LINE
  8
OBJ
 10
24.022498
 20
2.590846
 30
0.0
 11
24.022498
 21
3.073246
 31
0.0
  0
LINE
  8
OBJ
 10
23.567498
 20
4.638977
 30
0.0
 11
23.567498
 21
3.458977
 31
0.0
  0
LINE
  8
OBJ
 10
23.537498
 20
3.488977
 30
0.0
 11
23.537498
 21
4.608977
 31
0.0
  0
LINE
  8
OBJ
 10
23.567498
 20
3.458977
 30
0.0
 11
23.537498
 21
3.488977
 31
0.0
  0
LINE
  8
OBJ
 10
23.797498
 20
3.458977
 30
0.0
 11
23.567498
 21
3.458977
 31
0.0
  0
LINE
  8
OBJ
  6
CENTER2
 10
24.022498
 20
5.024708
 30
0.0
 11
23.964898
 21
5.024708
 31
0.0
  0
LINE
  8
OBJ
 10
23.727298
 20
5.033846
 30
0.0
 11
23.755274
 21
5.013179
 31
0.0
  0
LINE
  8
OBJ
  6
CONTINUOUS
 10
23.964898
 20
5.003828
 30
0.0
 11
23.77271
 21
5.003828
 31
0.0
  0
LINE
  8
OBJ
 10
23.567498
 20
4.638977
 30
0.0
 11
23.537498
 21
4.608977
 31
0.0
  0
LINE
  8
OBJ
 10
23.797498
 20
4.638977
 30
0.0
 11
23.567498
 21
4.638977
 31
0.0
  0
LINE
  8
OBJ
  6
CENTER2
 10
24.022498
 20
5.507108
 30
0.0
 11
23.964898
 21
5.507108
 31
0.0
  0
LINE
  8
OBJ
 10
24.022498
 20
5.207604
 30
0.0
 11
23.964898
 21
5.150004
 31
0.0
  0
ARC
  8
OBJ
 10
23.796237
 20
5.463188
 30
0.0
 40
0.068939
 50
109.954678
 51
250.045322
  0
LINE
  8
OBJ
 10
23.727298
 20
5.398388
 30
0.0
 11
23.727298
 21
5.49797
 31
0.0
  0
LINE
  8
OBJ
 10
23.727298
 20
5.49797
 30
0.0
 11
23.755274
 21
5.518637
 31
0.0
  0
LINE
  8
OBJ
  6
CONTINUOUS
 10
23.964898
 20
5.398388
 30
0.0
 11
23.77271
 21
5.398388
 31
0.0
  0
LINE
  8
OBJ
  6
CONTINUOUS
 10
23.964898
 20
5.527988
 30
0.0
 11
23.77271
 21
5.527988
 31
0.0
  0
LINE
  8
OBJ
  6
CONTINUOUS
 10
23.964898
 20
5.133428
 30
0.0
 11
23.77271
 21
5.133428
 31
0.0
  0
ARC
  8
OBJ
 10
23.943247
 20
5.265908
 30
0.0
 40
0.215949
 50
142.158498
 51
217.841502
  0
LINE
  8
OBJ
 10
23.727298
 20
5.133428
 30
0.0
 11
23.727298
 21
5.398388
 31
0.0
  0
LINE
  8
OBJ
 10
24.259498
 20
6.043977
 30
0.0
 11
24.082498
 21
6.043977
 31
0.0
  0
ARC
  8
OBJ
 10
24.082498
 20
5.983977
 30
0.0
 40
0.06
 50
90.0
 51
180.0
  0
LINE
  8
OBJ
 10
24.474498
 20
6.043977
 30
0.0
 11
24.474498
 21
6.747977
 31
0.0
  0
LINE
  8
OBJ
 10
24.568549
 20
6.043977
 30
0.0
 11
24.259498
 21
6.043977
 31
0.0
  0
LINE
  8
OBJ
 10
14.540882
 20
16.83795
 30
0.0
 11
13.293882
 21
16.83795
 31
0.0
  0
LINE
  8
OBJ
 10
14.540882
 20
15.10835
 30
0.0
 11
13.293882
 21
15.10835
 31
0.0
  0
LINE
  8
OBJ
 10
13.293882
 20
15.26315
 30
0.0
 11
14.540882
 21
15.26315
 31
0.0
  0
LINE
  8
OBJ
 10
13.293882
 20
16.68315
 30
0.0
 11
14.540882
 21
16.68315
 31
0.0
  0
LINE
  8
0
 10
14.384882
 20
18.04535
 30
0.0
 11
11.785882
 21
18.04535
 31
0.0
  0
LINE
  8
0
 10
14.384882
 20
18.62535
 30
0.0
 11
11.785882
 21
18.62535
 31
0.0
  0
LINE
  8
0
 10
14.384882
 20
18.19035
 30
0.0
 11
11.785882
 21
18.19035
 31
0.0
  0
LINE
  8
0
 10
14.384882
 20
18.48035
 30
0.0
 11
11.785882
 21
18.48035
 31
0.0
  0
LINE
  8
0
 10
14.384882
 20
13.46595
 30
0.0
 11
11.785882
 21
13.46595
 31
0.0
  0
LINE
  8
0
 10
14.384882
 20
13.75595
 30
0.0
 11
11.785882
 21
13.75595
 31
0.0
  0
LINE
  8
0
 10
14.384882
 20
13.32095
 30
0.0
 11
11.785882
 21
13.32095
 31
0.0
  0
LINE
  8
0
 10
14.384882
 20
13.90095
 30
0.0
 11
11.785882
 21
13.90095
 31
0.0
  0
TEXT
  8
0
 10
7.651847
 20
9.245074
 30
0.0
 40
1.0
  1
623, 820, 1010,1020
  7
ROMAND
 11
7.651847
 21
9.745074
 31
0.0
 73
     2
  0
LINE
  8
OBJ
 10
9.373382
 20
14.998871
 30
0.0
 11
9.935882
 21
15.97315
 31
0.0
  0
LINE
  8
OBJ
 10
7.685882
 20
15.97315
 30
0.0
 11
8.248382
 21
14.998871
 31
0.0
  0
CIRCLE
  8
OBJ
 10
8.810882
 20
15.97315
 30
0.0
 40
0.864576
  0
CIRCLE
  8
OBJ
  6
DASHED2
 10
12.423882
 20
15.97315
 30
0.0
 40
0.71
  0
CIRCLE
  8
OBJ
  6
DASHED2
 10
12.423882
 20
15.97315
 30
0.0
 40
0.65
  0
ARC
  8
OBJ
 10
14.224923
 20
15.597893
 30
0.0
 40
1.251534
 50
181.607512
 51
197.189772
  0
LINE
  8
OBJ
 10
12.973882
 20
14.738498
 30
0.0
 11
12.973882
 21
15.633002
 31
0.0
  0
CIRCLE
  8
OBJ
  6
DASHED2
 10
12.423882
 20
15.97315
 30
0.0
 40
0.85
  0
LINE
  8
OBJ
 10
13.293882
 20
13.90095
 30
0.0
 11
13.293882
 21
18.04535
 31
0.0
  0
LINE
  8
OBJ
 10
11.785882
 20
13.14115
 30
0.0
 11
11.785882
 21
18.80515
 31
0.0
  0
LINE
  8
OBJ
 10
11.573882
 20
13.14115
 30
0.0
 11
11.573882
 21
18.80515
 31
0.0
  0
LINE
  8
OBJ
 10
9.522032
 20
12.97615
 30
0.0
 11
8.762032
 21
12.97615
 31
0.0
  0
LINE
  8
OBJ
 10
11.573882
 20
13.14115
 30
0.0
 11
5.981382
 21
13.14115
 31
0.0
  0
LINE
  8
OBJ
 10
8.248382
 20
14.998871
 30
0.0
 11
9.373382
 21
14.998871
 31
0.0
  0
LINE
  8
OBJ
 10
4.476382
 20
12.15815
 30
0.0
 11
4.476382
 21
11.92815
 31
0.0
  0
LINE
  8
OBJ
 10
4.379382
 20
11.89815
 30
0.0
 11
4.379382
 21
10.28815
 31
0.0
  0
LINE
  8
OBJ
 10
3.750382
 20
11.84815
 30
0.0
 11
3.750382
 21
10.25815
 31
0.0
  0
LINE
  8
OBJ
 10
4.022382
 20
11.84815
 30
0.0
 11
4.022382
 21
10.25815
 31
0.0
  0
LINE
  8
OBJ
 10
4.022382
 20
10.28815
 30
0.0
 11
4.379382
 21
10.28815
 31
0.0
  0
LINE
  8
OBJ
 10
4.349382
 20
10.25815
 30
0.0
 11
4.379382
 21
10.28815
 31
0.0
  0
LINE
  8
OBJ
 10
4.022382
 20
11.84815
 30
0.0
 11
3.750382
 21
11.84815
 31
0.0
  0
LINE
  8
OBJ
 10
4.476382
 20
11.92815
 30
0.0
 11
4.446382
 21
11.89815
 31
0.0
  0
LINE
  8
OBJ
 10
4.871251
 20
12.08795
 30
0.0
 11
4.970832
 21
12.08795
 31
0.0
  0
ARC
  8
OBJ
 10
4.906032
 20
12.156889
 30
0.0
 40
0.068939
 50
199.954678
 51
340.045322
  0
LINE
  8
OBJ
 10
5.344512
 20
12.38315
 30
0.0
 11
4.862112
 21
12.38315
 31
0.0
  0
LINE
  8
OBJ
 10
4.841232
 20
12.32555
 30
0.0
 11
5.365392
 21
12.32555
 31
0.0
  0
LINE
  8
OBJ
 10
4.871251
 20
12.08795
 30
0.0
 11
4.850583
 21
12.115926
 31
0.0
  0
LINE
  8
OBJ
  6
CENTER2
 10
4.862112
 20
12.38315
 30
0.0
 11
4.862112
 21
12.32555
 31
0.0
  0
LINE
  8
OBJ
  6
CONTINUOUS
 10
4.841232
 20
12.32555
 30
0.0
 11
4.841232
 21
12.133362
 31
0.0
  0
LINE
  8
OBJ
 10
5.881382
 20
13.08723
 30
0.0
 11
5.881382
 21
12.62015
 31
0.0
  0
LINE
  8
OBJ
 10
5.235792
 20
12.08795
 30
0.0
 11
5.335374
 21
12.08795
 31
0.0
  0
LINE
  8
OBJ
 10
5.335374
 20
12.08795
 30
0.0
 11
5.356041
 21
12.115926
 31
0.0
  0
ARC
  8
OBJ
 10
5.300592
 20
12.156889
 30
0.0
 40
0.068939
 50
199.954678
 51
340.045322
  0
LINE
  8
OBJ
  6
CENTER2
 10
5.344512
 20
12.38315
 30
0.0
 11
5.344512
 21
12.32555
 31
0.0
  0
LINE
  8
OBJ
  6
CONTINUOUS
 10
5.235792
 20
12.32555
 30
0.0
 11
5.235792
 21
12.133362
 31
0.0
  0
LINE
  8
OBJ
  6
CONTINUOUS
 10
5.365392
 20
12.32555
 30
0.0
 11
5.365392
 21
12.133362
 31
0.0
  0
LINE
  8
OBJ
 10
5.045008
 20
12.38315
 30
0.0
 11
4.987408
 21
12.32555
 31
0.0
  0
LINE
  8
OBJ
  6
CONTINUOUS
 10
4.970832
 20
12.32555
 30
0.0
 11
4.970832
 21
12.133362
 31
0.0
  0
LINE
  8
OBJ
 10
4.970832
 20
12.08795
 30
0.0
 11
5.235792
 21
12.08795
 31
0.0
  0
ARC
  8
OBJ
 10
5.103312
 20
12.303899
 30
0.0
 40
0.215949
 50
232.158498
 51
307.841502
  0
LINE
  8
OBJ
 10
5.881382
 20
12.62015
 30
0.0
 11
5.881382
 21
12.44315
 31
0.0
  0
ARC
  8
OBJ
 10
5.821382
 20
12.44315
 30
0.0
 40
0.06
 50
270.0
 51
0.0
  0
ARC
  8
OBJ
 10
5.981382
 20
13.04115
 30
0.0
 40
0.1
 50
90.0
 51
180.0
  0
ARC
  8
OBJ
 10
5.981382
 20
13.08723
 30
0.0
 40
0.1
 50
90.0
 51
180.0
  0
LINE
  8
OBJ
 10
8.762032
 20
12.97615
 30
0.0
 11
8.762032
 21
13.14115
 31
0.0
  0
ARC
  8
OBJ
 10
10.853268
 20
13.904888
 30
0.0
 40
0.25
 50
275.469752
 51
324.65378
  0
LINE
  8
TEXT
  6
CENTER4
 10
9.142032
 20
12.612305
 30
0.0
 11
9.142032
 21
13.602362
 31
0.0
  0
ARC
  8
OBJ
 10
9.503816
 20
13.273382
 30
0.0
 40
0.25
 50
46.285724
 51
95.469752
  0
LINE
  8
OBJ
 10
9.522032
 20
12.97615
 30
0.0
 11
9.522032
 21
13.14115
 31
0.0
  0
LINE
  8
OBJ
 10
9.676581
 20
13.454081
 30
0.0
 11
9.931398
 21
13.210451
 31
0.0
  0
ARC
  8
OBJ
 10
10.104164
 20
13.39115
 30
0.0
 40
0.25
 50
226.285724
 51
270.0
  0
CIRCLE
  8
OBJ
 10
9.396382
 20
14.00465
 30
0.0
 40
0.197
  0
LINE
  8
TEXT
 10
9.396382
 20
13.88465
 30
0.0
 11
9.396382
 21
14.12465
 31
0.0
  0
LINE
  8
TEXT
 10
9.276382
 20
14.00465
 30
0.0
 11
9.516382
 21
14.00465
 31
0.0
  0
LINE
  8
OBJ
 10
11.573882
 20
13.14115
 30
0.0
 11
11.785882
 21
13.14115
 31
0.0
  0
ARC
  8
OBJ
 10
13.086614
 20
15.24575
 30
0.0
 40
0.06
 50
197.189772
 51
270.0
  0
ARC
  8
OBJ
 10
14.224923
 20
14.773607
 30
0.0
 40
1.251534
 50
162.810228
 51
178.392488
  0
ARC
  8
OBJ
 10
13.086614
 20
15.12575
 30
0.0
 40
0.06
 50
90.0
 51
162.810228
  0
ARC
  8
OBJ
 10
13.093882
 20
14.738498
 30
0.0
 40
0.12
 50
180.0
 51
270.0
  0
LINE
  8
OBJ
 10
13.293882
 20
15.18575
 30
0.0
 11
13.086614
 21
15.18575
 31
0.0
  0
LINE
  8
OBJ
 10
11.573882
 20
18.80515
 30
0.0
 11
5.981382
 21
18.80515
 31
0.0
  0
LINE
  8
OBJ
 10
9.373382
 20
16.947429
 30
0.0
 11
8.248382
 21
16.947429
 31
0.0
  0
CIRCLE
  8
OBJ
 10
8.810882
 20
15.97315
 30
0.0
 40
0.055
  0
LINE
  8
OBJ
 10
5.881382
 20
18.859069
 30
0.0
 11
5.881382
 21
19.32615
 31
0.0
  0
ARC
  8
OBJ
 10
5.981382
 20
18.859069
 30
0.0
 40
0.1
 50
180.0
 51
270.0
  0
ARC
  8
OBJ
 10
5.981382
 20
18.90515
 30
0.0
 40
0.1
 50
180.0
 51
270.0
  0
LINE
  8
OBJ
 10
8.248382
 20
16.947429
 30
0.0
 11
7.685882
 21
15.97315
 31
0.0
  0
LINE
  8
OBJ
 10
4.022382
 20
20.09815
 30
0.0
 11
4.022382
 21
21.68815
 31
0.0
  0
LINE
  8
OBJ
 10
3.750382
 20
20.09815
 30
0.0
 11
3.750382
 21
21.68815
 31
0.0
  0
LINE
  8
OBJ
 10
4.379382
 20
20.04815
 30
0.0
 11
4.379382
 21
21.65815
 31
0.0
  0
ARC
  8
OBJ
 10
4.906032
 20
19.789411
 30
0.0
 40
0.068939
 50
19.954678
 51
160.045322
  0
LINE
  8
OBJ
 10
4.871251
 20
19.85835
 30
0.0
 11
4.970832
 21
19.85835
 31
0.0
  0
LINE
  8
OBJ
 10
4.841232
 20
19.62075
 30
0.0
 11
5.365392
 21
19.62075
 31
0.0
  0
LINE
  8
OBJ
 10
5.344512
 20
19.56315
 30
0.0
 11
4.862112
 21
19.56315
 31
0.0
  0
LINE
  8
OBJ
 10
4.476382
 20
19.78815
 30
0.0
 11
4.476382
 21
20.01815
 31
0.0
  0
LINE
  8
OBJ
  6
CONTINUOUS
 10
4.841232
 20
19.62075
 30
0.0
 11
4.841232
 21
19.812938
 31
0.0
  0
LINE
  8
OBJ
  6
CENTER2
 10
4.862112
 20
19.56315
 30
0.0
 11
4.862112
 21
19.62075
 31
0.0
  0
LINE
  8
OBJ
 10
4.022382
 20
20.09815
 30
0.0
 11
3.750382
 21
20.09815
 31
0.0
  0
LINE
  8
OBJ
 10
4.476382
 20
20.01815
 30
0.0
 11
4.446382
 21
20.04815
 31
0.0
  0
LINE
  8
OBJ
 10
4.871251
 20
19.85835
 30
0.0
 11
4.850583
 21
19.830374
 31
0.0
  0
LINE
  8
OBJ
  6
CONTINUOUS
 10
5.365392
 20
19.62075
 30
0.0
 11
5.365392
 21
19.812938
 31
0.0
  0
LINE
  8
OBJ
  6
CONTINUOUS
 10
5.235792
 20
19.62075
 30
0.0
 11
5.235792
 21
19.812938
 31
0.0
  0
LINE
  8
OBJ
  6
CONTINUOUS
 10
4.970832
 20
19.62075
 30
0.0
 11
4.970832
 21
19.812938
 31
0.0
  0
LINE
  8
OBJ
  6
CENTER2
 10
5.344512
 20
19.56315
 30
0.0
 11
5.344512
 21
19.62075
 31
0.0
  0
LINE
  8
OBJ
 10
5.045008
 20
19.56315
 30
0.0
 11
4.987408
 21
19.62075
 31
0.0
  0
ARC
  8
OBJ
 10
5.821382
 20
19.50315
 30
0.0
 40
0.06
 50
0.0
 51
90.0
  0
LINE
  8
OBJ
 10
5.881382
 20
19.32615
 30
0.0
 11
5.881382
 21
19.50315
 31
0.0
  0
ARC
  8
OBJ
 10
5.300592
 20
19.789411
 30
0.0
 40
0.068939
 50
19.954678
 51
160.045322
  0
LINE
  8
OBJ
 10
5.335374
 20
19.85835
 30
0.0
 11
5.356041
 21
19.830374
 31
0.0
  0
LINE
  8
OBJ
 10
5.235792
 20
19.85835
 30
0.0
 11
5.335374
 21
19.85835
 31
0.0
  0
ARC
  8
OBJ
 10
5.103312
 20
19.642401
 30
0.0
 40
0.215949
 50
52.158498
 51
127.841502
  0
LINE
  8
OBJ
 10
4.970832
 20
19.85835
 30
0.0
 11
5.235792
 21
19.85835
 31
0.0
  0
LINE
  8
OBJ
 10
4.022382
 20
21.65815
 30
0.0
 11
4.379382
 21
21.65815
 31
0.0
  0
LINE
  8
OBJ
 10
4.349382
 20
21.68815
 30
0.0
 11
4.379382
 21
21.65815
 31
0.0
  0
LINE
  8
OBJ
 10
9.935882
 20
15.97315
 30
0.0
 11
9.373382
 21
16.947429
 31
0.0
  0
CIRCLE
  8
OBJ
 10
9.396382
 20
17.94165
 30
0.0
 40
0.197
  0
LINE
  8
TEXT
 10
9.396382
 20
17.82165
 30
0.0
 11
9.396382
 21
18.06165
 31
0.0
  0
LINE
  8
TEXT
 10
9.276382
 20
17.94165
 30
0.0
 11
9.516382
 21
17.94165
 31
0.0
  0
ARC
  8
OBJ
 10
9.503816
 20
18.672918
 30
0.0
 40
0.25
 50
264.530248
 51
313.714276
  0
ARC
  8
OBJ
 10
10.104164
 20
18.55515
 30
0.0
 40
0.25
 50
90.0
 51
133.714276
  0
LINE
  8
OBJ
 10
9.676581
 20
18.492219
 30
0.0
 11
9.931398
 21
18.735849
 31
0.0
  0
ARC
  8
OBJ
 10
10.853268
 20
18.041412
 30
0.0
 40
0.25
 50
35.34622
 51
84.530248
  0
LINE
  8
OBJ
 10
12.973882
 20
16.313298
 30
0.0
 11
12.973882
 21
17.207802
 31
0.0
  0
LINE
  8
TEXT
 10
12.423882
 20
15.85315
 30
0.0
 11
12.423882
 21
16.09315
 31
0.0
  0
LINE
  8
TEXT
 10
12.303882
 20
15.97315
 30
0.0
 11
12.543882
 21
15.97315
 31
0.0
  0
ARC
  8
OBJ
 10
13.093882
 20
15.633002
 30
0.0
 40
0.12
 50
90.0
 51
180.0
  0
ARC
  8
OBJ
 10
13.093882
 20
16.313298
 30
0.0
 40
0.12
 50
180.0
 51
270.0
  0
ARC
  8
OBJ
 10
13.086614
 20
16.70055
 30
0.0
 40
0.06
 50
90.0
 51
162.810228
  0
ARC
  8
OBJ
 10
13.086614
 20
16.82055
 30
0.0
 40
0.06
 50
197.189772
 51
270.0
  0
ARC
  8
OBJ
 10
14.224923
 20
16.348407
 30
0.0
 40
1.251534
 50
162.810228
 51
178.392488
  0
ARC
  8
OBJ
 10
14.224923
 20
17.172693
 30
0.0
 40
1.251534
 50
181.607512
 51
197.189772
  0
LINE
  8
OBJ
 10
13.293882
 20
16.76055
 30
0.0
 11
13.086614
 21
16.76055
 31
0.0
  0
LINE
  8
OBJ
 10
11.573882
 20
18.80515
 30
0.0
 11
11.785882
 21
18.80515
 31
0.0
  0
ARC
  8
OBJ
 10
13.093882
 20
17.207802
 30
0.0
 40
0.12
 50
90.0
 51
180.0
  0
ARC
  8
OBJ
 10
13.837841
 20
15.597893
 30
0.0
 40
1.251534
 50
342.810228
 51
358.392488
  0
LINE
  8
OBJ
 10
15.088882
 20
15.97315
 30
0.0
 11
15.088882
 21
14.738498
 31
0.0
  0
CIRCLE
  8
OBJ
 10
15.823882
 20
15.97315
 30
0.0
 40
0.535
  0
CIRCLE
  8
OBJ
 10
15.823882
 20
15.97315
 30
0.0
 40
0.7
  0
CIRCLE
  8
OBJ
 10
15.823882
 20
15.97315
 30
0.0
 40
0.735
  0
LINE
  8
OBJ
 10
16.776051
 20
15.345515
 30
0.0
 11
16.776051
 21
16.600785
 31
0.0
  0
LINE
  8
OBJ
 10
16.621882
 20
15.37245
 30
0.0
 11
16.621882
 21
16.57385
 31
0.0
  0
LINE
  8
0
 10
14.540882
 20
13.26345
 30
0.0
 11
14.540882
 21
18.68285
 31
0.0
  0
LINE
  8
TEXT
  6
CENTER4
 10
16.284337
 20
14.59495
 30
0.0
 11
17.418876
 21
14.59495
 31
0.0
  0
LINE
  8
0
 10
16.796382
 20
15.31245
 30
0.0
 11
16.681882
 21
15.31245
 31
0.0
  0
LINE
  8
0
 10
16.796382
 20
13.87745
 30
0.0
 11
16.103728
 21
13.87745
 31
0.0
  0
LINE
  8
OBJ
 10
15.851882
 20
13.323549
 30
0.0
 11
15.851882
 21
15.238683
 31
0.0
  0
ARC
  8
0
 10
15.395814
 20
13.609708
 30
0.0
 40
0.748036
 50
341.178025
 51
18.821975
  0
LINE
  8
0
 10
15.851882
 20
13.323549
 30
0.0
 11
15.851882
 21
13.898351
 31
0.0
  0
LINE
  8
0
 10
16.10385
 20
13.338187
 30
0.0
 11
16.10385
 21
13.883713
 31
0.0
  0
LINE
  8
0
 10
15.875504
 20
13.247266
 30
0.0
 11
15.875504
 21
13.974635
 31
0.0
  0
ARC
  8
0
 10
15.502063
 20
13.61095
 30
0.0
 40
0.601786
 50
342.412
 51
17.588
  0
LINE
  8
0
 10
14.384882
 20
13.323549
 30
0.0
 11
14.384882
 21
13.898351
 31
0.0
  0
LINE
  8
0
 10
14.462882
 20
13.323549
 30
0.0
 11
14.462882
 21
13.898351
 31
0.0
  0
LINE
  8
0
 10
15.751882
 20
13.16345
 30
0.0
 11
14.640882
 21
13.16345
 31
0.0
  0
LINE
  8
0
 10
14.540882
 20
13.323549
 30
0.0
 11
14.384882
 21
13.323549
 31
0.0
  0
ARC
  8
0
 10
14.640882
 20
13.26345
 30
0.0
 40
0.1
 50
180.0
 51
270.0
  0
ARC
  8
0
 10
15.942853
 20
13.338187
 30
0.0
 40
0.160996
 50
325.616
 51
34.384
  0
LINE
  8
0
 10
16.075719
 20
13.429108
 30
0.0
 11
15.875504
 21
13.429108
 31
0.0
  0
LINE
  8
0
 10
15.875504
 20
13.323549
 30
0.0
 11
15.851882
 21
13.323549
 31
0.0
  0
ARC
  8
0
 10
15.751882
 20
13.26345
 30
0.0
 40
0.1
 50
270.0
 51
360.0
  0
LINE
  8
0
 10
16.075719
 20
13.247266
 30
0.0
 11
15.875504
 21
13.247266
 31
0.0
  0
LINE
  8
0
 10
15.851882
 20
14.186643
 30
0.0
 11
14.540882
 21
14.186643
 31
0.0
  0
LINE
  8
0
 10
14.540882
 20
13.898351
 30
0.0
 11
14.384882
 21
13.898351
 31
0.0
  0
LINE
  8
OBJ
 10
14.540882
 20
15.18575
 30
0.0
 11
15.028882
 21
15.18575
 31
0.0
  0
ARC
  8
OBJ
 10
14.97615
 20
15.24575
 30
0.0
 40
0.06
 50
270.0
 51
342.810228
  0
ARC
  8
OBJ
 10
14.97615
 20
15.12575
 30
0.0
 40
0.06
 50
17.189772
 51
90.0
  0
ARC
  8
OBJ
 10
13.837841
 20
14.773607
 30
0.0
 40
1.251534
 50
1.607512
 51
17.189772
  0
ARC
  8
OBJ
 10
14.968882
 20
14.738498
 30
0.0
 40
0.12
 50
270.0
 51
0.0
  0
ARC
  8
0
 10
15.942853
 20
13.883713
 30
0.0
 40
0.160996
 50
325.616
 51
34.384
  0
LINE
  8
0
 10
15.875504
 20
13.898351
 30
0.0
 11
15.851882
 21
13.898351
 31
0.0
  0
LINE
  8
0
 10
16.075719
 20
13.974635
 30
0.0
 11
15.875504
 21
13.974635
 31
0.0
  0
LINE
  8
0
 10
16.075719
 20
13.792792
 30
0.0
 11
15.875504
 21
13.792792
 31
0.0
  0
LINE
  8
OBJ
 10
16.606498
 20
15.278808
 30
0.0
 11
16.294856
 21
14.891688
 31
0.0
  0
ARC
  8
OBJ
 10
16.681882
 20
15.37245
 30
0.0
 40
0.06
 50
180.0
 51
270.0
  0
LINE
  8
0
 10
16.863882
 20
13.94495
 30
0.0
 11
16.863882
 21
14.59495
 31
0.0
  0
LINE
  8
0
 10
16.796382
 20
13.87745
 30
0.0
 11
16.796382
 21
14.59495
 31
0.0
  0
LINE
  8
0
 10
16.863882
 20
13.94495
 30
0.0
 11
16.796382
 21
13.87745
 31
0.0
  0
ARC
  8
OBJ
 10
16.813104
 20
15.345515
 30
0.0
 40
0.037053
 50
180.0
 51
243.172794
  0
LINE
  8
0
 10
16.863882
 20
15.24495
 30
0.0
 11
16.796382
 21
15.31245
 31
0.0
  0
LINE
  8
0
 10
16.863882
 20
15.24495
 30
0.0
 11
16.863882
 21
14.59495
 31
0.0
  0
LINE
  8
0
 10
16.796382
 20
15.31245
 30
0.0
 11
16.796382
 21
14.59495
 31
0.0
  0
LINE
  8
TEXT
  6
CENTER4
 10
16.284337
 20
17.35135
 30
0.0
 11
17.418876
 21
17.35135
 31
0.0
  0
LINE
  8
0
 10
16.796382
 20
16.63385
 30
0.0
 11
16.681882
 21
16.63385
 31
0.0
  0
LINE
  8
0
 10
16.796382
 20
18.06885
 30
0.0
 11
16.103728
 21
18.06885
 31
0.0
  0
LINE
  8
OBJ
 10
15.088882
 20
15.97315
 30
0.0
 11
15.088882
 21
17.207802
 31
0.0
  0
LINE
  8
OBJ
 10
15.851882
 20
16.707616
 30
0.0
 11
15.851882
 21
18.68285
 31
0.0
  0
CIRCLE
  8
OBJ
 10
15.823882
 20
15.97315
 30
0.0
 40
0.447592
  0
LINE
  8
OBJ
 10
14.540882
 20
16.76055
 30
0.0
 11
14.97615
 21
16.76055
 31
0.0
  0
ARC
  8
OBJ
 10
13.837841
 20
16.348407
 30
0.0
 40
1.251534
 50
1.607512
 51
17.189772
  0
ARC
  8
OBJ
 10
14.97615
 20
16.70055
 30
0.0
 40
0.06
 50
17.189772
 51
90.0
  0
ARC
  8
OBJ
 10
14.97615
 20
16.82055
 30
0.0
 40
0.06
 50
270.0
 51
342.810228
  0
ARC
  8
OBJ
 10
13.837841
 20
17.172693
 30
0.0
 40
1.251534
 50
342.810228
 51
358.392488
  0
LINE
  8
TEXT
 10
15.823882
 20
15.85315
 30
0.0
 11
15.823882
 21
16.09315
 31
0.0
  0
LINE
  8
TEXT
 10
15.703882
 20
15.97315
 30
0.0
 11
15.943882
 21
15.97315
 31
0.0
  0
LINE
  8
OBJ
 10
16.606498
 20
16.667491
 30
0.0
 11
16.294856
 21
17.054612
 31
0.0
  0
ARC
  8
OBJ
 10
16.681882
 20
16.57385
 30
0.0
 40
0.06
 50
90.0
 51
180.0
  0
LINE
  8
0
 10
15.751882
 20
18.78285
 30
0.0
 11
14.640882
 21
18.78285
 31
0.0
  0
LINE
  8
0
 10
15.851882
 20
17.759657
 30
0.0
 11
14.540882
 21
17.759657
 31
0.0
  0
LINE
  8
0
 10
14.462882
 20
18.622751
 30
0.0
 11
14.462882
 21
18.047949
 31
0.0
  0
LINE
  8
0
 10
14.384882
 20
18.622751
 30
0.0
 11
14.384882
 21
18.047949
 31
0.0
  0
LINE
  8
0
 10
14.540882
 20
18.047949
 30
0.0
 11
14.384882
 21
18.047949
 31
0.0
  0
ARC
  8
OBJ
 10
14.968882
 20
17.207802
 30
0.0
 40
0.12
 50
0.0
 51
90.0
  0
ARC
  8
0
 10
14.640882
 20
18.68285
 30
0.0
 40
0.1
 50
90.0
 51
180.0
  0
LINE
  8
0
 10
14.540882
 20
18.622751
 30
0.0
 11
14.384882
 21
18.622751
 31
0.0
  0
ARC
  8
0
 10
15.942853
 20
18.062587
 30
0.0
 40
0.160996
 50
325.616
 51
34.384
  0
LINE
  8
0
 10
15.875504
 20
18.699034
 30
0.0
 11
15.875504
 21
17.971665
 31
0.0
  0
LINE
  8
0
 10
16.10385
 20
18.608113
 30
0.0
 11
16.10385
 21
18.062587
 31
0.0
  0
LINE
  8
0
 10
15.851882
 20
18.622751
 30
0.0
 11
15.851882
 21
18.047949
 31
0.0
  0
LINE
  8
0
 10
15.875504
 20
18.047949
 30
0.0
 11
15.851882
 21
18.047949
 31
0.0
  0
LINE
  8
0
 10
16.075719
 20
17.971665
 30
0.0
 11
15.875504
 21
17.971665
 31
0.0
  0
ARC
  8
0
 10
15.502063
 20
18.33535
 30
0.0
 40
0.601786
 50
342.412
 51
17.588
  0
ARC
  8
0
 10
15.942853
 20
18.608113
 30
0.0
 40
0.160996
 50
325.616
 51
34.384
  0
ARC
  8
0
 10
15.751882
 20
18.68285
 30
0.0
 40
0.1
 50
0.0
 51
90.0
  0
LINE
  8
0
 10
16.075719
 20
18.153508
 30
0.0
 11
15.875504
 21
18.153508
 31
0.0
  0
LINE
  8
0
 10
16.075719
 20
18.517192
 30
0.0
 11
15.875504
 21
18.517192
 31
0.0
  0
LINE
  8
0
 10
15.875504
 20
18.622751
 30
0.0
 11
15.851882
 21
18.622751
 31
0.0
  0
LINE
  8
0
 10
16.075719
 20
18.699034
 30
0.0
 11
15.875504
 21
18.699034
 31
0.0
  0
ARC
  8
0
 10
15.395814
 20
18.336592
 30
0.0
 40
0.748036
 50
341.178025
 51
18.821975
  0
LINE
  8
0
 10
16.796382
 20
16.63385
 30
0.0
 11
16.796382
 21
17.35135
 31
0.0
  0
LINE
  8
0
 10
16.863882
 20
16.70135
 30
0.0
 11
16.863882
 21
17.35135
 31
0.0
  0
ARC
  8
OBJ
 10
16.813104
 20
16.600785
 30
0.0
 40
0.037053
 50
116.827206
 51
180.0
  0
LINE
  8
0
 10
16.863882
 20
16.70135
 30
0.0
 11
16.796382
 21
16.63385
 31
0.0
  0
LINE
  8
0
 10
16.796382
 20
18.06885
 30
0.0
 11
16.796382
 21
17.35135
 31
0.0
  0
LINE
  8
0
 10
16.863882
 20
18.00135
 30
0.0
 11
16.796382
 21
18.06885
 31
0.0
  0
LINE
  8
0
 10
16.863882
 20
18.00135
 30
0.0
 11
16.863882
 21
17.35135
 31
0.0
  0
LINE
  8
OBJ
 10
25.299498
 20
0.737777
 30
0.0
 11
25.299498
 21
2.608977
 31
0.0
  0
LINE
  8
OBJ
 10
27.416498
 20
1.132777
 30
0.0
 11
27.416498
 21
2.002777
 31
0.0
  0
LINE
  8
OBJ
 10
26.059498
 20
0.737777
 30
0.0
 11
26.059498
 21
1.952777
 31
0.0
  0
LINE
  8
OBJ
 10
29.949498
 20
0.737777
 30
0.0
 11
29.949498
 21
2.608977
 31
0.0
  0
LINE
  8
OBJ
 10
27.832498
 20
1.132777
 30
0.0
 11
27.832498
 21
2.002777
 31
0.0
  0
LINE
  8
OBJ
 10
29.189498
 20
0.737777
 30
0.0
 11
29.189498
 21
1.952777
 31
0.0
  0
ARC
  8
OBJ
 10
30.180447
 20
1.914519
 30
0.0
 40
0.4
 50
270.0
 51
0.0
  0
LINE
  8
OBJ
 10
29.189498
 20
0.737777
 30
0.0
 11
29.949498
 21
0.737777
 31
0.0
  0
LINE
  8
OBJ
 10
26.059498
 20
1.132777
 30
0.0
 11
29.189498
 21
1.132777
 31
0.0
  0
LINE
  8
OBJ
 10
26.059498
 20
0.737777
 30
0.0
 11
25.299498
 21
0.737777
 31
0.0
  0
LINE
  8
TEXT
  6
CENTER4
 10
25.655998
 20
0.216717
 30
0.0
 11
25.655998
 21
1.210864
 31
0.0
  0
LINE
  8
OBJ
 10
25.299498
 20
1.514519
 30
0.0
 11
25.068549
 21
1.514519
 31
0.0
  0
LINE
  8
OBJ
 10
26.059498
 20
0.837777
 30
0.0
 11
26.519498
 21
1.132777
 31
0.0
  0
LINE
  8
TEXT
  6
CENTER4
 10
29.592998
 20
0.216717
 30
0.0
 11
29.592998
 21
1.210864
 31
0.0
  0
LINE
  8
OBJ
 10
29.189498
 20
0.837777
 30
0.0
 11
28.729498
 21
1.132777
 31
0.0
  0
LINE
  8
OBJ
 10
29.949498
 20
1.514519
 30
0.0
 11
30.180447
 21
1.514519
 31
0.0
  0
LINE
  8
TEXT
 10
29.866698
 20
3.064977
 30
0.0
 11
30.106698
 21
3.064977
 31
0.0
  0
LINE
  8
TEXT
 10
29.866698
 20
5.032977
 30
0.0
 11
30.106698
 21
5.032977
 31
0.0
  0
ARC
  8
OBJ
 10
29.619476
 20
5.972705
 30
0.0
 40
0.508508
 50
280.289505
 51
304.182082
  0
ARC
  8
OBJ
 10
29.809498
 20
2.608977
 30
0.0
 40
0.14
 50
270.0
 51
0.0
  0
LINE
  8
OBJ
 10
24.674498
 20
6.947977
 30
0.0
 11
30.574498
 21
6.947977
 31
0.0
  0
CIRCLE
  8
0
 10
29.986698
 20
5.032977
 30
0.0
 40
0.19
  0
INSERT
  8
0
  2
100HHT
 10
29.986698
 20
5.032977
 30
0.0
 41
-0.03937
 42
0.03937
 43
0.03937
  0
ARC
  8
0
 10
29.986698
 20
5.032977
 30
0.0
 40
0.4475
 50
321.333092
 51
141.333092
  0
INSERT
  8
0
  2
100HHT
 10
29.986698
 20
3.064977
 30
0.0
 41
-0.03937
 42
0.03937
 43
0.03937
  0
CIRCLE
  8
0
 10
29.986698
 20
3.064977
 30
0.0
 40
0.19
  0
ARC
  8
0
 10
29.986698
 20
3.064977
 30
0.0
 40
0.4475
 50
218.666908
 51
38.666908
  0
ARC
  8
0
 10
29.199298
 20
4.048977
 30
0.0
 40
0.7175
 50
207.217164
 51
152.782836
  0
CIRCLE
  8
0
 10
25.262298
 20
5.032977
 30
0.0
 40
0.31496
  0
LINE
  8
0
 10
24.947338
 20
5.214819
 30
0.0
 11
24.947338
 21
4.851135
 31
0.0
  0
LINE
  8
0
 10
25.577258
 20
4.851135
 30
0.0
 11
25.577258
 21
5.214819
 31
0.0
  0
LINE
  8
TEXT
  6
CENTER4
 10
27.624498
 20
5.979079
 30
0.0
 11
27.624498
 21
4.984932
 31
0.0
  0
LINE
  8
TEXT
 10
25.262298
 20
4.912977
 30
0.0
 11
25.262298
 21
5.152977
 31
0.0
  0
LINE
  8
OBJ
 10
24.814498
 20
4.048977
 30
0.0
 11
24.814498
 21
5.568183
 31
0.0
  0
ARC
  8
0
 10
28.607549
 20
5.182977
 30
0.0
 40
0.25
 50
192.63104
 51
270.0
  0
LINE
  8
0
 10
29.408602
 20
5.026779
 30
0.0
 11
29.637294
 21
5.312571
 31
0.0
  0
ARC
  8
0
 10
26.641447
 20
5.182977
 30
0.0
 40
0.25
 50
270.0
 51
347.36896
  0
CIRCLE
  8
0
 10
25.262298
 20
5.032977
 30
0.0
 40
0.19
  0
LINE
  8
0
 10
25.840394
 20
5.026779
 30
0.0
 11
25.611702
 21
5.312571
 31
0.0
  0
LINE
  8
OBJ
 10
26.109498
 20
2.002777
 30
0.0
 11
29.139498
 21
2.002777
 31
0.0
  0
LINE
  8
0
 10
25.439498
 20
2.468977
 30
0.0
 11
28.459498
 21
2.468977
 31
0.0
  0
ARC
  8
0
 10
26.473374
 20
3.881
 30
0.0
 40
1.065319
 50
38.113783
 51
80.922611
  0
LINE
  8
0
 10
26.049698
 20
3.331477
 30
0.0
 11
27.624498
 21
3.331477
 31
0.0
  0
LINE
  8
0
 10
27.624498
 20
3.164977
 30
0.0
 11
26.035592
 21
3.164977
 31
0.0
  0
LINE
  8
0
 10
27.624498
 20
3.856477
 30
0.0
 11
26.910076
 21
3.856477
 31
0.0
  0
LINE
  8
0
 10
27.624498
 20
4.241477
 30
0.0
 11
26.910076
 21
4.241477
 31
0.0
  0
CIRCLE
  8
0
 10
25.262298
 20
3.064977
 30
0.0
 40
0.31496
  0
LINE
  8
0
 10
25.262298
 20
3.428662
 30
0.0
 11
24.947338
 21
3.246819
 31
0.0
  0
LINE
  8
0
 10
25.577258
 20
3.246819
 30
0.0
 11
25.262298
 21
3.428662
 31
0.0
  0
LINE
  8
OBJ
 10
24.649498
 20
3.196977
 30
0.0
 11
24.649498
 21
3.956977
 31
0.0
  0
LINE
  8
OBJ
 10
24.814498
 20
4.048977
 30
0.0
 11
24.814498
 21
2.529771
 31
0.0
  0
LINE
  8
0
 10
24.792498
 20
4.048977
 30
0.0
 11
24.814912
 21
3.05489
 31
0.0
  0
ARC
  8
0
 10
25.262298
 20
3.064977
 30
0.0
 40
0.4475
 50
141.333092
 51
321.333092
  0
LINE
  8
0
 10
25.427223
 20
2.648977
 30
0.0
 11
26.777344
 21
2.648977
 31
0.0
  0
ARC
  8
0
 10
26.035592
 20
2.914977
 30
0.0
 40
0.25
 50
90.0
 51
141.333092
  0
ARC
  8
OBJ
 10
25.439498
 20
2.608977
 30
0.0
 40
0.14
 50
180.0
 51
270.0
  0
LINE
  8
OBJ
 10
24.668549
 20
1.953977
 30
0.0
 11
24.668549
 21
1.914519
 31
0.0
  0
LINE
  8
0
 10
25.262298
 20
2.701293
 30
0.0
 11
25.577258
 21
2.883135
 31
0.0
  0
LINE
  8
TEXT
 10
25.142298
 20
3.064977
 30
0.0
 11
25.382298
 21
3.064977
 31
0.0
  0
CIRCLE
  8
0
 10
25.262298
 20
3.064977
 30
0.0
 40
0.19
  0
LINE
  8
0
 10
24.947338
 20
2.883135
 30
0.0
 11
25.262298
 21
2.701293
 31
0.0
  0
LINE
  8
0
 10
24.947338
 20
3.246819
 30
0.0
 11
24.947338
 21
2.883135
 31
0.0
  0
LINE
  8
OBJ
 10
24.649498
 20
3.196977
 30
0.0
 11
24.814498
 21
3.196977
 31
0.0
  0
LINE
  8
TEXT
 10
25.262298
 20
2.944977
 30
0.0
 11
25.262298
 21
3.184977
 31
0.0
  0
LINE
  8
0
 10
25.577258
 20
2.883135
 30
0.0
 11
25.577258
 21
3.246819
 31
0.0
  0
LINE
  8
OBJ
 10
25.299498
 20
2.608977
 30
0.0
 11
25.299498
 21
2.619026
 31
0.0
  0
LINE
  8
0
 10
25.840394
 20
3.071175
 30
0.0
 11
25.611702
 21
2.785383
 31
0.0
  0
ARC
  8
OBJ
 10
26.109498
 20
1.952777
 30
0.0
 40
0.05
 50
90.0
 51
180.0
  0
LINE
  8
0
 10
26.454498
 20
2.821977
 30
0.0
 11
26.719498
 21
2.821977
 31
0.0
  0
ARC
  8
0
 10
26.539498
 20
2.571977
 30
0.0
 40
0.25
 50
360.0
 51
90.0
  0
ARC
  8
0
 10
26.405034
 20
3.071977
 30
0.0
 40
0.25
 50
214.857952
 51
270.0
  0
LINE
  8
0
 10
26.199891
 20
2.929091
 30
0.0
 11
26.035592
 21
3.164977
 31
0.0
  0
LINE
  8
0
 10
26.405034
 20
2.821977
 30
0.0
 11
26.539498
 21
2.821977
 31
0.0
  0
LINE
  8
0
 10
26.916824
 20
2.725477
 30
0.0
 11
26.916824
 21
3.164977
 31
0.0
  0
ARC
  8
0
 10
26.719498
 20
2.571977
 30
0.0
 40
0.25
 50
37.879411
 51
90.0
  0
LINE
  8
0
 10
26.789498
 20
2.468977
 30
0.0
 11
26.789498
 21
2.571977
 31
0.0
  0
LINE
  8
TEXT
 10
25.929698
 20
4.048977
 30
0.0
 11
26.169698
 21
4.048977
 31
0.0
  0
ARC
  8
0
 10
26.035592
 20
5.182977
 30
0.0
 40
0.25
 50
218.666908
 51
270.0
  0
ARC
  8
0
 10
26.049698
 20
4.048977
 30
0.0
 40
0.7175
 50
27.217164
 51
332.782836
  0
CIRCLE
  8
0
 10
26.049698
 20
4.048977
 30
0.0
 40
0.65
  0
CIRCLE
  8
0
 10
26.049698
 20
4.048977
 30
0.0
 40
0.46
  0
LINE
  8
0
 10
24.814912
 20
5.043064
 30
0.0
 11
24.792498
 21
4.048977
 31
0.0
  0
LINE
  8
0
 10
25.145498
 20
3.722965
 30
0.0
 11
25.145498
 21
4.374989
 31
0.0
  0
LINE
  8
OBJ
 10
24.649498
 20
3.956977
 30
0.0
 11
24.794572
 21
3.956977
 31
0.0
  0
ARC
  8
0
 10
24.895498
 20
3.722965
 30
0.0
 40
0.25
 50
321.333092
 51
0.0
  0
LINE
  8
0
 10
25.090696
 20
3.566767
 30
0.0
 11
24.912894
 21
3.344571
 31
0.0
  0
LINE
  8
0
 10
25.262298
 20
4.669293
 30
0.0
 11
25.577258
 21
4.851135
 31
0.0
  0
LINE
  8
TEXT
 10
25.142298
 20
5.032977
 30
0.0
 11
25.382298
 21
5.032977
 31
0.0
  0
LINE
  8
0
 10
24.947338
 20
4.851135
 30
0.0
 11
25.262298
 21
4.669293
 31
0.0
  0
ARC
  8
0
 10
24.895498
 20
4.374989
 30
0.0
 40
0.25
 50
0.0
 51
38.666908
  0
LINE
  8
0
 10
25.090696
 20
4.531187
 30
0.0
 11
24.912894
 21
4.753383
 31
0.0
  0
LINE
  8
TEXT
 10
26.049698
 20
3.928977
 30
0.0
 11
26.049698
 21
4.168977
 31
0.0
  0
ARC
  8
0
 10
26.910076
 20
3.606477
 30
0.0
 40
0.25
 50
90.0
 51
152.782836
  0
LINE
  8
0
 10
26.049698
 20
4.766477
 30
0.0
 11
27.065687
 21
4.766477
 31
0.0
  0
LINE
  8
0
 10
26.641447
 20
4.932977
 30
0.0
 11
26.035592
 21
4.932977
 31
0.0
  0
ARC
  8
0
 10
26.910076
 20
4.491477
 30
0.0
 40
0.25
 50
207.217164
 51
270.0
  0
LINE
  8
OBJ
 10
28.459498
 20
2.468977
 30
0.0
 11
29.809498
 21
2.468977
 31
0.0
  0
LINE
  8
0
 10
28.529498
 20
2.821977
 30
0.0
 11
28.794498
 21
2.821977
 31
0.0
  0
ARC
  8
0
 10
28.709498
 20
2.571977
 30
0.0
 40
0.25
 50
90.0
 51
180.0
  0
LINE
  8
0
 10
28.471651
 20
2.648977
 30
0.0
 11
29.821773
 21
2.648977
 31
0.0
  0
LINE
  8
0
 10
27.624498
 20
3.164977
 30
0.0
 11
29.213404
 21
3.164977
 31
0.0
  0
LINE
  8
TEXT
  6
CENTER4
 10
27.624498
 20
1.780686
 30
0.0
 11
27.624498
 21
2.774833
 31
0.0
  0
LINE
  8
0
 10
28.332172
 20
2.725477
 30
0.0
 11
28.332172
 21
3.164977
 31
0.0
  0
ARC
  8
0
 10
28.529498
 20
2.571977
 30
0.0
 40
0.25
 50
90.0
 51
142.120589
  0
LINE
  8
0
 10
28.459498
 20
2.468977
 30
0.0
 11
28.459498
 21
2.571977
 31
0.0
  0
ARC
  8
OBJ
 10
29.139498
 20
1.952777
 30
0.0
 40
0.05
 50
360.0
 51
90.0
  0
ARC
  8
0
 10
29.213404
 20
2.914977
 30
0.0
 40
0.25
 50
38.666908
 51
90.0
  0
ARC
  8
0
 10
28.843962
 20
3.071977
 30
0.0
 40
0.25
 50
270.0
 51
325.142048
  0
LINE
  8
0
 10
28.709498
 20
2.821977
 30
0.0
 11
28.843962
 21
2.821977
 31
0.0
  0
LINE
  8
0
 10
29.049105
 20
2.929091
 30
0.0
 11
29.213404
 21
3.164977
 31
0.0
  0
LINE
  8
0
 10
29.408602
 20
3.071175
 30
0.0
 11
29.637294
 21
2.785383
 31
0.0
  0
LINE
  8
0
 10
29.199298
 20
4.766477
 30
0.0
 11
28.183309
 21
4.766477
 31
0.0
  0
ARC
  8
0
 10
28.33892
 20
4.491477
 30
0.0
 40
0.25
 50
270.0
 51
332.782836
  0
ARC
  8
0
 10
28.33892
 20
3.606477
 30
0.0
 40
0.25
 50
27.217164
 51
90.0
  0
LINE
  8
0
 10
29.199298
 20
3.331477
 30
0.0
 11
27.624498
 21
3.331477
 31
0.0
  0
ARC
  8
0
 10
28.775622
 20
3.881
 30
0.0
 40
1.065319
 50
99.077389
 51
141.886217
  0
CIRCLE
  8
0
 10
29.199298
 20
4.048977
 30
0.0
 40
0.65
  0
LINE
  8
0
 10
27.624498
 20
3.856477
 30
0.0
 11
28.33892
 21
3.856477
 31
0.0
  0
LINE
  8
0
 10
27.624498
 20
4.241477
 30
0.0
 11
28.33892
 21
4.241477
 31
0.0
  0
CIRCLE
  8
0
 10
29.199298
 20
4.048977
 30
0.0
 40
0.46
  0
LINE
  8
TEXT
 10
29.079298
 20
4.048977
 30
0.0
 11
29.319298
 21
4.048977
 31
0.0
  0
LINE
  8
TEXT
 10
29.199298
 20
3.928977
 30
0.0
 11
29.199298
 21
4.168977
 31
0.0
  0
ARC
  8
0
 10
29.213404
 20
5.182977
 30
0.0
 40
0.25
 50
270.0
 51
321.333092
  0
LINE
  8
0
 10
28.607549
 20
4.932977
 30
0.0
 11
29.213404
 21
4.932977
 31
0.0
  0
ARC
  8
OBJ
 10
27.624498
 20
7.974724
 30
0.0
 40
2.353
 50
249.065444
 51
290.934556
  0
ARC
  8
OBJ
 10
27.624498
 20
5.486452
 30
0.0
 40
1.252272
 50
63.858144
 51
116.141856
  0
LINE
  8
OBJ
  6
CONTINUOUS
 10
27.072753
 20
6.738724
 30
0.0
 11
28.176243
 21
6.738724
 31
0.0
  0
LINE
  8
OBJ
  6
CONTINUOUS
 10
26.521008
 20
6.378724
 30
0.0
 11
28.727988
 21
6.378724
 31
0.0
  0
ARC
  8
OBJ
 10
27.624498
 20
2.767253
 30
0.0
 40
4.120471
 50
79.786344
 51
100.213656
  0
LINE
  8
0
 10
27.624498
 20
5.458977
 30
0.0
 11
26.959498
 21
5.458977
 31
0.0
  0
ARC
  8
OBJ
 10
26.904498
 20
6.763379
 30
0.0
 40
0.06
 50
100.213656
 51
180.0
  0
LINE
  8
0
 10
25.427223
 20
5.448977
 30
0.0
 11
26.957257
 21
5.448977
 31
0.0
  0
LINE
  8
OBJ
 10
24.923315
 20
6.09758
 30
0.0
 11
25.343828
 21
5.552039
 31
0.0
  0
LINE
  8
0
 10
25.577258
 20
5.214819
 30
0.0
 11
25.262298
 21
5.396662
 31
0.0
  0
LINE
  8
0
 10
25.262298
 20
5.396662
 30
0.0
 11
24.947338
 21
5.214819
 31
0.0
  0
ARC
  8
OBJ
 10
25.62952
 20
5.972705
 30
0.0
 40
0.508508
 50
235.817918
 51
259.710495
  0
LINE
  8
OBJ
 10
26.719498
 20
6.378724
 30
0.0
 11
26.719498
 21
5.870447
 31
0.0
  0
ARC
  8
OBJ
 10
26.819498
 20
5.870447
 30
0.0
 40
0.1
 50
180.0
 51
249.065444
  0
LINE
  8
0
 10
26.959498
 20
5.458977
 30
0.0
 11
26.885397
 21
5.128309
 31
0.0
  0
LINE
  8
OBJ
 10
26.521008
 20
6.610624
 30
0.0
 11
26.644499
 21
6.738724
 31
0.0
  0
ARC
  8
OBJ
 10
26.79688
 20
6.377619
 30
0.0
 40
0.361106
 50
40.184879
 51
139.815121
  0
LINE
  8
OBJ
 10
26.521008
 20
6.610624
 30
0.0
 11
26.521008
 21
6.378724
 31
0.0
  0
LINE
  8
OBJ
 10
26.844498
 20
6.738724
 30
0.0
 11
26.844498
 21
6.763379
 31
0.0
  0
LINE
  8
OBJ
 10
27.072753
 20
6.610624
 30
0.0
 11
27.072753
 21
6.378724
 31
0.0
  0
LINE
  8
OBJ
  6
CONTINUOUS
 10
26.644499
 20
6.738724
 30
0.0
 11
27.072753
 21
6.738724
 31
0.0
  0
ARC
  8
OBJ
 10
28.344498
 20
6.763379
 30
0.0
 40
0.06
 50
0.0
 51
79.786344
  0
LINE
  8
OBJ
  6
CONTINUOUS
 10
28.176243
 20
6.738724
 30
0.0
 11
28.604496
 21
6.738724
 31
0.0
  0
ARC
  8
OBJ
 10
28.452115
 20
6.377619
 30
0.0
 40
0.361106
 50
40.184879
 51
139.815121
  0
LINE
  8
0
 10
28.291739
 20
5.448977
 30
0.0
 11
29.821773
 21
5.448977
 31
0.0
  0
LINE
  8
OBJ
 10
28.529498
 20
6.378724
 30
0.0
 11
28.529498
 21
5.870447
 31
0.0
  0
LINE
  8
0
 10
27.624498
 20
5.458977
 30
0.0
 11
28.289498
 21
5.458977
 31
0.0
  0
ARC
  8
OBJ
 10
28.429498
 20
5.870447
 30
0.0
 40
0.1
 50
290.934556
 51
0.0
  0
LINE
  8
0
 10
28.289498
 20
5.458977
 30
0.0
 11
28.363599
 21
5.128309
 31
0.0
  0
LINE
  8
OBJ
 10
28.404498
 20
6.738724
 30
0.0
 11
28.404498
 21
6.763379
 31
0.0
  0
LINE
  8
OBJ
 10
28.176243
 20
6.610624
 30
0.0
 11
28.176243
 21
6.378724
 31
0.0
  0
LINE
  8
OBJ
 10
28.727988
 20
6.610624
 30
0.0
 11
28.727988
 21
6.378724
 31
0.0
  0
LINE
  8
OBJ
 10
28.727988
 20
6.610624
 30
0.0
 11
28.604496
 21
6.738724
 31
0.0
  0
LINE
  8
TEXT
 10
29.986698
 20
4.912977
 30
0.0
 11
29.986698
 21
5.152977
 31
0.0
  0
LINE
  8
OBJ
 10
31.284098
 20
5.003828
 30
0.0
 11
31.284098
 21
5.527988
 31
0.0
  0
LINE
  8
OBJ
 10
31.521698
 20
5.033846
 30
0.0
 11
31.521698
 21
5.133428
 31
0.0
  0
ARC
  8
OBJ
 10
31.452759
 20
5.068628
 30
0.0
 40
0.068939
 50
289.954678
 51
70.045322
  0
LINE
  8
OBJ
 10
31.226498
 20
5.507108
 30
0.0
 11
31.226498
 21
5.024708
 31
0.0
  0
LINE
  8
OBJ
 10
31.226498
 20
2.113977
 30
0.0
 11
31.226498
 21
5.983977
 31
0.0
  0
LINE
  8
OBJ
 10
30.989498
 20
2.053977
 30
0.0
 11
30.989498
 21
6.043977
 31
0.0
  0
LINE
  8
OBJ
 10
30.989498
 20
4.048977
 30
0.0
 11
30.989498
 21
6.043977
 31
0.0
  0
LINE
  8
OBJ
 10
30.434498
 20
4.048977
 30
0.0
 11
30.434498
 21
5.568183
 31
0.0
  0
LINE
  8
OBJ
 10
31.711498
 20
4.541977
 30
0.0
 11
33.321498
 21
4.541977
 31
0.0
  0
LINE
  8
OBJ
 10
31.711498
 20
3.555977
 30
0.0
 11
33.321498
 21
3.555977
 31
0.0
  0
LINE
  8
OBJ
 10
31.451498
 20
3.094126
 30
0.0
 11
31.451498
 21
5.003828
 31
0.0
  0
LINE
  8
OBJ
 10
30.434498
 20
4.048977
 30
0.0
 11
30.434498
 21
2.529771
 31
0.0
  0
LINE
  8
OBJ
 10
30.989498
 20
4.048977
 30
0.0
 11
30.989498
 21
2.053977
 31
0.0
  0
LINE
  8
0
 10
30.456498
 20
4.048977
 30
0.0
 11
30.434084
 21
3.05489
 31
0.0
  0
ARC
  8
OBJ
 10
31.166498
 20
2.113977
 30
0.0
 40
0.06
 50
270.0
 51
360.0
  0
ARC
  8
OBJ
 10
31.265698
 20
2.599234
 30
0.0
 40
0.834097
 50
175.222937
 51
221.545152
  0
LINE
  8
OBJ
 10
30.989498
 20
2.053977
 30
0.0
 11
31.166498
 21
2.053977
 31
0.0
  0
LINE
  8
OBJ
 10
30.580447
 20
1.953977
 30
0.0
 11
30.580447
 21
1.914519
 31
0.0
  0
LINE
  8
OBJ
 10
30.680447
 20
2.053977
 30
0.0
 11
31.166498
 21
2.053977
 31
0.0
  0
ARC
  8
OBJ
 10
30.680447
 20
1.953977
 30
0.0
 40
0.1
 50
90.0
 51
180.0
  0
LINE
  8
TEXT
 10
29.986698
 20
2.944977
 30
0.0
 11
29.986698
 21
3.184977
 31
0.0
  0
LINE
  8
OBJ
 10
29.949498
 20
2.608977
 30
0.0
 11
29.949498
 21
2.619026
 31
0.0
  0
LINE
  8
OBJ
 10
31.521698
 20
2.699566
 30
0.0
 11
31.521698
 21
2.599984
 31
0.0
  0
LINE
  8
OBJ
 10
31.521698
 20
2.599984
 30
0.0
 11
31.493722
 21
2.579317
 31
0.0
  0
ARC
  8
OBJ
 10
31.452759
 20
2.634766
 30
0.0
 40
0.068939
 50
289.954678
 51
70.045322
  0
LINE
  8
OBJ
 10
31.521698
 20
3.064108
 30
0.0
 11
31.493722
 21
3.084775
 31
0.0
  0
LINE
  8
OBJ
 10
31.521698
 20
3.064108
 30
0.0
 11
31.521698
 21
2.964526
 31
0.0
  0
ARC
  8
OBJ
 10
31.452759
 20
3.029326
 30
0.0
 40
0.068939
 50
289.954678
 51
70.045322
  0
LINE
  8
OBJ
 10
31.521698
 20
2.964526
 30
0.0
 11
31.521698
 21
2.699566
 31
0.0
  0
ARC
  8
OBJ
 10
31.305749
 20
2.832046
 30
0.0
 40
0.215949
 50
322.158498
 51
37.841502
  0
LINE
  8
OBJ
 10
31.284098
 20
3.094126
 30
0.0
 11
31.284098
 21
2.569966
 31
0.0
  0
LINE
  8
OBJ
 10
31.226498
 20
2.590846
 30
0.0
 11
31.226498
 21
3.073246
 31
0.0
  0
LINE
  8
OBJ
 10
31.226498
 20
2.890351
 30
0.0
 11
31.284098
 21
2.947951
 31
0.0
  0
LINE
  8
OBJ
  6
CENTER2
 10
31.226498
 20
2.590846
 30
0.0
 11
31.284098
 21
2.590846
 31
0.0
  0
LINE
  8
OBJ
  6
CENTER2
 10
31.226498
 20
3.073246
 30
0.0
 11
31.284098
 21
3.073246
 31
0.0
  0
LINE
  8
OBJ
  6
CONTINUOUS
 10
31.284098
 20
3.094126
 30
0.0
 11
31.476286
 21
3.094126
 31
0.0
  0
LINE
  8
OBJ
  6
CONTINUOUS
 10
31.284098
 20
2.964526
 30
0.0
 11
31.476286
 21
2.964526
 31
0.0
  0
LINE
  8
OBJ
  6
CONTINUOUS
 10
31.284098
 20
2.699566
 30
0.0
 11
31.476286
 21
2.699566
 31
0.0
  0
LINE
  8
OBJ
  6
CONTINUOUS
 10
31.284098
 20
2.569966
 30
0.0
 11
31.476286
 21
2.569966
 31
0.0
  0
LINE
  8
0
 10
30.456498
 20
4.048977
 30
0.0
 11
30.434084
 21
5.043064
 31
0.0
  0
LINE
  8
0
 10
30.103498
 20
3.722965
 30
0.0
 11
30.103498
 21
4.374989
 31
0.0
  0
ARC
  8
0
 10
30.353498
 20
3.722965
 30
0.0
 40
0.25
 50
180.0
 51
218.666908
  0
LINE
  8
0
 10
30.1583
 20
3.566767
 30
0.0
 11
30.336102
 21
3.344571
 31
0.0
  0
ARC
  8
0
 10
30.353498
 20
4.374989
 30
0.0
 40
0.25
 50
141.333092
 51
180.0
  0
LINE
  8
0
 10
30.1583
 20
4.531187
 30
0.0
 11
30.336102
 21
4.753383
 31
0.0
  0
LINE
  8
OBJ
 10
31.711498
 20
3.488977
 30
0.0
 11
31.711498
 21
4.608977
 31
0.0
  0
LINE
  8
OBJ
 10
31.681498
 20
4.638977
 30
0.0
 11
31.681498
 21
3.458977
 31
0.0
  0
LINE
  8
OBJ
 10
31.681498
 20
3.458977
 30
0.0
 11
31.711498
 21
3.488977
 31
0.0
  0
LINE
  8
OBJ
 10
31.451498
 20
3.458977
 30
0.0
 11
31.681498
 21
3.458977
 31
0.0
  0
LINE
  8
OBJ
 10
31.681498
 20
4.638977
 30
0.0
 11
31.711498
 21
4.608977
 31
0.0
  0
LINE
  8
OBJ
 10
31.521698
 20
5.033846
 30
0.0
 11
31.493722
 21
5.013179
 31
0.0
  0
LINE
  8
OBJ
 10
31.451498
 20
4.638977
 30
0.0
 11
31.681498
 21
4.638977
 31
0.0
  0
LINE
  8
OBJ
  6
CENTER2
 10
31.226498
 20
5.024708
 30
0.0
 11
31.284098
 21
5.024708
 31
0.0
  0
LINE
  8
OBJ
  6
CONTINUOUS
 10
31.284098
 20
5.003828
 30
0.0
 11
31.476286
 21
5.003828
 31
0.0
  0
LINE
  8
OBJ
 10
33.351498
 20
3.585977
 30
0.0
 11
33.351498
 21
4.511977
 31
0.0
  0
LINE
  8
OBJ
 10
33.321498
 20
4.541977
 30
0.0
 11
33.321498
 21
3.555977
 31
0.0
  0
LINE
  8
OBJ
 10
33.351498
 20
3.585977
 30
0.0
 11
33.321498
 21
3.555977
 31
0.0
  0
LINE
  8
OBJ
 10
33.321498
 20
4.541977
 30
0.0
 11
33.351498
 21
4.511977
 31
0.0
  0
ARC
  8
OBJ
 10
30.574498
 20
6.747977
 30
0.0
 40
0.2
 50
0.0
 51
90.0
  0
ARC
  8
OBJ
 10
31.166498
 20
5.983977
 30
0.0
 40
0.06
 50
360.0
 51
90.0
  0
LINE
  8
OBJ
 10
30.325681
 20
6.09758
 30
0.0
 11
29.905168
 21
5.552039
 31
0.0
  0
ARC
  8
OBJ
 10
31.265698
 20
5.49872
 30
0.0
 40
0.834097
 50
138.454848
 51
184.777063
  0
LINE
  8
OBJ
 10
30.989498
 20
6.043977
 30
0.0
 11
31.166498
 21
6.043977
 31
0.0
  0
ARC
  8
OBJ
 10
30.680447
 20
6.143977
 30
0.0
 40
0.1
 50
180.0
 51
270.0
  0
LINE
  8
OBJ
 10
30.680447
 20
6.043977
 30
0.0
 11
30.989498
 21
6.043977
 31
0.0
  0
LINE
  8
OBJ
 10
30.774498
 20
6.043977
 30
0.0
 11
30.774498
 21
6.747977
 31
0.0
  0
LINE
  8
OBJ
 10
31.521698
 20
5.49797
 30
0.0
 11
31.493722
 21
5.518637
 31
0.0
  0
LINE
  8
OBJ
 10
31.521698
 20
5.398388
 30
0.0
 11
31.521698
 21
5.49797
 31
0.0
  0
ARC
  8
OBJ
 10
31.452759
 20
5.463188
 30
0.0
 40
0.068939
 50
289.954678
 51
70.045322
  0
LINE
  8
OBJ
 10
31.521698
 20
5.133428
 30
0.0
 11
31.521698
 21
5.398388
 31
0.0
  0
ARC
  8
OBJ
 10
31.305749
 20
5.265908
 30
0.0
 40
0.215949
 50
322.158498
 51
37.841502
  0
LINE
  8
OBJ
  6
CENTER2
 10
31.226498
 20
5.507108
 30
0.0
 11
31.284098
 21
5.507108
 31
0.0
  0
LINE
  8
OBJ
 10
31.226498
 20
5.207604
 30
0.0
 11
31.284098
 21
5.150004
 31
0.0
  0
LINE
  8
OBJ
  6
CONTINUOUS
 10
31.284098
 20
5.133428
 30
0.0
 11
31.476286
 21
5.133428
 31
0.0
  0
LINE
  8
OBJ
  6
CONTINUOUS
 10
31.284098
 20
5.527988
 30
0.0
 11
31.476286
 21
5.527988
 31
0.0
  0
LINE
  8
OBJ
  6
CONTINUOUS
 10
31.284098
 20
5.398388
 30
0.0
 11
31.476286
 21
5.398388
 31
0.0
  0
ENDSEC
  0
EOF
