  0
SECTION
  2
HEADER
  9
$ACADVER
  1
AC1015
  9
$ACADMAINTVER
 70
     6
  9
$DWGCODEPAGE
  3
ANSI_1252
  9
$INSBASE
 10
0.0
 20
0.0
 30
0.0
  9
$EXTMIN
 10
-5.974366623143668
 20
0.8992814876060428
 30
0.0
  9
$EXTMAX
 10
21.59748830676816
 20
20.15739617837072
 30
0.0
  9
$LIMMIN
 10
0.0
 20
0.0
  9
$LIMMAX
 10
12.0
 20
9.0
  9
$ORTHOMODE
 70
     0
  9
$REGENMODE
 70
     1
  9
$FILLMODE
 70
     1
  9
$QTEXTMODE
 70
     0
  9
$MIRRTEXT
 70
     1
  9
$LTSCALE
 40
1.0
  9
$ATTMODE
 70
     1
  9
$TEXTSIZE
 40
0.225
  9
$TRACEWID
 40
0.05
  9
$TEXTSTYLE
  7
ROMAND
  9
$CLAYER
  8
0
  9
$CELTYPE
  6
ByLayer
  9
$CECOLOR
 62
   256
  9
$CELTSCALE
 40
1.0
  9
$DISPSILH
 70
     0
  9
$DIMSCALE
 40
0.5
  9
$DIMASZ
 40
1.0
  9
$DIMEXO
 40
0.38
  9
$DIMDLI
 40
2.0
  9
$DIMRND
 40
0.0
  9
$DIMDLE
 40
0.0
  9
$DIMEXE
 40
1.0
  9
$DIMTP
 40
0.0
  9
$DIMTM
 40
0.0
  9
$DIMTXT
 40
1.0
  9
$DIMCEN
 40
0.5
  9
$DIMTSZ
 40
0.0
  9
$DIMTOL
 70
     0
  9
$DIMLIM
 70
     0
  9
$DIMTIH
 70
     1
  9
$DIMTOH
 70
     1
  9
$DIMSE1
 70
     0
  9
$DIMSE2
 70
     0
  9
$DIMTAD
 70
     0
  9
$DIMZIN
 70
     0
  9
$DIMBLK
  1

  9
$DIMASO
 70
     1
  9
$DIMSHO
 70
     1
  9
$DIMPOST
  1

  9
$DIMAPOST
  1

  9
$DIMALT
 70
     0
  9
$DIMALTD
 70
     2
  9
$DIMALTF
 40
25.4
  9
$DIMLFAC
 40
1.0
  9
$DIMTOFL
 70
     0
  9
$DIMTVP
 40
0.0
  9
$DIMTIX
 70
     0
  9
$DIMSOXD
 70
     0
  9
$DIMSAH
 70
     0
  9
$DIMBLK1
  1

  9
$DIMBLK2
  1

  9
$DIMSTYLE
  2
Standard
  9
$DIMCLRD
 70
     0
  9
$DIMCLRE
 70
     0
  9
$DIMCLRT
 70
     0
  9
$DIMTFAC
 40
1.0
  9
$DIMGAP
 40
0.5
  9
$DIMJUST
 70
     0
  9
$DIMSD1
 70
     0
  9
$DIMSD2
 70
     0
  9
$DIMTOLJ
 70
     1
  9
$DIMTZIN
 70
     0
  9
$DIMALTZ
 70
     0
  9
$DIMALTTZ
 70
     0
  9
$DIMUPT
 70
     0
  9
$DIMDEC
 70
     2
  9
$DIMTDEC
 70
     2
  9
$DIMALTU
 70
     2
  9
$DIMALTTD
 70
     2
  9
$DIMTXSTY
  7
STANDARD
  9
$DIMAUNIT
 70
     0
  9
$DIMADEC
 70
     0
  9
$DIMALTRND
 40
0.0
  9
$DIMAZIN
 70
     0
  9
$DIMDSEP
 70
    46
  9
$DIMATFIT
 70
     3
  9
$DIMFRAC
 70
     0
  9
$DIMLDRBLK
  1

  9
$DIMLUNIT
 70
     2
  9
$DIMLWD
 70
    -2
  9
$DIMLWE
 70
    -2
  9
$DIMTMOVE
 70
     2
  9
$LUNITS
 70
     2
  9
$LUPREC
 70
     2
  9
$SKETCHINC
 40
0.1
  9
$FILLETRAD
 40
0.03
  9
$AUNITS
 70
     0
  9
$AUPREC
 70
     0
  9
$MENU
  1
ACAD
  9
$ELEVATION
 40
0.0
  9
$PELEVATION
 40
0.0
  9
$THICKNESS
 40
0.0
  9
$LIMCHECK
 70
     0
  9
$CHAMFERA
 40
0.0
  9
$CHAMFERB
 40
0.0
  9
$CHAMFERC
 40
0.0
  9
$CHAMFERD
 40
0.0
  9
$SKPOLY
 70
     0
  9
$TDCREATE
 40
2451400.438169328
  9
$TDUCREATE
 40
2451400.688169328
  9
$TDUPDATE
 40
2454410.422008403
  9
$TDUUPDATE
 40
2454410.672008402
  9
$TDINDWG
 40
0.0432978819
  9
$TDUSRTIMER
 40
0.0432978819
  9
$USRTIMER
 70
     1
  9
$ANGBASE
 50
0.0
  9
$ANGDIR
 70
     0
  9
$PDMODE
 70
     0
  9
$PDSIZE
 40
0.0
  9
$PLINEWID
 40
0.0
  9
$SPLFRAME
 70
     0
  9
$SPLINETYPE
 70
     6
  9
$SPLINESEGS
 70
     8
  9
$HANDSEED
  5
5E6
  9
$SURFTAB1
 70
     6
  9
$SURFTAB2
 70
     6
  9
$SURFTYPE
 70
     6
  9
$SURFU
 70
     6
  9
$SURFV
 70
     6
  9
$UCSBASE
  2

  9
$UCSNAME
  2

  9
$UCSORG
 10
0.0
 20
0.0
 30
0.0
  9
$UCSXDIR
 10
1.0
 20
0.0
 30
0.0
  9
$UCSYDIR
 10
0.0
 20
1.0
 30
0.0
  9
$UCSORTHOREF
  2

  9
$UCSORTHOVIEW
 70
     0
  9
$UCSORGTOP
 10
0.0
 20
0.0
 30
0.0
  9
$UCSORGBOTTOM
 10
0.0
 20
0.0
 30
0.0
  9
$UCSORGLEFT
 10
0.0
 20
0.0
 30
0.0
  9
$UCSORGRIGHT
 10
0.0
 20
0.0
 30
0.0
  9
$UCSORGFRONT
 10
0.0
 20
0.0
 30
0.0
  9
$UCSORGBACK
 10
0.0
 20
0.0
 30
0.0
  9
$PUCSBASE
  2

  9
$PUCSNAME
  2

  9
$PUCSORG
 10
0.0
 20
0.0
 30
0.0
  9
$PUCSXDIR
 10
1.0
 20
0.0
 30
0.0
  9
$PUCSYDIR
 10
0.0
 20
1.0
 30
0.0
  9
$PUCSORTHOREF
  2

  9
$PUCSORTHOVIEW
 70
     0
  9
$PUCSORGTOP
 10
0.0
 20
0.0
 30
0.0
  9
$PUCSORGBOTTOM
 10
0.0
 20
0.0
 30
0.0
  9
$PUCSORGLEFT
 10
0.0
 20
0.0
 30
0.0
  9
$PUCSORGRIGHT
 10
0.0
 20
0.0
 30
0.0
  9
$PUCSORGFRONT
 10
0.0
 20
0.0
 30
0.0
  9
$PUCSORGBACK
 10
0.0
 20
0.0
 30
0.0
  9
$USERI1
 70
     0
  9
$USERI2
 70
     0
  9
$USERI3
 70
     0
  9
$USERI4
 70
     0
  9
$USERI5
 70
     0
  9
$USERR1
 40
0.0
  9
$USERR2
 40
0.0
  9
$USERR3
 40
0.0
  9
$USERR4
 40
0.0
  9
$USERR5
 40
0.0
  9
$WORLDVIEW
 70
     1
  9
$SHADEDGE
 70
     3
  9
$SHADEDIF
 70
    70
  9
$TILEMODE
 70
     1
  9
$MAXACTVP
 70
    16
  9
$PINSBASE
 10
0.0
 20
0.0
 30
1.076194117306884E+26
  9
$PLIMCHECK
 70
     0
  9
$PEXTMIN
 10
1.000000000000000E+20
 20
1.000000000000000E+20
 30
1.000000000000000E+20
  9
$PEXTMAX
 10
-1.000000000000000E+20
 20
-1.000000000000000E+20
 30
-1.000000000000000E+20
  9
$PLIMMIN
 10
0.0
 20
0.0
  9
$PLIMMAX
 10
12.0
 20
9.0
  9
$UNITMODE
 70
     0
  9
$VISRETAIN
 70
     0
  9
$PLINEGEN
 70
     0
  9
$PSLTSCALE
 70
     1
  9
$TREEDEPTH
 70
  3020
  9
$CMLSTYLE
  2
Standard
  9
$CMLJUST
 70
     0
  9
$CMLSCALE
 40
1.0
  9
$PROXYGRAPHICS
 70
     1
  9
$MEASUREMENT
 70
     0
  9
$CELWEIGHT
370
    -1
  9
$ENDCAPS
280
     0
  9
$JOINSTYLE
280
     0
  9
$LWDISPLAY
290
     0
  9
$INSUNITS
 70
     0
  9
$HYPERLINKBASE
  1

  9
$STYLESHEET
  1

  9
$XEDIT
290
     1
  9
$CEPSNTYPE
380
     0
  9
$PSTYLEMODE
290
     1
  9
$FINGERPRINTGUID
  2
{7BDDF0A6-E5ED-4E1E-ACEB-A2689E497401}
  9
$VERSIONGUID
  2
{13EF6A40-A44D-4E45-91B1-FD360C2F43F9}
  9
$EXTNAMES
290
     1
  9
$PSVPSCALE
 40
0.0
  9
$OLESTARTUP
290
     0
  0
ENDSEC
  0
SECTION
  2
CLASSES
  0
CLASS
  1
ACDBDICTIONARYWDFLT
  2
AcDbDictionaryWithDefault
  3
AutoCAD 2000
 90
        0
280
     0
281
     0
  0
CLASS
  1
ACDBPLACEHOLDER
  2
AcDbPlaceHolder
  3
AutoCAD 2000
 90
        0
280
     0
281
     0
  0
CLASS
  1
LAYOUT
  2
AcDbLayout
  3
AutoCAD 2000
 90
        0
280
     0
281
     0
  0
CLASS
  1
ACME_DOCUMENT
  2
AcMeDbDoc
  3
AcMeServices
 90
    32768
280
     0
281
     0
  0
CLASS
  1
AMGSETTINGSOBJ
  2
AmgSettingsObj
  3
"AcadM|Product Description: AutoCAD Mechanical 2000|Company: Autodesk"
 90
        0
280
     0
281
     0
  0
CLASS
  1
AMGOBJPROPCFG
  2
AmgObjPropCfg
  3
"AmgLay|Product Description: AutoCAD Mechanical 2000|Company: Autodesk"
 90
        1
280
     0
281
     0
  0
CLASS
  1
ACMESCOPE
  2
AcMeScope
  3
AcMeServices
 90
        0
280
     0
281
     0
  0
CLASS
  1
ACMECOMMANDHISTORY
  2
AcMeCommandHistory
  3
AcMeServices
 90
        0
280
     0
281
     0
  0
CLASS
  1
DICTIONARYVAR
  2
AcDbDictionaryVar
  3
AutoCAD 2000
 90
        0
280
     0
281
     0
  0
CLASS
  1
ACIMSYSVARMAN
  2
AcImSysVarManager
  3
AcMeServices
 90
        0
280
     0
281
     0
  0
CLASS
  1
ACIMREALSYSVAR
  2
AcImRealSysVar
  3
AcMeServices
 90
        0
280
     0
281
     0
  0
CLASS
  1
ACIMINTSYSVAR
  2
AcImIntSysVar
  3
AcMeServices
 90
        0
280
     0
281
     0
  0
CLASS
  1
ACMEDRAWINGMAN
  2
AcMeDrawingMan
  3
AcMeServices
 90
        0
280
     0
281
     0
  0
CLASS
  1
ACMEVIEW
  2
AcMeView
  3
AcMeServices
 90
        0
280
     0
281
     0
  0
CLASS
  1
ACDBENTITYCACHE
  2
AcMeEntityCache
  3
AcMeServices
 90
    32768
280
     0
281
     0
  0
CLASS
  1
GSMANAGER
  2
AcMeGSManager
  3
AcMeServices
 90
    32768
280
     0
281
     0
  0
CLASS
  1
AmdtInternalReactor
  2
AmdtInternalReactor
  3
AcMeServices
 90
    32768
280
     0
281
     0
  0
CLASS
  1
ACMESTATEMGR
  2
AcMeStateMgr
  3
AcMeServices
 90
        0
280
     0
281
     0
  0
CLASS
  1
ACME_DATABASE
  2
AcMeDbDatabase
  3
AcMeServices
 90
    32768
280
     0
281
     0
  0
CLASS
  1
ACRFINSADJUSTERMGR
  2
AcRfInsAdjusterMgr
  3
AcMeServices
 90
    32768
280
     0
281
     0
  0
CLASS
  1
ACMDATADICTIONARY
  2
AcmDataDictionary
  3
"AcmSymBB|Product Description: AutoCAD Mechanical 2000|Company: Autodesk"
 90
        0
280
     0
281
     0
  0
CLASS
  1
ACMDATAENTRYBLOCK
  2
AcmDataEntryBlock
  3
"AcmSymBB|Product Description: AutoCAD Mechanical 2000|Company: Autodesk"
 90
        0
280
     0
281
     0
  0
CLASS
  1
ACAMGFILTERDAT
  2
AcAmgFilterDat
  3
"AcadM|Product Description: AutoCAD Mechanical 2000|Company: Autodesk"
 90
        0
280
     0
281
     0
  0
CLASS
  1
LAYER_INDEX
  2
AcDbLayerIndex
  3
AutoCAD 2000
 90
        0
280
     0
281
     0
  0
CLASS
  1
IDBUFFER
  2
AcDbIdBuffer
  3
AutoCAD 2000
 90
        0
280
     0
281
     0
  0
ENDSEC
  0
SECTION
  2
TABLES
  0
TABLE
  2
VPORT
  5
8
330
0
100
AcDbSymbolTable
 70
     2
  0
VPORT
  5
5E5
330
8
100
AcDbSymbolTableRecord
100
AcDbViewportTableRecord
  2
*Active
 70
     0
 10
0.0
 20
0.0
 11
1.0
 21
1.0
 12
12.08937009335357
 22
10.31010586361669
 13
0.0
 23
0.0
 14
1.0
 24
1.0
 15
0.0
 25
0.0
 16
0.0
 26
0.0
 36
1.0
 17
0.0
 27
0.0
 37
0.0
 40
32.97964433444551
 41
1.882653061224489
 42
50.0
 43
0.0
 44
0.0
 50
0.0
 51
0.0
 71
     0
 72
   100
 73
     1
 74
     0
 75
     0
 76
     0
 77
     0
 78
     0
281
     0
 65
     1
110
0.0
120
0.0
130
0.0
111
1.0
121
0.0
131
0.0
112
0.0
122
1.0
132
0.0
 79
     0
146
0.0
  0
ENDTAB
  0
TABLE
  2
LTYPE
  5
5
330
0
100
AcDbSymbolTable
 70
    15
  0
LTYPE
  5
13
330
5
100
AcDbSymbolTableRecord
100
AcDbLinetypeTableRecord
  2
ByBlock
 70
     0
  3

 72
    65
 73
     0
 40
0.0
  0
LTYPE
  5
14
330
5
100
AcDbSymbolTableRecord
100
AcDbLinetypeTableRecord
  2
ByLayer
 70
     0
  3

 72
    65
 73
     0
 40
0.0
  0
LTYPE
  5
15
330
5
100
AcDbSymbolTableRecord
100
AcDbLinetypeTableRecord
  2
CONTINUOUS
 70
     0
  3
Solid line
 72
    65
 73
     0
 40
0.0
  0
LTYPE
  5
24
330
5
100
AcDbSymbolTableRecord
100
AcDbLinetypeTableRecord
  2
CENTER2
 70
     0
  3
CENTER2 _._._._._
 72
    65
 73
     4
 40
0.15
 49
0.1
 74
     0
 49
-0.025
 74
     0
 49
0.0
 74
     0
 49
-0.025
 74
     0
  0
LTYPE
  5
25
330
5
100
AcDbSymbolTableRecord
100
AcDbLinetypeTableRecord
  2
HIDDEN2
 70
     0
  3
_ _ _ _ _ _ _ _ _ _ _ _ _ _ _ _ _ _ _ _ _ _ _ _
 72
    65
 73
     2
 40
0.1875
 49
0.125
 74
     0
 49
-0.0625
 74
     0
  0
LTYPE
  5
26
330
5
100
AcDbSymbolTableRecord
100
AcDbLinetypeTableRecord
  2
DASHED4
 70
     0
  3
- - - - - - - -
 72
    65
 73
     2
 40
0.06
 49
0.03
 74
     0
 49
-0.03
 74
     0
  0
LTYPE
  5
5AC
330
5
100
AcDbSymbolTableRecord
100
AcDbLinetypeTableRecord
  2
AM_ISO02W050
 70
     0
  3
__ __ __ __ __ __ __ __ __ __ __ __ __ __ __
 72
    65
 73
     2
 40
7.5
 49
6.0
 74
     0
 49
-1.5
 74
     0
  0
LTYPE
  5
5AD
330
5
100
AcDbSymbolTableRecord
100
AcDbLinetypeTableRecord
  2
AM_ISO08W050
 70
     0
  3
____ . ____ . ____ . ____ . ____ . ____ . ____
 72
    65
 73
     4
 40
18.0
 49
12.0
 74
     0
 49
-1.5
 74
     0
 49
3.0
 74
     0
 49
-1.5
 74
     0
  0
LTYPE
  5
5AE
330
5
100
AcDbSymbolTableRecord
100
AcDbLinetypeTableRecord
  2
AM_ISO09W050
 70
     0
  3
_____ . . _____ . . _____ . . ____ .. ____
 72
    65
 73
     6
 40
22.5
 49
12.0
 74
     0
 49
-1.5
 74
     0
 49
3.0
 74
     0
 49
-1.5
 74
     0
 49
3.0
 74
     0
 49
-1.5
 74
     0
  0
LTYPE
  5
5AF
330
5
100
AcDbSymbolTableRecord
100
AcDbLinetypeTableRecord
  2
Amconstr
 70
     0
  3
_______________________
 72
    65
 73
     2
 40
9999.0
 49
9999.0
 74
     0
 49
0.0
 74
     0
  0
LTYPE
  5
5B0
330
5
100
AcDbSymbolTableRecord
100
AcDbLinetypeTableRecord
  2
AM_ISO02W050x2
 70
     0
  3
 _ _ _ _ _ _ _ _ _ _ _ _
 72
    65
 73
     2
 40
3.75
 49
3.0
 74
     0
 49
-0.75
 74
     0
  0
LTYPE
  5
5B1
330
5
100
AcDbSymbolTableRecord
100
AcDbLinetypeTableRecord
  2
AM_ISO08W050x2
 70
     0
  3
__ . __ . __ . __ . __ . __
 72
    65
 73
     4
 40
9.0
 49
6.0
 74
     0
 49
-0.75
 74
     0
 49
1.5
 74
     0
 49
-0.75
 74
     0
  0
LTYPE
  5
5B4
330
5
100
AcDbSymbolTableRecord
100
AcDbLinetypeTableRecord
  2
Amzigzag
 70
     0
  3
/\/-/\/-/\/-/\/-/\/-/\/
 72
    65
 73
     2
 40
11.00009999999999
 49
0.0001
 74
     4
 75
   135
340
5B3
 46
0.04
 50
0.0
 44
0.0
 45
0.0
 49
-11.0
 74
     0
  0
LTYPE
  5
5B5
330
5
100
AcDbSymbolTableRecord
100
AcDbLinetypeTableRecord
  2
HIDDEN
 70
     0
  3
Hidden __ __ __ __ __ __ __ __ __ __ __ __ __ _
 72
    65
 73
     2
 40
0.375
 49
0.25
 74
     0
 49
-0.125
 74
     0
  0
LTYPE
  5
5B6
330
5
100
AcDbSymbolTableRecord
100
AcDbLinetypeTableRecord
  2
CENTER
 70
     0
  3
Center ____ _ ____ _ ____ _ ____ _ ____ _ ____
 72
    65
 73
     4
 40
2.0
 49
1.25
 74
     0
 49
-0.25
 74
     0
 49
0.25
 74
     0
 49
-0.25
 74
     0
  0
LTYPE
  5
5B7
330
5
100
AcDbSymbolTableRecord
100
AcDbLinetypeTableRecord
  2
PHANTOM2
 70
     0
  3
Phantom (.5x) ___ _ _ ___ _ _ ___ _ _ ___ _ _
 72
    65
 73
     6
 40
1.25
 49
0.625
 74
     0
 49
-0.125
 74
     0
 49
0.125
 74
     0
 49
-0.125
 74
     0
 49
0.125
 74
     0
 49
-0.125
 74
     0
  0
LTYPE
  5
5B8
330
5
100
AcDbSymbolTableRecord
100
AcDbLinetypeTableRecord
  2
Amzigzag2
 70
     0
  3
/\/-/\/-/\/-/\/-/\/-/\/
 72
    65
 73
     2
 40
0.4401
 49
0.0001
 74
     4
 75
   135
340
5B3
 46
0.0016
 50
0.0
 44
0.0
 45
0.0
 49
-0.4400000000000001
 74
     0
  0
ENDTAB
  0
TABLE
  2
LAYER
  5
2
330
0
100
AcDbSymbolTable
 70
     3
  0
LAYER
  5
10
330
2
100
AcDbSymbolTableRecord
100
AcDbLayerTableRecord
  2
0
 70
     0
 62
     7
  6
CONTINUOUS
370
    -3
390
F
  0
LAYER
  5
29
330
2
100
AcDbSymbolTableRecord
100
AcDbLayerTableRecord
  2
OBJ
 70
     0
 62
     7
  6
CONTINUOUS
370
    -3
390
F
  0
LAYER
  5
2A
330
2
100
AcDbSymbolTableRecord
100
AcDbLayerTableRecord
  2
DEFPOINTS
 70
     0
 62
     7
  6
CONTINUOUS
290
     0
370
    -3
390
F
  0
ENDTAB
  0
TABLE
  2
STYLE
  5
3
330
0
100
AcDbSymbolTable
 70
     3
  0
STYLE
  5
11
330
3
100
AcDbSymbolTableRecord
100
AcDbTextStyleTableRecord
  2
STANDARD
 70
     0
 40
0.0
 41
1.0
 50
0.0
 71
     0
 42
0.2
  3
txt
  4

  0
STYLE
  5
23
330
3
100
AcDbSymbolTableRecord
100
AcDbTextStyleTableRecord
  2
ROMAND
 70
     0
 40
0.0
 41
1.0
 50
0.0
 71
     0
 42
0.225
  3
romand
  4

  0
STYLE
  5
5B3
330
3
100
AcDbSymbolTableRecord
100
AcDbTextStyleTableRecord
  2

 70
     1
 40
0.0
 41
1.0
 50
0.0
 71
     0
 42
0.225
  3
ltypeshp.shx
  4

  0
ENDTAB
  0
TABLE
  2
VIEW
  5
6
330
0
100
AcDbSymbolTable
 70
     0
  0
ENDTAB
  0
TABLE
  2
UCS
  5
7
330
0
100
AcDbSymbolTable
 70
     0
  0
ENDTAB
  0
TABLE
  2
APPID
  5
9
330
0
100
AcDbSymbolTable
 70
     3
  0
APPID
  5
12
330
9
100
AcDbSymbolTableRecord
100
AcDbRegAppTableRecord
  2
ACAD
 70
     0
  0
APPID
  5
5BB
330
9
100
AcDbSymbolTableRecord
100
AcDbRegAppTableRecord
  2
MCAD_NO_VIS
 70
     0
  0
APPID
  5
5BC
330
9
100
AcDbSymbolTableRecord
100
AcDbRegAppTableRecord
  2
ACAD_TEMP_GRAPHIC
 70
     0
  0
ENDTAB
  0
TABLE
  2
DIMSTYLE
  5
A
330
0
100
AcDbSymbolTable
 70
     1
100
AcDbDimStyleTable
 71
     0
  0
DIMSTYLE
105
54B
330
A
100
AcDbSymbolTableRecord
100
AcDbDimStyleTableRecord
  2
Standard
 70
     0
340
11
  0
ENDTAB
  0
TABLE
  2
BLOCK_RECORD
  5
1
330
0
100
AcDbSymbolTable
 70
     0
  0
BLOCK_RECORD
  5
1E
102
{ACAD_XDICTIONARY
360
5D9
102
}
330
1
100
AcDbSymbolTableRecord
100
AcDbBlockTableRecord
  2
*Model_Space
340
21
  0
BLOCK_RECORD
  5
1A
330
1
100
AcDbSymbolTableRecord
100
AcDbBlockTableRecord
  2
*Paper_Space
340
1D
  0
ENDTAB
  0
ENDSEC
  0
SECTION
  2
BLOCKS
  0
BLOCK
  5
2D
330
1E
100
AcDbEntity
  8
0
100
AcDbBlockBegin
  2
*Model_Space
 70
     0
 10
0.0
 20
0.0
 30
0.0
  3
*Model_Space
  1

  0
ENDBLK
  5
2E
330
1E
100
AcDbEntity
  8
0
100
AcDbBlockEnd
  0
BLOCK
  5
2B
330
1A
100
AcDbEntity
 67
     1
  8
0
100
AcDbBlockBegin
  2
*Paper_Space
 70
     0
 10
0.0
 20
0.0
 30
0.0
  3
*Paper_Space
  1

  0
ENDBLK
  5
2C
330
1A
100
AcDbEntity
 67
     1
  8
0
100
AcDbBlockEnd
  0
ENDSEC
  0
SECTION
  2
ENTITIES
  0
LINE
  5
50
330
1E
100
AcDbEntity
  8
OBJ
100
AcDbLine
 10
14.22751976427327
 20
4.797281487606042
 30
0.0
 11
13.55723140405668
 21
4.797281487606042
 31
0.0
  0
ARC
  5
52
330
1E
100
AcDbEntity
  8
OBJ
100
AcDbCircle
 10
14.14191976427326
 20
4.23597949137283
 30
0.0
 40
0.06
100
AcDbArc
 50
0.0
 51
90.0
  0
LINE
  5
53
330
1E
100
AcDbEntity
  8
0
100
AcDbLine
 10
14.12191976427326
 20
4.147281487606047
 30
0.0
 11
14.20191976427326
 21
4.147281487606047
 31
0.0
  0
LINE
  5
54
330
1E
100
AcDbEntity
  8
0
100
AcDbLine
 10
14.12191976427326
 20
3.557281487606044
 30
0.0
 11
14.20191976427326
 21
3.557281487606044
 31
0.0
  0
ARC
  5
55
330
1E
100
AcDbEntity
  8
OBJ
100
AcDbCircle
 10
14.14191976427326
 20
3.46858348383926
 30
0.0
 40
0.06
100
AcDbArc
 50
270.0
 51
0.0
  0
LINE
  5
56
330
1E
100
AcDbEntity
  8
OBJ
100
AcDbLine
 10
13.51031476427327
 20
2.832481487606042
 30
0.0
 11
14.39431476427327
 21
2.832481487606042
 31
0.0
  0
LINE
  5
58
330
1E
100
AcDbEntity
  8
OBJ
  6
CENTER2
100
AcDbLine
 10
13.86074874331933
 20
3.852281487606045
 30
0.0
 11
14.74225807933115
 21
3.852281487606045
 31
0.0
  0
LINE
  5
59
330
1E
100
AcDbEntity
  8
OBJ
100
AcDbLine
 10
13.36176476427326
 20
2.592481487606043
 30
0.0
 11
14.54286476427326
 21
2.592481487606043
 31
0.0
  0
LINE
  5
5A
330
1E
100
AcDbEntity
  8
OBJ
100
AcDbLine
 10
13.36270976427326
 20
4.639681487606043
 30
0.0
 11
14.60191976427326
 21
4.639681487606043
 31
0.0
  0
LINE
  5
5D
330
1E
100
AcDbEntity
  8
0
100
AcDbLine
 10
14.12191976427326
 20
18.26425635904543
 30
0.0
 11
14.20191976427326
 21
18.26425635904543
 31
0.0
  0
LINE
  5
5E
330
1E
100
AcDbEntity
  8
OBJ
  6
CENTER2
100
AcDbLine
 10
14.72691976427326
 20
17.97332972134424
 30
0.0
 11
14.08321976427327
 21
17.97332972134424
 31
0.0
  0
ARC
  5
5F
330
1E
100
AcDbEntity
  8
OBJ
100
AcDbCircle
 10
14.12317976427326
 20
17.51838350158078
 30
0.0
 40
0.07874
100
AcDbArc
 50
270.0
 51
0.0
  0
ARC
  5
60
330
1E
100
AcDbEntity
  8
OBJ
100
AcDbCircle
 10
14.12317976427326
 20
17.65223326922427
 30
0.0
 40
0.07874
100
AcDbArc
 50
270.0
 51
0.0
  0
LINE
  5
61
330
1E
100
AcDbEntity
  8
0
100
AcDbLine
 10
14.12191976427326
 20
17.67425635904543
 30
0.0
 11
14.20191976427326
 21
17.67425635904543
 31
0.0
  0
ARC
  5
62
330
1E
100
AcDbEntity
  8
OBJ
100
AcDbCircle
 10
14.12317976427326
 20
13.8850261734642
 30
0.0
 40
0.07874
100
AcDbArc
 50
0.0
 51
90.0
  0
ARC
  5
63
330
1E
100
AcDbEntity
  8
OBJ
100
AcDbCircle
 10
14.12317976427326
 20
14.01887594110769
 30
0.0
 40
0.07874
100
AcDbArc
 50
0.0
 51
90.0
  0
LINE
  5
64
330
1E
100
AcDbEntity
  8
0
100
AcDbLine
 10
14.12191976427326
 20
13.86300308364304
 30
0.0
 11
14.20191976427326
 21
13.86300308364304
 31
0.0
  0
CIRCLE
  5
65
330
1E
100
AcDbEntity
  8
OBJ
100
AcDbCircle
 10
13.89325976427327
 20
15.00862972134424
 30
0.0
 40
0.393126776988927
  0
LINE
  5
66
330
1E
100
AcDbEntity
  8
0
100
AcDbLine
 10
14.12191976427326
 20
13.27300308364304
 30
0.0
 11
14.20191976427326
 21
13.27300308364304
 31
0.0
  0
LINE
  5
67
330
1E
100
AcDbEntity
  8
OBJ
  6
CENTER2
100
AcDbLine
 10
14.08321976427327
 20
13.56800308364304
 30
0.0
 11
14.72691976427326
 21
13.56800308364304
 31
0.0
  0
TEXT
  5
68
330
1E
100
AcDbEntity
  8
0
100
AcDbText
 10
-3.279401119451254
 20
13.40760373717369
 30
0.0
 40
1.0
  1
MODEL 290
  7
ROMAND
100
AcDbText
  0
ARC
  5
6A
330
1E
100
AcDbEntity
  8
OBJ
100
AcDbCircle
 10
-1.073366623143668
 20
4.876281487606032
 30
0.0
 40
0.078
100
AcDbArc
 50
9.124746031665836
 51
90.0
  0
ARC
  5
6D
330
1E
100
AcDbEntity
  8
OBJ
100
AcDbCircle
 10
-1.069755661896364
 20
4.068281487606032
 30
0.0
 40
0.118
100
AcDbArc
 50
270.0
 51
341.0022346602754
  0
ARC
  5
6E
330
1E
100
AcDbEntity
  8
OBJ
100
AcDbCircle
 10
-1.069755661896364
 20
3.63628148760603
 30
0.0
 40
0.118
100
AcDbArc
 50
18.99776533972458
 51
90.0
  0
LINE
  5
6F
330
1E
100
AcDbEntity
  8
OBJ
100
AcDbLine
 10
-2.726366623143666
 20
3.222281487606032
 30
0.0
 11
-0.4423666231436681
 21
3.222281487606032
 31
0.0
  0
ARC
  5
71
330
1E
100
AcDbEntity
  8
OBJ
 62
     5
100
AcDbCircle
 10
-1.053071623143663
 20
2.65153648760603
 30
0.0
 40
0.059055
100
AcDbArc
 50
270.0
 51
0.0
  0
LINE
  5
72
330
1E
100
AcDbEntity
  8
OBJ
 62
     5
100
AcDbLine
 10
-1.179305021906023
 20
2.82828148760603
 30
0.0
 11
-0.7188286091323999
 21
2.82828148760603
 31
0.0
  0
ARC
  5
74
330
1E
100
AcDbEntity
  8
OBJ
 62
     7
100
AcDbCircle
 10
-1.584366623143639
 20
2.120794842556303
 30
0.0
 40
4.120471476510105
100
AcDbArc
 50
79.78634404178666
 51
100.2136559582138
  0
ARC
  5
75
330
1E
100
AcDbEntity
  8
0
 62
     7
100
AcDbCircle
 10
-1.097227333514938
 20
5.101968514616782
 30
0.0
 40
0.9902978044496235
100
AcDbArc
 50
60.53367614028672
 51
119.4663238597132
  0
ARC
  5
76
330
1E
100
AcDbEntity
  8
0
 62
     7
100
AcDbCircle
 10
-1.417586463239166
 20
6.724768186126976
 30
0.0
 40
1.628924440760618
100
AcDbArc
 50
276.9474179420583
 51
286.3927970871616
  0
LINE
  5
77
330
1E
100
AcDbEntity
  8
0
 62
     7
100
AcDbLine
 10
-0.9933666231436735
 20
1.099281487606017
 30
0.0
 11
-1.113366623143678
 21
1.219281487606021
 31
0.0
  0
LINE
  5
78
330
1E
100
AcDbEntity
  8
0
 62
     7
100
AcDbLine
 10
-2.470366623143663
 20
5.70228148760604
 30
0.0
 11
-0.6983666231436576
 21
5.70228148760604
 31
0.0
  0
LINE
  5
79
330
1E
100
AcDbEntity
  8
OBJ
  6
Continuous
 62
     7
100
AcDbLine
 10
-2.558645202401153
 20
6.092266319066407
 30
0.0
 11
-0.6100880438862096
 21
6.092266319066407
 31
0.0
  0
LINE
  5
7A
330
1E
100
AcDbEntity
  8
OBJ
  6
Continuous
 62
     7
100
AcDbLine
 10
-2.558645202401153
 20
5.732266319066408
 30
0.0
 11
-0.6100880438861953
 21
5.732266319066408
 31
0.0
  0
LINE
  5
83
330
1E
100
AcDbEntity
  8
0
 62
     7
100
AcDbLine
 10
-5.944366623143666
 20
3.527481487606021
 30
0.0
 11
-4.684366623143647
 21
3.527481487606021
 31
0.0
  0
LINE
  5
84
330
1E
100
AcDbEntity
  8
0
 62
     7
100
AcDbLine
 10
-5.944366623143652
 20
4.171371167373305
 30
0.0
 11
-4.740044611425746
 21
4.17137116737329
 31
0.0
  0
LINE
  5
85
330
1E
100
AcDbEntity
  8
OBJ
 62
     7
100
AcDbLine
 10
-5.974366623143653
 20
4.141371167373318
 30
0.0
 11
-5.974366623143668
 21
3.557481487606022
 31
0.0
  0
LINE
  5
86
330
1E
100
AcDbEntity
  8
0
 62
     7
100
AcDbLine
 10
-5.944366623143666
 20
3.527481487606021
 30
0.0
 11
-5.944366623143624
 21
4.171371167373347
 31
0.0
  0
LINE
  5
87
330
1E
100
AcDbEntity
  8
0
 62
     7
100
AcDbLine
 10
-5.944366623143666
 20
3.527481487606021
 30
0.0
 11
-5.974366623143668
 21
3.557481487606022
 31
0.0
  0
LINE
  5
88
330
1E
100
AcDbEntity
  8
0
 62
     7
100
AcDbLine
 10
-5.974366623143653
 20
4.141371167373304
 30
0.0
 11
-5.944366623143652
 21
4.171371167373305
 31
0.0
  0
LINE
  5
89
330
1E
100
AcDbEntity
  8
OBJ
100
AcDbLine
 10
-1.584366623143671
 20
5.194897362628775
 30
0.0
 11
-1.584366623143669
 21
4.572985998043666
 31
0.0
  0
LINE
  5
8A
330
1E
100
AcDbEntity
  8
OBJ
100
AcDbLine
 10
-2.172379564829745
 20
4.888651079873216
 30
0.0
 11
-2.222843848840204
 21
4.574461017842018
 31
0.0
  0
LINE
  5
8B
330
1E
100
AcDbEntity
  8
OBJ
 62
     7
100
AcDbLine
 10
-4.359366623143644
 20
4.791628594922283
 30
0.0
 11
-4.407174623143648
 21
4.839436594922258
 31
0.0
  0
LINE
  5
8C
330
1E
100
AcDbEntity
  8
OBJ
 62
     7
100
AcDbLine
 10
-4.407174623143648
 20
4.960762431901084
 30
0.0
 11
-4.407174623143648
 21
4.525709631901062
 31
0.0
  0
LINE
  5
8D
330
1E
100
AcDbEntity
  8
OBJ
 62
     7
100
AcDbLine
 10
-4.604382623143637
 20
4.853194431901069
 30
0.0
 11
-4.604382623143637
 21
4.633277631901076
 31
0.0
  0
ARC
  5
8E
330
1E
100
AcDbEntity
  8
OBJ
 62
     7
100
AcDbCircle
 10
-4.425145260235114
 20
4.743236031901059
 30
0.0
 40
0.1792373629085269
100
AcDbArc
 50
142.1584983941688
 51
217.841501605827
  0
LINE
  5
8F
330
1E
100
AcDbEntity
  8
0
100
AcDbLine
 10
-3.383724808888773
 20
4.72924381298861
 30
0.0
 11
-3.79636662314367
 21
5.58428148760603
 31
0.0
  0
ARC
  5
90
330
1E
100
AcDbEntity
  8
0
 62
     7
100
AcDbCircle
 10
16.89390285615308
 20
3.85055665137413
 30
0.0
 40
21.01826955006993
100
AcDbArc
 50
175.2544730802329
 51
179.6848563910651
  0
LINE
  5
91
330
1E
100
AcDbEntity
  8
0
 62
     7
100
AcDbLine
 10
-4.14336662314365
 20
3.852281487606031
 30
0.0
 11
-4.14336662314365
 21
5.437281487606067
 31
0.0
  0
LINE
  5
92
330
1E
100
AcDbEntity
  8
0
 62
     7
100
AcDbLine
 10
-4.359366623143644
 20
2.32728148760604
 30
0.0
 11
-4.359366623143644
 21
5.377281487606023
 31
0.0
  0
ARC
  5
93
330
1E
100
AcDbEntity
  8
OBJ
 62
     5
100
AcDbCircle
 10
-2.726266623143663
 20
3.852281487606031
 30
0.0
 40
0.7874
100
AcDbArc
 50
216.1920327893908
 51
264.0314149191742
  0
ARC
  5
94
330
1E
100
AcDbEntity
  8
OBJ
 62
     7
100
AcDbCircle
 10
-2.726266623143663
 20
3.852281487606031
 30
0.0
 40
0.8374
100
AcDbArc
 50
212.1734753033321
 51
268.15123588142
  0
ARC
  5
95
330
1E
100
AcDbEntity
  8
OBJ
100
AcDbCircle
 10
-2.726366623143666
 20
3.852281487606031
 30
0.0
 40
0.63
100
AcDbArc
 50
90.0
 51
270.0
  0
ARC
  5
96
330
1E
100
AcDbEntity
  8
OBJ
100
AcDbCircle
 10
-2.726366623143666
 20
3.852281487606031
 30
0.0
 40
0.63
100
AcDbArc
 50
90.0
 51
270.0
  0
LINE
  5
97
330
1E
100
AcDbEntity
  8
OBJ
100
AcDbLine
 10
-3.032980549288543
 20
3.301928963950491
 30
0.0
 11
-3.788866623143666
 21
3.498281487606032
 31
0.0
  0
LINE
  5
98
330
1E
100
AcDbEntity
  8
OBJ
100
AcDbLine
 10
-3.032980549288543
 20
4.402634011261575
 30
0.0
 11
-3.788866623143666
 21
4.20628148760603
 31
0.0
  0
ARC
  5
99
330
1E
100
AcDbEntity
  8
OBJ
 62
     5
100
AcDbCircle
 10
-2.726266623143663
 20
3.852281487606031
 30
0.0
 40
0.7874
100
AcDbArc
 50
90.0
 51
143.807967210609
  0
ARC
  5
9A
330
1E
100
AcDbEntity
  8
OBJ
 62
     7
100
AcDbCircle
 10
-2.726266623143663
 20
3.852281487606031
 30
0.0
 40
0.8374
100
AcDbArc
 50
90.0
 51
147.8265246966677
  0
CIRCLE
  5
9B
330
1E
100
AcDbEntity
  8
OBJ
100
AcDbCircle
 10
-2.726366623143666
 20
3.852281487606031
 30
0.0
 40
0.4920000000000001
  0
CIRCLE
  5
9C
330
1E
100
AcDbEntity
  8
OBJ
100
AcDbCircle
 10
-2.726366623143666
 20
3.852281487606031
 30
0.0
 40
0.5455307121354922
  0
ARC
  5
9D
330
1E
100
AcDbEntity
  8
0
 62
     7
100
AcDbCircle
 10
-1.588450692080401
 20
24.9975316397781
 30
0.0
 40
23.23925051103946
100
AcDbArc
 50
264.5179512656526
 51
267.2847035825155
  0
LINE
  5
9E
330
1E
100
AcDbEntity
  8
0
100
AcDbLine
 10
-3.383724808888773
 20
2.975319162223453
 30
0.0
 11
-3.79636662314367
 21
2.120281487606032
 31
0.0
  0
ARC
  5
9F
330
1E
100
AcDbEntity
  8
0
 62
     7
100
AcDbCircle
 10
16.89390285615309
 20
3.85055665137413
 30
0.0
 40
21.01826955006993
100
AcDbArc
 50
180.3055872643352
 51
184.751067868466
  0
LINE
  5
A0
330
1E
100
AcDbEntity
  8
OBJ
 62
     7
100
AcDbLine
 10
-4.604382623143637
 20
2.768715592521768
 30
0.0
 11
-4.604382623143637
 21
2.851368543310993
 31
0.0
  0
ARC
  5
A1
330
1E
100
AcDbEntity
  8
OBJ
 62
     7
100
AcDbCircle
 10
-4.547163341617549
 20
2.797584543310986
 30
0.0
 40
0.0572192815260978
100
AcDbArc
 50
109.9546783938691
 51
250.0453216061316
  0
LINE
  5
A2
330
1E
100
AcDbEntity
  8
OBJ
 62
     7
100
AcDbLine
 10
-4.407174623143648
 20
2.743800543310978
 30
0.0
 11
-4.407174623143648
 21
3.178853343311001
 31
0.0
  0
LINE
  5
A3
330
1E
100
AcDbEntity
  8
0
 62
     7
100
AcDbLine
 10
-4.14336662314365
 20
2.267281487606037
 30
0.0
 11
-4.14336662314365
 21
3.852281487606031
 31
0.0
  0
LINE
  5
A4
330
1E
100
AcDbEntity
  8
0
 62
     7
100
AcDbLine
 10
-4.299366623143642
 20
2.267281487606037
 30
0.0
 11
-4.14336662314365
 21
2.267281487606037
 31
0.0
  0
ARC
  5
A5
330
1E
100
AcDbEntity
  8
0
 62
     7
100
AcDbCircle
 10
-4.299366623143642
 20
2.32728148760604
 30
0.0
 40
0.06
100
AcDbArc
 50
179.9999999999998
 51
270.0
  0
LINE
  5
A6
330
1E
100
AcDbEntity
  8
OBJ
  6
Continuous
 62
     7
100
AcDbLine
 10
-4.407174623143648
 20
2.743800543310978
 30
0.0
 11
-4.566690950850686
 21
2.743800543310978
 31
0.0
  0
LINE
  5
A7
330
1E
100
AcDbEntity
  8
OBJ
 62
     7
100
AcDbLine
 10
-4.604382623143637
 20
2.768715592521768
 30
0.0
 11
-4.581162699384622
 21
2.751561833158401
 31
0.0
  0
LINE
  5
A8
330
1E
100
AcDbEntity
  8
OBJ
  6
CENTER2
 62
     7
100
AcDbLine
 10
-4.359366623143644
 20
2.761130943310998
 30
0.0
 11
-4.407174623143648
 21
2.761130943310998
 31
0.0
  0
ARC
  5
A9
330
1E
100
AcDbEntity
  8
0
 62
     7
100
AcDbCircle
 10
-3.79636662314367
 20
2.120281487606018
 30
0.0
 40
0.256
100
AcDbArc
 50
182.3731829833858
 51
267.2640102168448
  0
LINE
  5
AA
330
1E
100
AcDbEntity
  8
0
 62
     7
100
AcDbLine
 10
-4.143366623143649
 20
2.267281487606037
 30
0.0
 11
-4.120213683962219
 21
2.267281487606037
 31
0.0
  0
ARC
  5
AB
330
1E
100
AcDbEntity
  8
0
 62
     7
100
AcDbCircle
 10
-4.120213683962219
 20
2.207281487606035
 30
0.0
 40
0.06
100
AcDbArc
 50
4.471352240550112
 51
90.0
  0
LINE
  5
AC
330
1E
100
AcDbEntity
  8
0
 62
     7
100
AcDbLine
 10
-4.14336662314365
 20
2.267281487606037
 30
0.0
 11
-4.120213683962221
 21
2.267281487606037
 31
0.0
  0
ARC
  5
AD
330
1E
100
AcDbEntity
  8
0
 62
     7
100
AcDbCircle
 10
-4.120213683962221
 20
2.207281487606035
 30
0.0
 40
0.06
100
AcDbArc
 50
65.53623510698028
 51
90.0
  0
LINE
  5
AE
330
1E
100
AcDbEntity
  8
0
 62
     7
100
AcDbLine
 10
-4.684366623143647
 20
4.245281487606018
 30
0.0
 11
-4.684366623143647
 21
3.45928148760603
 31
0.0
  0
LINE
  5
AF
330
1E
100
AcDbEntity
  8
0
 62
     7
100
AcDbLine
 10
-4.594366623143644
 20
4.543225343561626
 30
0.0
 11
-4.594366623143644
 21
3.161337631650436
 31
0.0
  0
LINE
  5
B0
330
1E
100
AcDbEntity
  8
0
 62
     7
100
AcDbLine
 10
-4.594366623143644
 20
3.45928148760603
 30
0.0
 11
-4.684366623143647
 21
3.45928148760603
 31
0.0
  0
LINE
  5
B1
330
1E
100
AcDbEntity
  8
OBJ
 62
     7
100
AcDbLine
 10
-4.604382623143637
 20
3.15393829410021
 30
0.0
 11
-4.581162699384622
 21
3.171092053463578
 31
0.0
  0
LINE
  5
B2
330
1E
100
AcDbEntity
  8
OBJ
 62
     7
100
AcDbLine
 10
-4.604382623143637
 20
3.071285343310986
 30
0.0
 11
-4.604382623143637
 21
3.15393829410021
 31
0.0
  0
ARC
  5
B3
330
1E
100
AcDbEntity
  8
OBJ
 62
     7
100
AcDbCircle
 10
-4.547163341617549
 20
3.125069343310993
 30
0.0
 40
0.0572192815260978
100
AcDbArc
 50
109.9546783938683
 51
250.0453216061308
  0
LINE
  5
B4
330
1E
100
AcDbEntity
  8
OBJ
  6
Continuous
 62
     7
100
AcDbLine
 10
-4.407174623143648
 20
3.178853343311001
 30
0.0
 11
-4.566690950850686
 21
3.178853343311001
 31
0.0
  0
LINE
  5
B5
330
1E
100
AcDbEntity
  8
OBJ
  6
Continuous
 62
     7
100
AcDbLine
 10
-4.407174623143648
 20
3.071285343310986
 30
0.0
 11
-4.566690950850686
 21
3.071285343310986
 31
0.0
  0
LINE
  5
B6
330
1E
100
AcDbEntity
  8
OBJ
  6
CENTER2
 62
     7
100
AcDbLine
 10
-4.359366623143644
 20
3.161522943310981
 30
0.0
 11
-4.407174623143648
 21
3.161522943310981
 31
0.0
  0
LINE
  5
B7
330
1E
100
AcDbEntity
  8
OBJ
  6
Continuous
 62
     7
100
AcDbLine
 10
-4.407174623143648
 20
2.851368543310993
 30
0.0
 11
-4.566690950850686
 21
2.851368543310993
 31
0.0
  0
LINE
  5
B8
330
1E
100
AcDbEntity
  8
OBJ
 62
     7
100
AcDbLine
 10
-4.359366623143644
 20
2.91293438028978
 30
0.0
 11
-4.407174623143648
 21
2.865126380289805
 31
0.0
  0
ARC
  5
B9
330
1E
100
AcDbEntity
  8
OBJ
 62
     7
100
AcDbCircle
 10
-4.425145260235114
 20
2.961326943311004
 30
0.0
 40
0.1792373629085269
100
AcDbArc
 50
142.1584983941729
 51
217.8415016058311
  0
LINE
  5
BA
330
1E
100
AcDbEntity
  8
OBJ
 62
     7
100
AcDbLine
 10
-4.604382623143637
 20
2.851368543310993
 30
0.0
 11
-4.604382623143637
 21
3.071285343310986
 31
0.0
  0
LINE
  5
BB
330
1E
100
AcDbEntity
  8
0
 62
     7
100
AcDbLine
 10
-4.594366623143644
 20
4.245281487606032
 30
0.0
 11
-4.684366623143647
 21
4.245281487606018
 31
0.0
  0
LINE
  5
BC
330
1E
100
AcDbEntity
  8
OBJ
  6
CENTER2
 62
     7
100
AcDbLine
 10
-4.359366623143644
 20
4.543040031901082
 30
0.0
 11
-4.407174623143648
 21
4.543040031901082
 31
0.0
  0
LINE
  5
BD
330
1E
100
AcDbEntity
  8
OBJ
  6
Continuous
 62
     7
100
AcDbLine
 10
-4.407174623143648
 20
4.633277631901076
 30
0.0
 11
-4.566690950850686
 21
4.633277631901076
 31
0.0
  0
LINE
  5
BE
330
1E
100
AcDbEntity
  8
OBJ
  6
Continuous
 62
     7
100
AcDbLine
 10
-4.407174623143648
 20
4.525709631901062
 30
0.0
 11
-4.566690950850686
 21
4.525709631901062
 31
0.0
  0
ARC
  5
BF
330
1E
100
AcDbEntity
  8
OBJ
 62
     7
100
AcDbCircle
 10
-4.547163341617549
 20
4.579493631901069
 30
0.0
 40
0.0572192815260978
100
AcDbArc
 50
109.9546783938691
 51
250.0453216061316
  0
LINE
  5
C0
330
1E
100
AcDbEntity
  8
OBJ
 62
     7
100
AcDbLine
 10
-4.604382623143637
 20
4.633277631901076
 30
0.0
 11
-4.604382623143637
 21
4.550624681111852
 31
0.0
  0
LINE
  5
C1
330
1E
100
AcDbEntity
  8
OBJ
 62
     7
100
AcDbLine
 10
-4.604382623143637
 20
4.550624681111852
 30
0.0
 11
-4.581162699384622
 21
4.533470921748484
 31
0.0
  0
ARC
  5
C2
330
1E
100
AcDbEntity
  8
0
 62
     7
100
AcDbCircle
 10
-4.738672744193552
 20
4.192146959884322
 30
0.0
 40
0.0207757925110313
100
AcDbArc
 50
270.0
 51
313.5190476187935
  0
LINE
  5
C3
330
1E
100
AcDbEntity
  8
0
 62
     7
100
AcDbLine
 10
-4.724366623143668
 20
4.177081487606042
 30
0.0
 11
-4.684366623143647
 21
4.177081487606027
 31
0.0
  0
LINE
  5
C4
330
1E
100
AcDbEntity
  8
0
 62
     7
100
AcDbLine
 10
-4.738672744193552
 20
4.17137116737329
 30
0.0
 11
-4.740044611425746
 21
4.17137116737329
 31
0.0
  0
LINE
  5
C5
330
1E
100
AcDbEntity
  8
OBJ
100
AcDbLine
 10
-3.788866623143674
 20
4.107105962303368
 30
0.0
 11
-3.788866623143674
 21
3.597457012908698
 31
0.0
  0
CIRCLE
  5
C6
330
1E
100
AcDbEntity
  8
0
100
AcDbCircle
 10
-3.788866623143674
 20
3.852281487606031
 30
0.0
 40
0.1258358569867779
  0
CIRCLE
  5
C7
330
1E
100
AcDbEntity
  8
OBJ
100
AcDbCircle
 10
-3.788866623143666
 20
3.852281487606031
 30
0.0
 40
0.354
  0
CIRCLE
  5
D0
330
1E
100
AcDbEntity
  8
0
100
AcDbCircle
 10
-3.788866623143674
 20
3.852281487606031
 30
0.0
 40
0.255
  0
CIRCLE
  5
D1
330
1E
100
AcDbEntity
  8
0
100
AcDbCircle
 10
-3.788866623143674
 20
3.852281487606031
 30
0.0
 40
0.165
  0
LINE
  5
D2
330
1E
100
AcDbEntity
  8
0
100
AcDbLine
 10
-3.979284204303395
 20
3.027281487606032
 30
0.0
 11
-3.685827904317459
 21
3.027281487606032
 31
0.0
  0
LINE
  5
D3
330
1E
100
AcDbEntity
  8
0
100
AcDbLine
 10
-4.059284204303395
 20
3.59228148760603
 30
0.0
 11
-4.044337013855662
 21
3.607228678053761
 31
0.0
  0
ARC
  5
D4
330
1E
100
AcDbEntity
  8
0
100
AcDbCircle
 10
-3.979284204303395
 20
3.047281487606031
 30
0.0
 40
0.02
100
AcDbArc
 50
180.0
 51
270.0
  0
LINE
  5
D5
330
1E
100
AcDbEntity
  8
0
100
AcDbLine
 10
-3.999284204303394
 20
3.122281487606031
 30
0.0
 11
-4.019284204303394
 21
3.122281487606031
 31
0.0
  0
LINE
  5
D6
330
1E
100
AcDbEntity
  8
0
100
AcDbLine
 10
-4.019284204303394
 20
3.122281487606031
 30
0.0
 11
-4.059284204303393
 21
3.16228148760603
 31
0.0
  0
LINE
  5
D7
330
1E
100
AcDbEntity
  8
0
100
AcDbLine
 10
-3.999284204303394
 20
3.567605458515259
 30
0.0
 11
-3.999284204303394
 21
3.047281487606031
 31
0.0
  0
LINE
  5
D8
330
1E
100
AcDbEntity
  8
0
100
AcDbLine
 10
-4.059284204303395
 20
3.59228148760603
 30
0.0
 11
-4.059284204303393
 21
3.16228148760603
 31
0.0
  0
LINE
  5
D9
330
1E
100
AcDbEntity
  8
0
100
AcDbLine
 10
-4.019284204303396
 20
3.583536741996933
 30
0.0
 11
-4.019284204303394
 21
3.122281487606031
 31
0.0
  0
LINE
  5
DA
330
1E
100
AcDbEntity
  8
0
100
AcDbLine
 10
-3.999284204303396
 20
3.567605458515263
 30
0.0
 11
-3.999284204303394
 21
3.122281487606031
 31
0.0
  0
ARC
  5
DB
330
1E
100
AcDbEntity
  8
0
100
AcDbCircle
 10
-3.685827904317459
 20
2.997281487606031
 30
0.0
 40
0.03
100
AcDbArc
 50
41.69020623295334
 51
90.0
  0
LINE
  5
DC
330
1E
100
AcDbEntity
  8
0
100
AcDbLine
 10
-3.668335224804259
 20
3.063359152733671
 30
0.0
 11
-3.668335224804259
 21
3.466971684366807
 31
0.0
  0
ARC
  5
DD
330
1E
100
AcDbEntity
  8
OBJ
 62
     5
100
AcDbCircle
 10
-2.293226623143665
 20
2.710171487606029
 30
0.0
 40
0.11811
100
AcDbArc
 50
359.9999999999998
 51
90.0
  0
ARC
  5
DE
330
1E
100
AcDbEntity
  8
OBJ
 62
     5
100
AcDbCircle
 10
-2.450304637154934
 20
3.103871487606028
 30
0.0
 40
0.27559
100
AcDbArc
 50
223.461682696778
 51
270.0
  0
ARC
  5
DF
330
1E
100
AcDbEntity
  8
OBJ
 62
     5
100
AcDbCircle
 10
-1.179305021906023
 20
2.946391487606032
 30
0.0
 40
0.11811
100
AcDbArc
 50
180.0
 51
269.9999999999997
  0
ARC
  5
E0
330
1E
100
AcDbEntity
  8
OBJ
 62
     5
100
AcDbCircle
 10
-1.989828224381311
 20
2.946391487606032
 30
0.0
 40
0.11811
100
AcDbArc
 50
270.0000000000002
 51
0.0
  0
LINE
  5
E1
330
1E
100
AcDbEntity
  8
0
  6
ByBlock
 62
     5
100
AcDbLine
 10
-1.584566623143663
 20
3.021665828271462
 30
0.0
 11
-1.584566623143663
 21
2.309799553760463
 31
0.0
  0
LINE
  5
E2
330
1E
100
AcDbEntity
  8
0
100
AcDbLine
 10
-2.689366623143571
 20
2.952599428188776
 30
0.0
 11
-2.689366623143671
 21
1.686281487606049
 31
0.0
  0
LINE
  5
E3
330
1E
100
AcDbEntity
  8
OBJ
 62
     5
100
AcDbLine
 10
-2.450304637154934
 20
2.82828148760603
 30
0.0
 11
-1.989828224381311
 21
2.82828148760603
 31
0.0
  0
LINE
  5
E4
330
1E
100
AcDbEntity
  8
OBJ
 62
     5
100
AcDbLine
 10
-2.11606162314367
 20
2.592481487606029
 30
0.0
 11
-1.053071623143663
 21
2.592481487606029
 31
0.0
  0
LINE
  5
E6
330
1E
100
AcDbEntity
  8
0
 62
     7
100
AcDbLine
 10
-2.175366623143661
 20
1.099281487606017
 30
0.0
 11
-2.055366623143656
 21
1.219281487606021
 31
0.0
  0
LINE
  5
E7
330
1E
100
AcDbEntity
  8
0
100
AcDbLine
 10
-2.812137747442397
 20
1.372281487606041
 30
0.0
 11
-2.478137747442394
 21
1.372281487606041
 31
0.0
  0
LINE
  5
E9
330
1E
100
AcDbEntity
  8
0
 62
     7
100
AcDbLine
 10
-2.689366623143671
 20
1.686281487606049
 30
0.0
 11
-2.568366623143662
 21
1.686281487606049
 31
0.0
  0
ARC
  5
EA
330
1E
100
AcDbEntity
  8
0
 62
     7
100
AcDbCircle
 10
-2.729366623143663
 20
1.788287221835215
 30
0.0
 40
0.04
100
AcDbArc
 50
0.0
 51
90.0
  0
LINE
  5
EB
330
1E
100
AcDbEntity
  8
0
 62
     7
100
AcDbLine
 10
-2.175366623143661
 20
1.099281487606017
 30
0.0
 11
-2.175366623143661
 21
0.8992814876060712
 31
0.0
  0
LINE
  5
EC
330
1E
100
AcDbEntity
  8
0
 62
     7
100
AcDbLine
 10
-2.568366623143662
 20
1.686281487606049
 30
0.0
 11
-2.568366623143662
 21
0.8992814876060712
 31
0.0
  0
LINE
  5
ED
330
1E
100
AcDbEntity
  8
0
 62
     7
100
AcDbLine
 10
-2.175366623143661
 20
0.8992814876060428
 30
0.0
 11
-2.568366623143662
 21
0.8992814876060428
 31
0.0
  0
LINE
  5
EE
330
1E
100
AcDbEntity
  8
OBJ
 62
     5
100
AcDbLine
 10
-2.175116623143663
 20
2.710171487606029
 30
0.0
 11
-2.17511662314367
 21
2.65153648760603
 31
0.0
  0
ARC
  5
EF
330
1E
100
AcDbEntity
  8
OBJ
 62
     5
100
AcDbCircle
 10
-2.11606162314367
 20
2.65153648760603
 30
0.0
 40
0.059055
100
AcDbArc
 50
179.9999999999998
 51
270.0
  0
LINE
  5
F4
330
1E
100
AcDbEntity
  8
0
 62
     7
100
AcDbLine
 10
-2.017092796556884
 20
1.219281487606021
 30
0.0
 11
-2.055366623143656
 21
1.219281487606021
 31
0.0
  0
LINE
  5
F5
330
1E
100
AcDbEntity
  8
0
 62
     7
100
AcDbLine
 10
-1.113366623143678
 20
1.219281487606021
 30
0.0
 11
-1.152040449730442
 21
1.219281487606021
 31
0.0
  0
LINE
  5
FA
330
1E
100
AcDbEntity
  8
0
  6
ByBlock
 62
     5
100
AcDbLine
 10
-1.584566623143663
 20
2.52948148760603
 30
0.0
 11
-1.584566623143663
 21
2.314097214709651
 31
0.0
  0
LINE
  5
FB
330
1E
100
AcDbEntity
  8
0
  6
ByBlock
 62
     5
100
AcDbLine
 10
-1.584566623143663
 20
2.52948148760603
 30
0.0
 11
-1.584566623143663
 21
2.275845582316026
 31
0.0
  0
ARC
  5
100
330
1E
100
AcDbEntity
  8
OBJ
100
AcDbCircle
 10
-2.09897758439097
 20
3.63628148760603
 30
0.0
 40
0.118
100
AcDbArc
 50
90.0
 51
161.0022346602754
  0
ARC
  5
101
330
1E
100
AcDbEntity
  8
OBJ
100
AcDbCircle
 10
-2.09897758439097
 20
4.068281487606032
 30
0.0
 40
0.118
100
AcDbArc
 50
198.9977653397245
 51
270.0
  0
LINE
  5
102
330
1E
100
AcDbEntity
  8
OBJ
100
AcDbLine
 10
-2.726366623143666
 20
4.260942630917181
 30
0.0
 11
-2.726366623143666
 21
3.444549854655267
 31
0.0
  0
CIRCLE
  5
103
330
1E
100
AcDbEntity
  8
OBJ
100
AcDbCircle
 10
-2.726366623143666
 20
3.852281487606031
 30
0.0
 40
0.3345
  0
LINE
  5
104
330
1E
100
AcDbEntity
  8
OBJ
 62
     5
100
AcDbLine
 10
-3.049827249511004
 20
3.306305142078866
 30
0.0
 11
-2.650337382142435
 21
2.91430158220761
 31
0.0
  0
LINE
  5
105
330
1E
100
AcDbEntity
  8
OBJ
 62
     5
100
AcDbLine
 10
-2.726266623143663
 20
4.639681487606029
 30
0.0
 11
-2.212368328741993
 21
4.639681487606029
 31
0.0
  0
LINE
  5
106
330
1E
100
AcDbEntity
  8
OBJ
100
AcDbLine
 10
-2.337984212488946
 20
4.482281487606034
 30
0.0
 11
-2.726366623143666
 21
4.482281487606034
 31
0.0
  0
LINE
  5
107
330
1E
100
AcDbEntity
  8
OBJ
 62
     7
100
AcDbLine
 10
-2.726266623143663
 20
4.68968148760603
 30
0.0
 11
-2.212368328741993
 21
4.68968148760603
 31
0.0
  0
ARC
  5
108
330
1E
100
AcDbEntity
  8
OBJ
100
AcDbCircle
 10
-2.337984212488946
 20
4.600281487606032
 30
0.0
 40
0.118
100
AcDbArc
 50
270.0
 51
347.3604090492762
  0
ARC
  5
109
330
1E
100
AcDbEntity
  8
OBJ
100
AcDbCircle
 10
-1.622607400968474
 20
4.24039622418353
 30
0.0
 40
0.3813414161843022
100
AcDbArc
 50
282.7778340684913
 51
344.6908253838738
  0
ARC
  5
10A
330
1E
100
AcDbEntity
  8
OBJ
100
AcDbCircle
 10
-1.54612584531886
 20
4.24039622418353
 30
0.0
 40
0.3813414161843022
100
AcDbArc
 50
195.3091746161261
 51
257.2221659315086
  0
LINE
  5
10B
330
1E
100
AcDbEntity
  8
0
 62
     7
100
AcDbLine
 10
-1.584366623143667
 20
3.559083722434092
 30
0.0
 11
-1.584366623143667
 21
4.14547925277797
 31
0.0
  0
LINE
  5
10C
330
1E
100
AcDbEntity
  8
OBJ
100
AcDbLine
 10
-2.09897758439097
 20
3.754281487606032
 30
0.0
 11
-1.069755661896364
 21
3.754281487606032
 31
0.0
  0
LINE
  5
10D
330
1E
100
AcDbEntity
  8
OBJ
 62
     5
100
AcDbLine
 10
-1.871718224381316
 20
3.144859118154794
 30
0.0
 11
-1.871718224381316
 21
2.946391487606032
 31
0.0
  0
ARC
  5
10E
330
1E
100
AcDbEntity
  8
OBJ
 62
     5
100
AcDbCircle
 10
-1.989828224381311
 20
3.144859118154794
 30
0.0
 40
0.11811
100
AcDbArc
 50
0.0
 51
32.52416816298538
  0
LINE
  5
10F
330
1E
100
AcDbEntity
  8
OBJ
 62
     5
100
AcDbLine
 10
-1.297415021906017
 20
3.144859118154794
 30
0.0
 11
-1.297415021906017
 21
2.946391487606032
 31
0.0
  0
ARC
  5
110
330
1E
100
AcDbEntity
  8
OBJ
 62
     5
100
AcDbCircle
 10
-1.179305021906023
 20
3.144859118154794
 30
0.0
 40
0.11811
100
AcDbArc
 50
147.4758318370145
 51
180.0
  0
LINE
  5
111
330
1E
100
AcDbEntity
  8
OBJ
100
AcDbLine
 10
-2.09897758439097
 20
3.950281487606034
 30
0.0
 11
-1.874758622185963
 21
3.950281487606034
 31
0.0
  0
ARC
  5
112
330
1E
100
AcDbEntity
  8
OBJ
100
AcDbCircle
 10
-2.21168649512551
 20
4.08506949527155
 30
0.0
 40
0.3027234100707953
100
AcDbArc
 50
10.39898734023766
 51
62.66801647752791
  0
ARC
  5
113
330
1E
100
AcDbEntity
  8
OBJ
100
AcDbCircle
 10
-0.9570467511618243
 20
4.08506949527155
 30
0.0
 40
0.3027234100707953
100
AcDbArc
 50
117.331983522472
 51
169.6010126597623
  0
LINE
  5
114
330
1E
100
AcDbEntity
  8
OBJ
100
AcDbLine
 10
-1.069755661896365
 20
3.950281487606034
 30
0.0
 11
-1.293974624101375
 21
3.950281487606034
 31
0.0
  0
ARC
  5
115
330
1E
100
AcDbEntity
  8
0
 62
     7
100
AcDbCircle
 10
-1.588450692080401
 20
-17.29296866456603
 30
0.0
 40
23.23925051103946
100
AcDbArc
 50
92.39268520453952
 51
95.48204873434734
  0
LINE
  5
116
330
1E
100
AcDbEntity
  8
0
 62
     7
100
AcDbLine
 10
-4.299366623143642
 20
5.437281487606025
 30
0.0
 11
-4.14336662314365
 21
5.437281487606025
 31
0.0
  0
ARC
  5
117
330
1E
100
AcDbEntity
  8
0
 62
     7
100
AcDbCircle
 10
-4.299366623143642
 20
5.377281487606023
 30
0.0
 40
0.06
100
AcDbArc
 50
90.0
 51
180.0000000000001
  0
LINE
  5
118
330
1E
100
AcDbEntity
  8
OBJ
  6
CENTER2
 62
     7
100
AcDbLine
 10
-4.359366623143644
 20
4.943432031901064
 30
0.0
 11
-4.407174623143648
 21
4.943432031901064
 31
0.0
  0
LINE
  5
119
330
1E
100
AcDbEntity
  8
OBJ
 62
     7
100
AcDbLine
 10
-4.604382623143637
 20
4.935847382690294
 30
0.0
 11
-4.581162699384622
 21
4.953001142053661
 31
0.0
  0
ARC
  5
11A
330
1E
100
AcDbEntity
  8
OBJ
 62
     7
100
AcDbCircle
 10
-4.547163341617549
 20
4.906978431901077
 30
0.0
 40
0.0572192815260978
100
AcDbArc
 50
109.9546783938683
 51
250.0453216061308
  0
LINE
  5
11B
330
1E
100
AcDbEntity
  8
OBJ
  6
Continuous
 62
     7
100
AcDbLine
 10
-4.407174623143648
 20
4.960762431901084
 30
0.0
 11
-4.566690950850686
 21
4.960762431901084
 31
0.0
  0
LINE
  5
11C
330
1E
100
AcDbEntity
  8
OBJ
  6
Continuous
 62
     7
100
AcDbLine
 10
-4.407174623143648
 20
4.853194431901069
 30
0.0
 11
-4.566690950850686
 21
4.853194431901069
 31
0.0
  0
LINE
  5
11D
330
1E
100
AcDbEntity
  8
OBJ
 62
     7
100
AcDbLine
 10
-4.604382623143637
 20
4.935847382690294
 30
0.0
 11
-4.604382623143637
 21
4.853194431901069
 31
0.0
  0
ARC
  5
11E
330
1E
100
AcDbEntity
  8
0
 62
     7
100
AcDbCircle
 10
-3.79636662314367
 20
5.58428148760603
 30
0.0
 40
0.256
100
AcDbArc
 50
92.73598978322043
 51
178.852860797374
  0
ARC
  5
11F
330
1E
100
AcDbEntity
  8
0
 62
     7
100
AcDbCircle
 10
-4.120213683962221
 20
5.497281487606027
 30
0.0
 40
0.06
100
AcDbArc
 50
270.0
 51
355.5286477594498
  0
LINE
  5
120
330
1E
100
AcDbEntity
  8
0
 62
     7
100
AcDbLine
 10
-4.14336662314365
 20
5.437281487606025
 30
0.0
 11
-4.120213683962221
 21
5.437281487606025
 31
0.0
  0
ARC
  5
121
330
1E
100
AcDbEntity
  8
OBJ
100
AcDbCircle
 10
-2.095366623143666
 20
4.876281487606032
 30
0.0
 40
0.078
100
AcDbArc
 50
90.0
 51
170.8752539683341
  0
ARC
  5
122
330
1E
100
AcDbEntity
  8
0
 62
     7
100
AcDbCircle
 10
-1.751146783047794
 20
6.724768186128244
 30
0.0
 40
1.628924440761939
100
AcDbArc
 50
253.6072029128383
 51
263.0525820579371
  0
ARC
  5
123
330
1E
100
AcDbEntity
  8
0
 62
     7
100
AcDbCircle
 10
-2.07150591277241
 20
5.101968514616782
 30
0.0
 40
0.9902978044496235
100
AcDbArc
 50
60.53367614028672
 51
119.4663238597132
  0
LINE
  5
124
330
1E
100
AcDbEntity
  8
0
 62
     7
100
AcDbLine
 10
-2.558645202401153
 20
5.732266319066408
 30
0.0
 11
-2.558645202401153
 21
6.092266319066407
 31
0.0
  0
ARC
  5
125
330
1E
100
AcDbEntity
  8
0
 62
     7
100
AcDbCircle
 10
-2.33097991928807
 20
5.779046973501902
 30
0.0
 40
0.083
100
AcDbArc
 50
214.30667891419
 51
247.6510764500562
  0
ARC
  5
126
330
1E
100
AcDbEntity
  8
0
 62
     7
100
AcDbCircle
 10
-2.374847432633636
 20
5.346362801411551
 30
0.0
 40
0.0955191905100179
100
AcDbArc
 50
207.5461752420887
 51
234.6171765772657
  0
ARC
  5
127
330
1E
100
AcDbEntity
  8
0
 62
     7
100
AcDbCircle
 10
-2.002353025139088
 20
5.870846270473993
 30
0.0
 40
0.7388192705150544
100
AcDbArc
 50
234.6171765772709
 51
247.793242016482
  0
ARC
  5
128
330
1E
100
AcDbEntity
  8
0
 62
     7
100
AcDbCircle
 10
-2.002353025139175
 20
5.870846270473972
 30
0.0
 40
0.7388192705149985
100
AcDbArc
 50
251.6238501706437
 51
253.6072029128416
  0
LINE
  5
129
330
1E
100
AcDbEntity
  8
0
 62
     7
100
AcDbLine
 10
-2.470366623143663
 20
5.70228148760604
 30
0.0
 11
-2.470366623143663
 21
5.444313383954575
 31
0.0
  0
ARC
  5
12A
330
1E
100
AcDbEntity
  8
0
 62
     7
100
AcDbCircle
 10
-2.570366623143643
 20
5.444313383954575
 30
0.0
 40
0.1
100
AcDbArc
 50
281.6197653345056
 51
0.0
  0
ARC
  5
12B
330
1E
100
AcDbEntity
  8
OBJ
 62
     7
100
AcDbCircle
 10
-2.304366623143666
 20
6.116921543694825
 30
0.0
 40
0.06
100
AcDbArc
 50
100.2136559582149
 51
179.9999999999982
  0
LINE
  5
12C
330
1E
100
AcDbEntity
  8
OBJ
 62
     7
100
AcDbLine
 10
-2.364366623143668
 20
6.092266319066407
 30
0.0
 11
-2.364366623143668
 21
6.116921543694825
 31
0.0
  0
LINE
  5
12D
330
1E
100
AcDbEntity
  8
0
 62
     7
100
AcDbLine
 10
-1.584366623143667
 20
5.964166319066404
 30
0.0
 11
-1.584366623143667
 21
5.732266319066408
 31
0.0
  0
LINE
  5
12E
330
1E
100
AcDbEntity
  8
OBJ
100
AcDbLine
 10
-2.095366623143666
 20
4.954281487606035
 30
0.0
 11
-1.073366623143668
 21
4.954281487606031
 31
0.0
  0
ARC
  5
12F
330
1E
100
AcDbEntity
  8
0
 62
     7
100
AcDbCircle
 10
-1.584366623143667
 20
8.093466726829266
 30
0.0
 40
3.007746879314015
100
AcDbArc
 50
270.0
 51
276.9474179420666
  0
ARC
  5
130
330
1E
100
AcDbEntity
  8
0
 62
     7
100
AcDbCircle
 10
-1.584366623143667
 20
8.093466726831703
 30
0.0
 40
3.007746879316454
100
AcDbArc
 50
263.0525820579405
 51
270.0
  0
POINT
  5
131
330
1E
100
AcDbEntity
  8
DEFPOINTS
  6
ByBlock
 62
     0
100
AcDbPoint
 10
-1.073366623143668
 20
4.954281487606031
 30
0.0
  0
LINE
  5
13D
330
1E
100
AcDbEntity
  8
OBJ
100
AcDbLine
 10
-0.9963536814575899
 20
4.888651079873216
 30
0.0
 11
-0.9458893974471305
 21
4.574461017842018
 31
0.0
  0
LINE
  5
13E
330
1E
100
AcDbEntity
  8
OBJ
 62
     7
100
AcDbLine
 10
1.190633376856322
 20
4.791628594922283
 30
0.0
 11
1.238441376856325
 21
4.839436594922258
 31
0.0
  0
LINE
  5
13F
330
1E
100
AcDbEntity
  8
OBJ
 62
     7
100
AcDbLine
 10
1.238441376856325
 20
4.960762431901084
 30
0.0
 11
1.238441376856325
 21
4.525709631901062
 31
0.0
  0
LINE
  5
140
330
1E
100
AcDbEntity
  8
OBJ
 62
     7
100
AcDbLine
 10
1.435649376856312
 20
4.853194431901069
 30
0.0
 11
1.435649376856312
 21
4.633277631901076
 31
0.0
  0
ARC
  5
141
330
1E
100
AcDbEntity
  8
OBJ
 62
     7
100
AcDbCircle
 10
1.256412013947791
 20
4.743236031901059
 30
0.0
 40
0.1792373629085269
100
AcDbArc
 50
322.1584983941728
 51
37.84150160583113
  0
ARC
  5
142
330
1E
100
AcDbEntity
  8
0
 62
     7
100
AcDbCircle
 10
-20.06263610244042
 20
3.85055665137413
 30
0.0
 40
21.01826955006993
100
AcDbArc
 50
0.3151436089349304
 51
4.745526919767089
  0
LINE
  5
143
330
1E
100
AcDbEntity
  8
0
 62
     7
100
AcDbLine
 10
0.9746333768563282
 20
3.852281487606031
 30
0.0
 11
0.9746333768563282
 21
5.437281487606067
 31
0.0
  0
LINE
  5
144
330
1E
100
AcDbEntity
  8
0
100
AcDbLine
 10
0.2149915626014529
 20
4.72924381298861
 30
0.0
 11
0.6276333768563501
 21
5.58428148760603
 31
0.0
  0
LINE
  5
145
330
1E
100
AcDbEntity
  8
0
 62
     7
100
AcDbLine
 10
1.190633376856322
 20
2.32728148760604
 30
0.0
 11
1.190633376856322
 21
5.377281487606023
 31
0.0
  0
ARC
  5
146
330
1E
100
AcDbEntity
  8
0
 62
     7
100
AcDbCircle
 10
1.130633376856319
 20
2.32728148760604
 30
0.0
 40
0.06
100
AcDbArc
 50
270.0
 51
0.0000000000000799
  0
LINE
  5
147
330
1E
100
AcDbEntity
  8
0
100
AcDbLine
 10
0.2149915626014529
 20
2.975319162223453
 30
0.0
 11
0.6276333768563501
 21
2.120281487606032
 31
0.0
  0
ARC
  5
148
330
1E
100
AcDbEntity
  8
OBJ
 62
     5
100
AcDbCircle
 10
-0.8759066231436687
 20
2.710171487606029
 30
0.0
 40
0.11811
100
AcDbArc
 50
90.00000000000007
 51
180.0
  0
ARC
  5
149
330
1E
100
AcDbEntity
  8
OBJ
 62
     5
100
AcDbCircle
 10
-0.7188286091323999
 20
3.103871487606028
 30
0.0
 40
0.27559
100
AcDbArc
 50
270.0
 51
316.5383173032219
  0
LINE
  5
14A
330
1E
100
AcDbEntity
  8
0
100
AcDbLine
 10
-0.4793666231437524
 20
2.952991932321566
 30
0.0
 11
-0.4793666231436636
 21
1.686281487606049
 31
0.0
  0
ARC
  5
14B
330
1E
100
AcDbEntity
  8
0
 62
     7
100
AcDbCircle
 10
-20.06263610244042
 20
3.85055665137413
 30
0.0
 40
21.01826955006993
100
AcDbArc
 50
355.2489321315339
 51
359.6944127356647
  0
LINE
  5
14C
330
1E
100
AcDbEntity
  8
0
 62
     7
100
AcDbLine
 10
0.9746333768563282
 20
2.267281487606037
 30
0.0
 11
0.9746333768563282
 21
3.852281487606031
 31
0.0
  0
ARC
  5
14D
330
1E
100
AcDbEntity
  8
0
 62
     7
100
AcDbCircle
 10
-1.588450692080401
 20
24.9975316397781
 30
0.0
 40
23.23925051103946
100
AcDbArc
 50
272.7354575572241
 51
275.4745661591371
  0
LINE
  5
14E
330
1E
100
AcDbEntity
  8
0
100
AcDbLine
 10
-0.3569954988449293
 20
1.372281487606041
 30
0.0
 11
-0.6909954988449325
 21
1.372281487606041
 31
0.0
  0
ARC
  5
14F
330
1E
100
AcDbEntity
  8
0
 62
     7
100
AcDbCircle
 10
-0.4393666231436715
 20
1.788287221835215
 30
0.0
 40
0.04
100
AcDbArc
 50
90.0
 51
180.0
  0
LINE
  5
151
330
1E
100
AcDbEntity
  8
0
 62
     7
100
AcDbLine
 10
-0.6003666231436729
 20
1.686281487606049
 30
0.0
 11
-0.4793666231436636
 21
1.686281487606049
 31
0.0
  0
LINE
  5
152
330
1E
100
AcDbEntity
  8
0
 62
     7
100
AcDbLine
 10
-0.6003666231436729
 20
1.686281487606049
 30
0.0
 11
-0.6003666231436729
 21
0.8992814876060712
 31
0.0
  0
LINE
  5
153
330
1E
100
AcDbEntity
  8
0
 62
     7
100
AcDbLine
 10
-0.9933666231436735
 20
1.099281487606017
 30
0.0
 11
-0.9933666231436735
 21
0.8992814876060712
 31
0.0
  0
LINE
  5
154
330
1E
100
AcDbEntity
  8
0
 62
     7
100
AcDbLine
 10
-0.6003666231436729
 20
0.8992814876060428
 30
0.0
 11
-0.9933666231436735
 21
0.8992814876060428
 31
0.0
  0
LINE
  5
155
330
1E
100
AcDbEntity
  8
OBJ
 62
     5
100
AcDbLine
 10
-0.9940166231436702
 20
2.710171487606029
 30
0.0
 11
-0.9940166231436702
 21
2.65153648760603
 31
0.0
  0
POINT
  5
156
330
1E
100
AcDbEntity
  8
DEFPOINTS
  6
ByBlock
 62
     5
100
AcDbPoint
 10
-0.7188286091323999
 20
2.82828148760603
 30
0.0
  0
ARC
  5
157
330
1E
100
AcDbEntity
  8
0
 62
     7
100
AcDbCircle
 10
0.6276333768563358
 20
2.120281487606018
 30
0.0
 40
0.256
100
AcDbArc
 50
272.7359897831551
 51
357.626817016614
  0
LINE
  5
158
330
1E
100
AcDbEntity
  8
0
 62
     7
100
AcDbLine
 10
1.130633376856319
 20
2.267281487606037
 30
0.0
 11
0.9746333768563282
 21
2.267281487606037
 31
0.0
  0
ARC
  5
159
330
1E
100
AcDbEntity
  8
0
 62
     7
100
AcDbCircle
 10
0.9514804376748848
 20
2.207281487606035
 30
0.0
 40
0.06
100
AcDbArc
 50
90.0
 51
175.5286477594498
  0
LINE
  5
15A
330
1E
100
AcDbEntity
  8
0
 62
     7
100
AcDbLine
 10
0.974633376856314
 20
2.267281487606037
 30
0.0
 11
0.9514804376748848
 21
2.267281487606037
 31
0.0
  0
ARC
  5
15B
330
1E
100
AcDbEntity
  8
OBJ
 62
     5
100
AcDbCircle
 10
-0.4428666231436705
 20
3.852281487606031
 30
0.0
 40
0.7874
100
AcDbArc
 50
275.9685850808258
 51
323.796398799218
  0
ARC
  5
15C
330
1E
100
AcDbEntity
  8
OBJ
 62
     7
100
AcDbCircle
 10
-0.4428666231436705
 20
3.852281487606031
 30
0.0
 40
0.8374
100
AcDbArc
 50
271.8487641185803
 51
327.8164839978201
  0
ARC
  5
15D
330
1E
100
AcDbEntity
  8
OBJ
100
AcDbCircle
 10
-0.4423666231436681
 20
3.852281487606031
 30
0.0
 40
0.63
100
AcDbArc
 50
270.0
 51
90.0
  0
LINE
  5
15E
330
1E
100
AcDbEntity
  8
OBJ
100
AcDbLine
 10
-0.1357526969987912
 20
4.402634011261575
 30
0.0
 11
0.620133376856332
 21
4.20628148760603
 31
0.0
  0
LINE
  5
15F
330
1E
100
AcDbEntity
  8
OBJ
100
AcDbLine
 10
-0.1357526969987912
 20
3.301928963950491
 30
0.0
 11
0.620133376856332
 21
3.498281487606032
 31
0.0
  0
ARC
  5
160
330
1E
100
AcDbEntity
  8
OBJ
 62
     5
100
AcDbCircle
 10
-0.4428666231436634
 20
3.852281487606031
 30
0.0
 40
0.7874
100
AcDbArc
 50
36.20360120078173
 51
90.0
  0
ARC
  5
161
330
1E
100
AcDbEntity
  8
OBJ
 62
     7
100
AcDbCircle
 10
-0.4428666231436634
 20
3.852281487606031
 30
0.0
 40
0.8374
100
AcDbArc
 50
32.18351600217991
 51
88.16062206242795
  0
CIRCLE
  5
162
330
1E
100
AcDbEntity
  8
OBJ
100
AcDbCircle
 10
-0.4423666231436681
 20
3.852281487606031
 30
0.0
 40
0.5455307121354922
  0
LINE
  5
163
330
1E
100
AcDbEntity
  8
OBJ
100
AcDbLine
 10
-0.4423666231436681
 20
4.272203175632515
 30
0.0
 11
-0.4423666231436681
 21
3.444549854655267
 31
0.0
  0
CIRCLE
  5
164
330
1E
100
AcDbEntity
  8
OBJ
100
AcDbCircle
 10
-0.4423666231436681
 20
3.852281487606031
 30
0.0
 40
0.3345
  0
CIRCLE
  5
165
330
1E
100
AcDbEntity
  8
OBJ
100
AcDbCircle
 10
-0.4423666231436681
 20
3.852281487606031
 30
0.0
 40
0.4920000000000001
  0
LINE
  5
166
330
1E
100
AcDbEntity
  8
OBJ
 62
     5
100
AcDbLine
 10
-0.1194500113463324
 20
3.306163826294092
 30
0.0
 11
-0.5187958641450088
 21
2.914301582207496
 31
0.0
  0
POINT
  5
167
330
1E
100
AcDbEntity
  8
DEFPOINTS
  6
ByBlock
 62
     5
100
AcDbPoint
 10
-0.4428666231436634
 20
3.368581487606029
 30
0.0
  0
ARC
  5
168
330
1E
100
AcDbEntity
  8
OBJ
 62
     5
100
AcDbCircle
 10
-0.4899666231436637
 20
4.738181487606031
 30
0.0
 40
0.0591
100
AcDbArc
 50
10.99536720521724
 51
90.0
  0
LINE
  5
169
330
1E
100
AcDbEntity
  8
OBJ
100
AcDbLine
 10
-0.4423666231436681
 20
4.482281487606034
 30
0.0
 11
-0.8307490337983889
 21
4.482281487606034
 31
0.0
  0
LINE
  5
16A
330
1E
100
AcDbEntity
  8
OBJ
 62
     5
100
AcDbLine
 10
-0.9563649175453452
 20
4.639681487606029
 30
0.0
 11
-0.4428666231436634
 21
4.639681487606029
 31
0.0
  0
POINT
  5
16B
330
1E
100
AcDbEntity
  8
DEFPOINTS
  6
ByBlock
 62
     5
100
AcDbPoint
 10
-0.5545666231436624
 20
4.797281487606028
 30
0.0
  0
POINT
  5
16C
330
1E
100
AcDbEntity
  8
DEFPOINTS
  6
ByBlock
 62
     5
100
AcDbPoint
 10
-0.5545666231436624
 20
4.797281487606028
 30
0.0
  0
POINT
  5
16D
330
1E
100
AcDbEntity
  8
DEFPOINTS
  6
ByBlock
 62
     5
100
AcDbPoint
 10
-0.4899666231436637
 20
4.797281487606028
 30
0.0
  0
POINT
  5
16E
330
1E
100
AcDbEntity
  8
DEFPOINTS
  6
ByBlock
 62
     0
100
AcDbPoint
 10
-0.5545666231436695
 20
4.797281487606028
 30
0.0
  0
POINT
  5
16F
330
1E
100
AcDbEntity
  8
DEFPOINTS
  6
ByBlock
 62
     0
100
AcDbPoint
 10
-0.5545666231436695
 20
4.797281487606028
 30
0.0
  0
ARC
  5
170
330
1E
100
AcDbEntity
  8
OBJ
100
AcDbCircle
 10
-0.8307490337983889
 20
4.600281487606032
 30
0.0
 40
0.118
100
AcDbArc
 50
192.6395909507237
 51
270.0
  0
LINE
  5
171
330
1E
100
AcDbEntity
  8
OBJ
 62
     5
100
AcDbLine
 10
-0.4899666231436637
 20
4.797281487606028
 30
0.0
 11
-0.9816781661841851
 21
4.797281487606028
 31
0.0
  0
LINE
  5
172
330
1E
100
AcDbEntity
  8
0
 62
     5
100
AcDbLine
 10
-0.5545666231436659
 20
4.797281487606028
 30
0.0
 11
-0.9816781661841851
 21
4.797281487606031
 31
0.0
  0
ARC
  5
173
330
1E
100
AcDbEntity
  8
OBJ
 62
     5
100
AcDbCircle
 10
-0.3138449833602532
 20
4.748552385153271
 30
0.0
 40
0.11811
100
AcDbArc
 50
179.5628076826958
 51
261.8907915628225
  0
LINE
  5
174
330
1E
100
AcDbEntity
  8
OBJ
100
AcDbLine
 10
0.620133376856332
 20
4.107105962303368
 30
0.0
 11
0.6201333768563302
 21
3.597457012908698
 31
0.0
  0
CIRCLE
  5
175
330
1E
100
AcDbEntity
  8
0
100
AcDbCircle
 10
0.620133376856332
 20
3.852281487606031
 30
0.0
 40
0.1258358569867779
  0
CIRCLE
  5
176
330
1E
100
AcDbEntity
  8
OBJ
100
AcDbCircle
 10
0.620133376856332
 20
3.852281487606031
 30
0.0
 40
0.354
  0
CIRCLE
  5
177
330
1E
100
AcDbEntity
  8
0
100
AcDbCircle
 10
0.620133376856332
 20
3.852281487606031
 30
0.0
 40
0.255
  0
CIRCLE
  5
180
330
1E
100
AcDbEntity
  8
0
100
AcDbCircle
 10
0.620133376856332
 20
3.852281487606031
 30
0.0
 40
0.165
  0
POINT
  5
181
330
1E
100
AcDbEntity
  8
DEFPOINTS
  6
ByBlock
 62
     5
100
AcDbPoint
 10
1.064633376856336
 20
3.852281487606031
 30
0.0
  0
POINT
  5
182
330
1E
100
AcDbEntity
  8
DEFPOINTS
  6
ByBlock
 62
     0
100
AcDbPoint
 10
0.8518961816122772
 20
4.119866992317437
 30
0.0
  0
LINE
  5
183
330
1E
100
AcDbEntity
  8
OBJ
 62
     7
100
AcDbLine
 10
1.435649376856312
 20
2.768715592521768
 30
0.0
 11
1.435649376856312
 21
2.851368543310993
 31
0.0
  0
ARC
  5
184
330
1E
100
AcDbEntity
  8
OBJ
 62
     7
100
AcDbCircle
 10
1.378430095330225
 20
2.797584543310986
 30
0.0
 40
0.0572192815260978
100
AcDbArc
 50
289.9546783938684
 51
70.04532160613081
  0
LINE
  5
185
330
1E
100
AcDbEntity
  8
OBJ
 62
     7
100
AcDbLine
 10
1.238441376856325
 20
2.743800543310978
 30
0.0
 11
1.238441376856325
 21
3.178853343311001
 31
0.0
  0
LINE
  5
186
330
1E
100
AcDbEntity
  8
OBJ
  6
Continuous
 62
     7
100
AcDbLine
 10
1.238441376856325
 20
2.743800543310978
 30
0.0
 11
1.397957704563362
 21
2.743800543310978
 31
0.0
  0
LINE
  5
187
330
1E
100
AcDbEntity
  8
OBJ
 62
     7
100
AcDbLine
 10
1.435649376856312
 20
2.768715592521768
 30
0.0
 11
1.412429453097297
 21
2.751561833158401
 31
0.0
  0
LINE
  5
188
330
1E
100
AcDbEntity
  8
OBJ
  6
CENTER2
 62
     7
100
AcDbLine
 10
1.190633376856322
 20
2.761130943310998
 30
0.0
 11
1.238441376856325
 21
2.761130943310998
 31
0.0
  0
LINE
  5
189
330
1E
100
AcDbEntity
  8
0
 62
     7
100
AcDbLine
 10
2.775633376856342
 20
3.527481487606021
 30
0.0
 11
1.515633376856323
 21
3.527481487606021
 31
0.0
  0
LINE
  5
18A
330
1E
100
AcDbEntity
  8
0
 62
     7
100
AcDbLine
 10
2.775633376856314
 20
4.171371167373305
 30
0.0
 11
1.571311365138408
 21
4.17137116737329
 31
0.0
  0
LINE
  5
18B
330
1E
100
AcDbEntity
  8
0
 62
     7
100
AcDbLine
 10
1.515633376856323
 20
4.245281487606018
 30
0.0
 11
1.515633376856323
 21
3.45928148760603
 31
0.0
  0
LINE
  5
18C
330
1E
100
AcDbEntity
  8
0
 62
     7
100
AcDbLine
 10
1.425633376856319
 20
4.543225343561626
 30
0.0
 11
1.425633376856319
 21
3.161337631650436
 31
0.0
  0
LINE
  5
18D
330
1E
100
AcDbEntity
  8
0
 62
     7
100
AcDbLine
 10
1.425633376856319
 20
3.45928148760603
 30
0.0
 11
1.515633376856323
 21
3.45928148760603
 31
0.0
  0
LINE
  5
18E
330
1E
100
AcDbEntity
  8
OBJ
 62
     7
100
AcDbLine
 10
1.435649376856312
 20
3.15393829410021
 30
0.0
 11
1.412429453097297
 21
3.171092053463578
 31
0.0
  0
LINE
  5
18F
330
1E
100
AcDbEntity
  8
OBJ
 62
     7
100
AcDbLine
 10
1.435649376856312
 20
3.071285343310986
 30
0.0
 11
1.435649376856312
 21
3.15393829410021
 31
0.0
  0
ARC
  5
190
330
1E
100
AcDbEntity
  8
OBJ
 62
     7
100
AcDbCircle
 10
1.378430095330225
 20
3.125069343310993
 30
0.0
 40
0.0572192815260978
100
AcDbArc
 50
289.9546783938691
 51
70.04532160613162
  0
LINE
  5
191
330
1E
100
AcDbEntity
  8
OBJ
  6
Continuous
 62
     7
100
AcDbLine
 10
1.238441376856325
 20
3.178853343311001
 30
0.0
 11
1.397957704563362
 21
3.178853343311001
 31
0.0
  0
LINE
  5
192
330
1E
100
AcDbEntity
  8
OBJ
  6
Continuous
 62
     7
100
AcDbLine
 10
1.238441376856325
 20
3.071285343310986
 30
0.0
 11
1.397957704563362
 21
3.071285343310986
 31
0.0
  0
LINE
  5
193
330
1E
100
AcDbEntity
  8
OBJ
  6
CENTER2
 62
     7
100
AcDbLine
 10
1.190633376856322
 20
3.161522943310981
 30
0.0
 11
1.238441376856325
 21
3.161522943310981
 31
0.0
  0
LINE
  5
194
330
1E
100
AcDbEntity
  8
OBJ
  6
Continuous
 62
     7
100
AcDbLine
 10
1.238441376856325
 20
2.851368543310993
 30
0.0
 11
1.397957704563362
 21
2.851368543310993
 31
0.0
  0
LINE
  5
195
330
1E
100
AcDbEntity
  8
OBJ
 62
     7
100
AcDbLine
 10
1.190633376856322
 20
2.91293438028978
 30
0.0
 11
1.238441376856325
 21
2.865126380289805
 31
0.0
  0
ARC
  5
196
330
1E
100
AcDbEntity
  8
OBJ
 62
     7
100
AcDbCircle
 10
1.256412013947791
 20
2.961326943311004
 30
0.0
 40
0.1792373629085269
100
AcDbArc
 50
322.1584983941689
 51
37.84150160582705
  0
LINE
  5
197
330
1E
100
AcDbEntity
  8
OBJ
 62
     7
100
AcDbLine
 10
1.435649376856312
 20
2.851368543310993
 30
0.0
 11
1.435649376856312
 21
3.071285343310986
 31
0.0
  0
LINE
  5
198
330
1E
100
AcDbEntity
  8
OBJ
  6
CENTER2
 62
     7
100
AcDbLine
 10
1.190633376856322
 20
4.543040031901082
 30
0.0
 11
1.238441376856325
 21
4.543040031901082
 31
0.0
  0
LINE
  5
199
330
1E
100
AcDbEntity
  8
OBJ
  6
Continuous
 62
     7
100
AcDbLine
 10
1.238441376856325
 20
4.633277631901076
 30
0.0
 11
1.397957704563362
 21
4.633277631901076
 31
0.0
  0
LINE
  5
19A
330
1E
100
AcDbEntity
  8
OBJ
  6
Continuous
 62
     7
100
AcDbLine
 10
1.238441376856325
 20
4.525709631901062
 30
0.0
 11
1.397957704563362
 21
4.525709631901062
 31
0.0
  0
ARC
  5
19B
330
1E
100
AcDbEntity
  8
OBJ
 62
     7
100
AcDbCircle
 10
1.378430095330225
 20
4.579493631901069
 30
0.0
 40
0.0572192815260978
100
AcDbArc
 50
289.9546783938684
 51
70.04532160613081
  0
LINE
  5
19C
330
1E
100
AcDbEntity
  8
OBJ
 62
     7
100
AcDbLine
 10
1.435649376856312
 20
4.633277631901076
 30
0.0
 11
1.435649376856312
 21
4.550624681111852
 31
0.0
  0
LINE
  5
19D
330
1E
100
AcDbEntity
  8
OBJ
 62
     7
100
AcDbLine
 10
1.435649376856312
 20
4.550624681111852
 30
0.0
 11
1.412429453097297
 21
4.533470921748484
 31
0.0
  0
LINE
  5
19E
330
1E
100
AcDbEntity
  8
0
 62
     7
100
AcDbLine
 10
1.425633376856319
 20
4.245281487606032
 30
0.0
 11
1.515633376856323
 21
4.245281487606018
 31
0.0
  0
LINE
  5
19F
330
1E
100
AcDbEntity
  8
0
 62
     7
100
AcDbLine
 10
1.569939497906199
 20
4.17137116737329
 30
0.0
 11
1.571311365138408
 21
4.17137116737329
 31
0.0
  0
LINE
  5
1A0
330
1E
100
AcDbEntity
  8
0
 62
     7
100
AcDbLine
 10
1.555633376856329
 20
4.177081487606042
 30
0.0
 11
1.515633376856309
 21
4.177081487606027
 31
0.0
  0
ARC
  5
1A1
330
1E
100
AcDbEntity
  8
0
 62
     7
100
AcDbCircle
 10
1.569939497906199
 20
4.192146959884322
 30
0.0
 40
0.0207757925110313
100
AcDbArc
 50
226.4809523812064
 51
270.0
  0
LINE
  5
1A2
330
1E
100
AcDbEntity
  8
0
 62
     7
100
AcDbLine
 10
2.775633376856328
 20
3.527481487606021
 30
0.0
 11
2.775633376856285
 21
4.171371167373347
 31
0.0
  0
LINE
  5
1A3
330
1E
100
AcDbEntity
  8
OBJ
 62
     7
100
AcDbLine
 10
2.805633376856329
 20
4.141371167373289
 30
0.0
 11
2.805633376856343
 21
3.557481487606022
 31
0.0
  0
LINE
  5
1A4
330
1E
100
AcDbEntity
  8
0
 62
     7
100
AcDbLine
 10
2.775633376856342
 20
3.527481487606021
 30
0.0
 11
2.805633376856343
 21
3.557481487606022
 31
0.0
  0
LINE
  5
1A5
330
1E
100
AcDbEntity
  8
0
 62
     7
100
AcDbLine
 10
2.805633376856315
 20
4.141371167373304
 30
0.0
 11
2.775633376856314
 21
4.171371167373305
 31
0.0
  0
ARC
  5
1A6
330
1E
100
AcDbEntity
  8
0
 62
     7
100
AcDbCircle
 10
1.130633376856319
 20
5.377281487606023
 30
0.0
 40
0.06
100
AcDbArc
 50
359.9999999999998
 51
90.0
  0
ARC
  5
1A7
330
1E
100
AcDbEntity
  8
0
 62
     7
100
AcDbCircle
 10
-1.588450692080401
 20
-17.29296866456603
 30
0.0
 40
23.23925051103946
100
AcDbArc
 50
84.52543384086286
 51
87.58715873870844
  0
LINE
  5
1A8
330
1E
100
AcDbEntity
  8
0
 62
     7
100
AcDbLine
 10
-0.6100880438861953
 20
5.732266319066408
 30
0.0
 11
-0.6100880438861953
 21
6.092266319066407
 31
0.0
  0
ARC
  5
1AF
330
1E
100
AcDbEntity
  8
0
 62
     7
100
AcDbCircle
 10
-0.8377533269992358
 20
5.779046973501902
 30
0.0
 40
0.083
100
AcDbArc
 50
292.3489235499437
 51
325.6933210858099
  0
ARC
  5
1B0
330
1E
100
AcDbEntity
  8
0
 62
     7
100
AcDbCircle
 10
-0.598366623143706
 20
5.444313383954575
 30
0.0
 40
0.1
100
AcDbArc
 50
180.0
 51
258.3802346654943
  0
LINE
  5
1B1
330
1E
100
AcDbEntity
  8
0
 62
     7
100
AcDbLine
 10
-0.6983666231436861
 20
5.70228148760604
 30
0.0
 11
-0.6983666231436861
 21
5.444313383954575
 31
0.0
  0
ARC
  5
1B2
330
1E
100
AcDbEntity
  8
0
 62
     7
100
AcDbCircle
 10
-1.166380221148164
 20
5.870846270473865
 30
0.0
 40
0.7388192705148952
100
AcDbArc
 50
292.2067579835137
 51
305.3828234227286
  0
ARC
  5
1B3
330
1E
100
AcDbEntity
  8
0
 62
     7
100
AcDbCircle
 10
-0.7938858136536702
 20
5.346362801411547
 30
0.0
 40
0.095519190509991
100
AcDbArc
 50
305.3828234227143
 51
329.8109839848984
  0
ARC
  5
1B4
330
1E
100
AcDbEntity
  8
0
 62
     7
100
AcDbCircle
 10
-1.166380221148047
 20
5.87084627047405
 30
0.0
 40
0.7388192705150411
100
AcDbArc
 50
286.3927970871483
 51
288.3761498293471
  0
ARC
  5
1B5
330
1E
100
AcDbEntity
  8
OBJ
 62
     7
100
AcDbCircle
 10
-0.8643666231436402
 20
6.116921543694825
 30
0.0
 40
0.06
100
AcDbArc
 50
0.0
 51
79.78634404178841
  0
LINE
  5
1B6
330
1E
100
AcDbEntity
  8
OBJ
 62
     7
100
AcDbLine
 10
-0.8043666231436663
 20
6.092266319066407
 30
0.0
 11
-0.8043666231436663
 21
6.116921543694825
 31
0.0
  0
ARC
  5
1B7
330
1E
100
AcDbEntity
  8
0
 62
     7
100
AcDbCircle
 10
0.6276333768563358
 20
5.58428148760603
 30
0.0
 40
0.256
100
AcDbArc
 50
1.147139202625986
 51
87.26401021677956
  0
LINE
  5
1B8
330
1E
100
AcDbEntity
  8
0
 62
     7
100
AcDbLine
 10
1.130633376856319
 20
5.437281487606025
 30
0.0
 11
0.9746333768563282
 21
5.437281487606025
 31
0.0
  0
LINE
  5
1B9
330
1E
100
AcDbEntity
  8
0
 62
     7
100
AcDbLine
 10
0.974633376856314
 20
5.437281487606025
 30
0.0
 11
0.9514804376748848
 21
5.437281487606025
 31
0.0
  0
ARC
  5
1BA
330
1E
100
AcDbEntity
  8
0
 62
     7
100
AcDbCircle
 10
0.9514804376748848
 20
5.497281487606027
 30
0.0
 40
0.06
100
AcDbArc
 50
184.4713522405501
 51
270.0
  0
LINE
  5
1BB
330
1E
100
AcDbEntity
  8
OBJ
  6
CENTER2
 62
     7
100
AcDbLine
 10
1.190633376856322
 20
4.943432031901064
 30
0.0
 11
1.238441376856325
 21
4.943432031901064
 31
0.0
  0
LINE
  5
1BC
330
1E
100
AcDbEntity
  8
OBJ
 62
     7
100
AcDbLine
 10
1.435649376856312
 20
4.935847382690294
 30
0.0
 11
1.412429453097297
 21
4.953001142053661
 31
0.0
  0
ARC
  5
1BD
330
1E
100
AcDbEntity
  8
OBJ
 62
     7
100
AcDbCircle
 10
1.378430095330225
 20
4.906978431901077
 30
0.0
 40
0.0572192815260978
100
AcDbArc
 50
289.9546783938691
 51
70.04532160613162
  0
LINE
  5
1BE
330
1E
100
AcDbEntity
  8
OBJ
  6
Continuous
 62
     7
100
AcDbLine
 10
1.238441376856325
 20
4.960762431901084
 30
0.0
 11
1.397957704563362
 21
4.960762431901084
 31
0.0
  0
LINE
  5
1BF
330
1E
100
AcDbEntity
  8
OBJ
  6
Continuous
 62
     7
100
AcDbLine
 10
1.238441376856325
 20
4.853194431901069
 30
0.0
 11
1.397957704563362
 21
4.853194431901069
 31
0.0
  0
LINE
  5
1C0
330
1E
100
AcDbEntity
  8
OBJ
 62
     7
100
AcDbLine
 10
1.435649376856312
 20
4.935847382690294
 30
0.0
 11
1.435649376856312
 21
4.853194431901069
 31
0.0
  0
LINE
  5
1C4
330
1E
100
AcDbEntity
  8
OBJ
100
AcDbLine
 10
12.41372270595935
 20
4.888651079873227
 30
0.0
 11
12.4642116423485
 21
4.574307532410827
 31
0.0
  0
LINE
  5
1C5
330
1E
100
AcDbEntity
  8
OBJ
  6
CENTER2
100
AcDbLine
 10
11.82470976427327
 20
4.954281487606042
 30
0.0
 11
11.82470976427327
 21
4.291073547618495
 31
0.0
  0
LINE
  5
1C6
330
1E
100
AcDbEntity
  8
OBJ
100
AcDbLine
 10
11.22416840114377
 20
4.888651079873227
 30
0.0
 11
11.14161906826871
 21
4.37469986615395
 31
0.0
  0
ARC
  5
1C7
330
1E
100
AcDbEntity
  8
OBJ
100
AcDbCircle
 10
11.98570976427327
 20
4.324014331365265
 30
0.0
 40
0.078
100
AcDbArc
 50
0.0
 51
90.0
  0
LINE
  5
1C8
330
1E
100
AcDbEntity
  8
OBJ
  6
Continuous
100
AcDbLine
 10
12.00370976427326
 20
4.192281487606045
 30
0.0
 11
12.06370976427327
 21
4.192281487606045
 31
0.0
  0
ARC
  5
1C9
330
1E
100
AcDbEntity
  8
OBJ
100
AcDbCircle
 10
11.98570976427327
 20
3.380548643846825
 30
0.0
 40
0.078
100
AcDbArc
 50
270.0
 51
0.0
  0
LINE
  5
1CA
330
1E
100
AcDbEntity
  8
OBJ
  6
Continuous
100
AcDbLine
 10
12.00370976427326
 20
3.512281487606045
 30
0.0
 11
12.06370976427327
 21
3.512281487606045
 31
0.0
  0
LINE
  5
1CB
330
1E
100
AcDbEntity
  8
OBJ
100
AcDbLine
 10
11.52970976427327
 20
3.222281487606043
 30
0.0
 11
12.66888455108187
 21
3.222281487606043
 31
0.0
  0
LINE
  5
1CC
330
1E
100
AcDbEntity
  8
OBJ
  6
Continuous
100
AcDbLine
 10
11.52970976427327
 20
4.482281487606044
 30
0.0
 11
12.49348260683811
 21
4.482281487606044
 31
0.0
  0
LINE
  5
1CD
330
1E
100
AcDbEntity
  8
OBJ
  6
CENTER2
100
AcDbLine
 10
10.71603313817742
 20
3.852281487606045
 30
0.0
 11
12.85570976427327
 21
3.852281487606045
 31
0.0
  0
ARC
  5
1CE
330
1E
100
AcDbEntity
  8
0
100
AcDbCircle
 10
12.51397186371554
 20
3.852281487606045
 30
0.0
 40
0.5515165371892456
100
AcDbArc
 50
164.5174712837546
 51
195.4825287162451
  0
LINE
  5
1CF
330
1E
100
AcDbEntity
  8
0
100
AcDbLine
 10
12.00370976427327
 20
4.192281487606045
 30
0.0
 11
12.00370976427327
 21
3.512281487606045
 31
0.0
  0
LINE
  5
1D0
330
1E
100
AcDbEntity
  8
0
100
AcDbLine
 10
11.74370976427326
 20
4.073117965571078
 30
0.0
 11
11.74370976427326
 21
3.631445009641012
 31
0.0
  0
ARC
  5
1D1
330
1E
100
AcDbEntity
  8
0
100
AcDbCircle
 10
12.16681764680839
 20
3.852281487606045
 30
0.0
 40
0.4231078825351276
100
AcDbArc
 50
159.6374530946513
 51
200.3625469053487
  0
ARC
  5
1D2
330
1E
100
AcDbEntity
  8
0
100
AcDbCircle
 10
12.12020473661044
 20
3.852281487606045
 30
0.0
 40
0.4602634964738641
100
AcDbArc
 50
158.9924907656085
 51
201.0075092343914
  0
LINE
  5
1D3
330
1E
100
AcDbEntity
  8
0
100
AcDbLine
 10
11.69053336662362
 20
4.017281487606044
 30
0.0
 11
11.69053336662362
 21
3.687281487606046
 31
0.0
  0
LINE
  5
1D4
330
1E
100
AcDbEntity
  8
OBJ
100
AcDbLine
 10
10.96070976427326
 20
4.278301624396895
 30
0.0
 11
10.96070976427326
 21
3.426261350815195
 31
0.0
  0
LINE
  5
1D5
330
1E
100
AcDbEntity
  8
OBJ
100
AcDbLine
 10
11.33479518420448
 20
4.346320552986199
 30
0.0
 11
11.33479518420448
 21
3.339245159057913
 31
0.0
  0
ARC
  5
1D6
330
1E
100
AcDbEntity
  8
OBJ
100
AcDbCircle
 10
11.52970976427327
 20
3.537281487606044
 30
0.0
 40
0.315
100
AcDbArc
 50
232.424301864875
 51
270.0
  0
ARC
  5
1D7
330
1E
100
AcDbEntity
  8
OBJ
100
AcDbCircle
 10
11.29005480317756
 20
3.225809980687323
 30
0.0
 40
0.078
100
AcDbArc
 50
52.42430186487514
 51
80.45547443444124
  0
ARC
  5
1D8
330
1E
100
AcDbEntity
  8
OBJ
100
AcDbCircle
 10
11.03870976427327
 20
3.426261350815192
 30
0.0
 40
0.078
100
AcDbArc
 50
179.9999999999998
 51
260.4554744344419
  0
LINE
  5
1D9
330
1E
100
AcDbEntity
  8
OBJ
100
AcDbLine
 10
11.30298829642281
 20
3.302730229987982
 30
0.0
 11
11.02577627102802
 21
3.349341101514536
 31
0.0
  0
ARC
  5
1DA
330
1E
100
AcDbEntity
  8
0
100
AcDbCircle
 10
12.10751763951764
 20
3.631445009641012
 30
0.0
 40
0.1451067142246597
100
AcDbArc
 50
149.5160676037339
 51
210.4839323962664
  0
LINE
  5
1DB
330
1E
100
AcDbEntity
  8
0
100
AcDbLine
 10
11.98246881500066
 20
3.557832850319336
 30
0.0
 11
12.00370976427327
 21
3.512281487606045
 31
0.0
  0
ARC
  5
1DC
330
1E
100
AcDbEntity
  8
0
100
AcDbCircle
 10
11.85940179577577
 20
3.631445009641012
 30
0.0
 40
0.1156920315025084
100
AcDbArc
 50
140.4852508123726
 51
219.5147491876274
  0
LINE
  5
1DD
330
1E
100
AcDbEntity
  8
OBJ
  6
Continuous
100
AcDbLine
 10
11.69053336662362
 20
3.687281487606046
 30
0.0
 11
11.74370976427326
 21
3.687281487606046
 31
0.0
  0
POINT
  5
1DE
330
1E
100
AcDbEntity
  8
DEFPOINTS
  6
ByBlock
 62
     0
100
AcDbPoint
 10
11.52970976427327
 20
3.222281487606043
 30
0.0
  0
LINE
  5
1DF
330
1E
100
AcDbEntity
  8
0
100
AcDbLine
 10
11.77014992658987
 20
3.557832850319336
 30
0.0
 11
11.98246881500066
 21
3.557832850319336
 31
0.0
  0
LINE
  5
1E0
330
1E
100
AcDbEntity
  8
0
100
AcDbLine
 10
11.77014992658987
 20
3.705057168962689
 30
0.0
 11
11.98246881500066
 21
3.705057168962689
 31
0.0
  0
ARC
  5
1E1
330
1E
100
AcDbEntity
  8
OBJ
  6
Continuous
100
AcDbCircle
 10
11.52970976427327
 20
4.167281487606043
 30
0.0
 40
0.315
100
AcDbArc
 50
90.0
 51
127.5756981351262
  0
ARC
  5
1E2
330
1E
100
AcDbEntity
  8
OBJ
100
AcDbCircle
 10
11.29005480317756
 20
4.478752994524764
 30
0.0
 40
0.078
100
AcDbArc
 50
279.5445255655587
 51
307.5756981351266
  0
ARC
  5
1E3
330
1E
100
AcDbEntity
  8
OBJ
100
AcDbCircle
 10
11.03870976427327
 20
4.278301624396895
 30
0.0
 40
0.078
100
AcDbArc
 50
99.54452556555807
 51
179.9999999999999
  0
POINT
  5
1E4
330
1E
100
AcDbEntity
  8
DEFPOINTS
  6
ByBlock
 62
     0
100
AcDbPoint
 10
11.05770976427326
 20
3.852281487606042
 30
0.0
  0
LINE
  5
1E5
330
1E
100
AcDbEntity
  8
OBJ
100
AcDbLine
 10
11.3029882964228
 20
4.401832745224108
 30
0.0
 11
11.02577627102802
 21
4.355221873697555
 31
0.0
  0
LINE
  5
1E6
330
1E
100
AcDbEntity
  8
0
100
AcDbLine
 10
12.00370976427326
 20
4.192281487606045
 30
0.0
 11
11.98246881500066
 21
4.146730124892755
 31
0.0
  0
ARC
  5
1E7
330
1E
100
AcDbEntity
  8
0
100
AcDbCircle
 10
12.10751763951764
 20
4.073117965571078
 30
0.0
 40
0.1451067142246597
100
AcDbArc
 50
149.5160676037334
 51
210.483932396266
  0
ARC
  5
1E8
330
1E
100
AcDbEntity
  8
0
100
AcDbCircle
 10
11.85940179577577
 20
4.073117965571078
 30
0.0
 40
0.1156920315025084
100
AcDbArc
 50
140.4852508123726
 51
219.5147491876274
  0
LINE
  5
1E9
330
1E
100
AcDbEntity
  8
OBJ
  6
Continuous
100
AcDbLine
 10
11.69053336662362
 20
4.017281487606044
 30
0.0
 11
11.74370976427326
 21
4.017281487606044
 31
0.0
  0
LINE
  5
1EA
330
1E
100
AcDbEntity
  8
0
100
AcDbLine
 10
11.77014992658987
 20
3.999505806249402
 30
0.0
 11
11.98246881500066
 21
3.999505806249402
 31
0.0
  0
LINE
  5
1EB
330
1E
100
AcDbEntity
  8
0
100
AcDbLine
 10
11.77014992658987
 20
4.146730124892755
 30
0.0
 11
11.98246881500066
 21
4.146730124892755
 31
0.0
  0
LINE
  5
1EC
330
1E
100
AcDbEntity
  8
OBJ
100
AcDbLine
 10
13.36176476427326
 20
2.592481487606043
 30
0.0
 11
13.36176476427326
 21
2.931181487606043
 31
0.0
  0
ARC
  5
1ED
330
1E
100
AcDbEntity
  8
OBJ
100
AcDbCircle
 10
13.51031476427327
 20
2.892481487606044
 30
0.0
 40
0.06
100
AcDbArc
 50
180.0
 51
270.0
  0
LINE
  5
1EE
330
1E
100
AcDbEntity
  8
OBJ
  6
CENTER2
100
AcDbLine
 10
13.95231476427327
 20
2.359014491372832
 30
0.0
 11
13.95231476427327
 21
3.422701974662572
 31
0.0
  0
POINT
  5
1F8
330
1E
100
AcDbEntity
  8
DEFPOINTS
  6
ByBlock
 62
     0
100
AcDbPoint
 10
13.36176476427326
 20
2.592481487606043
 30
0.0
  0
LINE
  5
1FE
330
1E
100
AcDbEntity
  8
0
100
AcDbLine
 10
12.73070976427327
 20
4.353481487606046
 30
0.0
 11
13.30270976427327
 21
4.353481487606043
 31
0.0
  0
LINE
  5
1FF
330
1E
100
AcDbEntity
  8
0
100
AcDbLine
 10
12.73070976427327
 20
3.351081487606041
 30
0.0
 11
13.30270976427327
 21
3.351081487606045
 31
0.0
  0
LINE
  5
200
330
1E
100
AcDbEntity
  8
0
100
AcDbLine
 10
12.88635992658985
 20
4.146730124892755
 30
0.0
 11
14.09547960195666
 21
4.146730124892755
 31
0.0
  0
LINE
  5
201
330
1E
100
AcDbEntity
  8
0
100
AcDbLine
 10
12.88635992658984
 20
3.999505806249405
 30
0.0
 11
14.09547960195666
 21
3.999505806249402
 31
0.0
  0
LINE
  5
202
330
1E
100
AcDbEntity
  8
0
100
AcDbLine
 10
12.88635992659016
 20
3.705057168962689
 30
0.0
 11
14.09547960195666
 21
3.705057168962692
 31
0.0
  0
LINE
  5
203
330
1E
100
AcDbEntity
  8
0
100
AcDbLine
 10
12.88635992659016
 20
3.557832850319339
 30
0.0
 11
14.09547960195666
 21
3.557832850319336
 31
0.0
  0
LINE
  5
204
330
1E
100
AcDbEntity
  8
0
100
AcDbLine
 10
12.85991976427326
 20
4.097281487606046
 30
0.0
 11
12.85991976427326
 21
3.607281487606044
 31
0.0
  0
ARC
  5
205
330
1E
100
AcDbEntity
  8
0
100
AcDbCircle
 10
13.28302764680839
 20
3.852281487606045
 30
0.0
 40
0.4231078825351276
100
AcDbArc
 50
159.6374530946513
 51
200.3625469053487
  0
LINE
  5
206
330
1E
100
AcDbEntity
  8
0
100
AcDbLine
 10
12.80991976427326
 20
4.097281487606046
 30
0.0
 11
12.80991976427326
 21
3.607281487606044
 31
0.0
  0
LINE
  5
207
330
1E
100
AcDbEntity
  8
OBJ
100
AcDbLine
 10
12.73070976427327
 20
4.451838222290401
 30
0.0
 11
12.73070976427327
 21
3.25272475292169
 31
0.0
  0
LINE
  5
208
330
1E
100
AcDbEntity
  8
OBJ
100
AcDbLine
 10
12.06370976427327
 20
4.324014331365265
 30
0.0
 11
12.06370976427327
 21
3.380548643846825
 31
0.0
  0
LINE
  5
209
330
1E
100
AcDbEntity
  8
0
100
AcDbLine
 10
12.06370976427327
 20
4.192281487606045
 30
0.0
 11
12.06370976427327
 21
3.512281487606045
 31
0.0
  0
ARC
  5
20A
330
1E
100
AcDbEntity
  8
OBJ
100
AcDbCircle
 10
12.62670976427326
 20
3.414281487606043
 30
0.0
 40
0.078
100
AcDbArc
 50
90.0
 51
180.0
  0
ARC
  5
20B
330
1E
100
AcDbEntity
  8
OBJ
100
AcDbCircle
 10
12.62670976427326
 20
3.380548643846825
 30
0.0
 40
0.078
100
AcDbArc
 50
180.0
 51
270.0
  0
ARC
  5
20C
330
1E
100
AcDbEntity
  8
OBJ
100
AcDbCircle
 10
12.62670976427326
 20
3.451958698244968
 30
0.0
 40
0.078
100
AcDbArc
 50
90.0
 51
180.0
  0
LINE
  5
20D
330
1E
100
AcDbEntity
  8
OBJ
100
AcDbLine
 10
12.54870976427326
 20
3.451958698244968
 30
0.0
 11
12.54870976427326
 21
3.380548643846825
 31
0.0
  0
LINE
  5
20E
330
1E
100
AcDbEntity
  8
OBJ
100
AcDbLine
 10
12.54870976427326
 20
3.380548643846825
 30
0.0
 11
12.54870976427326
 21
3.451958698244968
 31
0.0
  0
ARC
  5
20F
330
1E
100
AcDbEntity
  8
0
100
AcDbCircle
 10
12.97561179577577
 20
3.631445009641012
 30
0.0
 40
0.1156920315025084
100
AcDbArc
 50
140.4852508123726
 51
219.5147491876274
  0
LINE
  5
210
330
1E
100
AcDbEntity
  8
OBJ
  6
Continuous
100
AcDbLine
 10
12.62670976427326
 20
3.492281487606046
 30
0.0
 11
12.66888455108187
 21
3.492281487606046
 31
0.0
  0
ARC
  5
211
330
1E
100
AcDbEntity
  8
OBJ
100
AcDbCircle
 10
12.66888455108187
 20
3.300281487606046
 30
0.0
 40
0.078
100
AcDbArc
 50
270.0
 51
322.4320610110697
  0
ARC
  5
212
330
1E
100
AcDbEntity
  8
OBJ
100
AcDbCircle
 10
12.66888455108187
 20
3.570281487606045
 30
0.0
 40
0.078
100
AcDbArc
 50
270.0
 51
322.4320610110697
  0
LINE
  5
213
330
1E
100
AcDbEntity
  8
0
100
AcDbLine
 10
12.73070976427327
 20
3.607281487606044
 30
0.0
 11
12.85991976427326
 21
3.607281487606044
 31
0.0
  0
LINE
  5
214
330
1E
100
AcDbEntity
  8
OBJ
100
AcDbLine
 10
12.50975545624046
 20
4.482281487606044
 30
0.0
 11
12.66888455108187
 21
4.482281487606044
 31
0.0
  0
ARC
  5
215
330
1E
100
AcDbEntity
  8
OBJ
100
AcDbCircle
 10
12.62670976427326
 20
4.324014331365265
 30
0.0
 40
0.078
100
AcDbArc
 50
90.0
 51
180.0
  0
ARC
  5
216
330
1E
100
AcDbEntity
  8
OBJ
100
AcDbCircle
 10
12.62670976427326
 20
4.252604276967122
 30
0.0
 40
0.078
100
AcDbArc
 50
180.0
 51
270.0
  0
ARC
  5
217
330
1E
100
AcDbEntity
  8
OBJ
100
AcDbCircle
 10
12.62670976427326
 20
4.290281487606044
 30
0.0
 40
0.078
100
AcDbArc
 50
180.0
 51
270.0
  0
ARC
  5
218
330
1E
100
AcDbEntity
  8
OBJ
100
AcDbCircle
 10
12.57931747908807
 20
4.600281487606043
 30
0.0
 40
0.118
100
AcDbArc
 50
185.533512741316
 51
270.0
  0
LINE
  5
219
330
1E
100
AcDbEntity
  8
OBJ
100
AcDbLine
 10
12.54870976427326
 20
4.324014331365265
 30
0.0
 11
12.54870976427326
 21
4.252604276967122
 31
0.0
  0
ARC
  5
21A
330
1E
100
AcDbEntity
  8
0
100
AcDbCircle
 10
12.97561179577577
 20
4.073117965571078
 30
0.0
 40
0.1156920315025084
100
AcDbArc
 50
140.4852508123726
 51
219.5147491876274
  0
LINE
  5
21B
330
1E
100
AcDbEntity
  8
OBJ
  6
Continuous
100
AcDbLine
 10
12.62670976427326
 20
4.212281487606045
 30
0.0
 11
12.66888455108187
 21
4.212281487606045
 31
0.0
  0
ARC
  5
21C
330
1E
100
AcDbEntity
  8
OBJ
100
AcDbCircle
 10
12.66888455108187
 20
4.404281487606045
 30
0.0
 40
0.078
100
AcDbArc
 50
37.56793898893028
 51
90.0
  0
ARC
  5
21D
330
1E
100
AcDbEntity
  8
OBJ
100
AcDbCircle
 10
12.66888455108187
 20
4.134281487606045
 30
0.0
 40
0.078
100
AcDbArc
 50
37.56793898893028
 51
90.0
  0
LINE
  5
21E
330
1E
100
AcDbEntity
  8
0
100
AcDbLine
 10
12.73070976427327
 20
4.097281487606043
 30
0.0
 11
12.85991976427326
 21
4.097281487606046
 31
0.0
  0
LINE
  5
21F
330
1E
100
AcDbEntity
  8
0
100
AcDbLine
 10
14.12191976427326
 20
4.147281487606047
 30
0.0
 11
14.12191976427326
 21
3.557281487606044
 31
0.0
  0
ARC
  5
220
330
1E
100
AcDbEntity
  8
0
100
AcDbCircle
 10
13.69881188173814
 20
3.852281487606045
 30
0.0
 40
0.4231078825351276
100
AcDbArc
 50
339.6374530946512
 51
20.36254690534861
  0
LINE
  5
221
330
1E
100
AcDbEntity
  8
OBJ
100
AcDbLine
 10
13.30270976427327
 20
2.986181487606042
 30
0.0
 11
13.30676476427327
 21
2.986181487606042
 31
0.0
  0
ARC
  5
222
330
1E
100
AcDbEntity
  8
OBJ
100
AcDbCircle
 10
13.30676476427327
 20
2.931181487606043
 30
0.0
 40
0.055
100
AcDbArc
 50
0.0
 51
94.22809793106429
  0
LINE
  5
223
330
1E
100
AcDbEntity
  8
OBJ
  6
Continuous
100
AcDbLine
 10
13.45031476427327
 20
2.892481487606044
 30
0.0
 11
13.45031476427327
 21
3.470582645335856
 31
0.0
  0
ARC
  5
224
330
1E
100
AcDbEntity
  8
OBJ
100
AcDbCircle
 10
13.39031476427326
 20
3.075805952955661
 30
0.0
 40
0.06
100
AcDbArc
 50
0.0
 51
90.0
  0
ARC
  5
225
330
1E
100
AcDbEntity
  8
OBJ
100
AcDbCircle
 10
13.39031476427326
 20
3.470582645335856
 30
0.0
 40
0.06
100
AcDbArc
 50
0.0
 51
90.0
  0
LINE
  5
226
330
1E
100
AcDbEntity
  8
OBJ
100
AcDbLine
 10
13.30270976427327
 20
3.557832850319336
 30
0.0
 11
13.30270976427327
 21
2.986181487606042
 31
0.0
  0
ARC
  5
227
330
1E
100
AcDbEntity
  8
0
100
AcDbCircle
 10
14.00622773277076
 20
3.631445009641012
 30
0.0
 40
0.1156920315025084
100
AcDbArc
 50
320.4852508123726
 51
39.5147491876274
  0
LINE
  5
228
330
1E
100
AcDbEntity
  8
0
100
AcDbLine
 10
14.16291976427326
 20
4.797281487606042
 30
0.0
 11
13.62291976427327
 21
4.797281487606042
 31
0.0
  0
ARC
  5
229
330
1E
100
AcDbEntity
  8
OBJ
100
AcDbCircle
 10
13.55723140405668
 20
4.738181487606041
 30
0.0
 40
0.0591
100
AcDbArc
 50
90.0
 51
173.6466559995865
  0
POINT
  5
22A
330
1E
100
AcDbEntity
  8
DEFPOINTS
  6
ByBlock
 62
     0
100
AcDbPoint
 10
13.62291976427326
 20
4.797281487606042
 30
0.0
  0
POINT
  5
22B
330
1E
100
AcDbEntity
  8
DEFPOINTS
  6
ByBlock
 62
     0
100
AcDbPoint
 10
13.62291976427326
 20
4.797281487606042
 30
0.0
  0
ARC
  5
22C
330
1E
100
AcDbEntity
  8
OBJ
100
AcDbCircle
 10
13.36270976427326
 20
4.579681487606045
 30
0.0
 40
0.06
100
AcDbArc
 50
90.0
 51
180.0
  0
POINT
  5
22D
330
1E
100
AcDbEntity
  8
DEFPOINTS
  6
ByBlock
 62
     0
100
AcDbPoint
 10
13.30270976427327
 20
4.432829491372832
 30
0.0
  0
POINT
  5
22E
330
1E
100
AcDbEntity
  8
DEFPOINTS
  6
ByBlock
 62
     0
100
AcDbPoint
 10
13.30270976427327
 20
4.432829491372832
 30
0.0
  0
POINT
  5
22F
330
1E
100
AcDbEntity
  8
DEFPOINTS
  6
ByBlock
 62
     0
100
AcDbPoint
 10
13.30270976427327
 20
4.432829491372832
 30
0.0
  0
LINE
  5
230
330
1E
100
AcDbEntity
  8
OBJ
100
AcDbLine
 10
13.30270976427327
 20
4.579681487606045
 30
0.0
 11
13.30270976427327
 21
4.146730124892755
 31
0.0
  0
ARC
  5
231
330
1E
100
AcDbEntity
  8
OBJ
100
AcDbCircle
 10
13.36223101593101
 20
4.778326862853226
 30
0.0
 40
0.1410602822317444
100
AcDbArc
 50
280.6171265903865
 51
348.6705675782205
  0
POINT
  5
232
330
1E
100
AcDbEntity
  8
DEFPOINTS
  6
ByBlock
 62
     0
100
AcDbPoint
 10
14.16291976427326
 20
4.797281487606042
 30
0.0
  0
POINT
  5
233
330
1E
100
AcDbEntity
  8
DEFPOINTS
  6
ByBlock
 62
     0
100
AcDbPoint
 10
14.16291976427326
 20
4.797281487606042
 30
0.0
  0
ARC
  5
234
330
1E
100
AcDbEntity
  8
0
100
AcDbCircle
 10
14.00622773277076
 20
4.073117965571078
 30
0.0
 40
0.1156920315025084
100
AcDbArc
 50
320.4852508123726
 51
39.5147491876274
  0
LINE
  5
235
330
1E
100
AcDbEntity
  8
OBJ
100
AcDbLine
 10
11.30118134282984
 20
4.954281487606042
 30
0.0
 11
12.33670976427327
 21
4.954281487606042
 31
0.0
  0
POINT
  5
236
330
1E
100
AcDbEntity
  8
DEFPOINTS
  6
ByBlock
 62
     0
100
AcDbPoint
 10
11.30118134282984
 20
4.954281487606042
 30
0.0
  0
POINT
  5
237
330
1E
100
AcDbEntity
  8
DEFPOINTS
  6
ByBlock
 62
     0
100
AcDbPoint
 10
11.22416840114377
 20
4.888651079873227
 30
0.0
  0
ARC
  5
238
330
1E
100
AcDbEntity
  8
OBJ
100
AcDbCircle
 10
11.30118134282984
 20
4.876281487606046
 30
0.0
 40
0.078
100
AcDbArc
 50
90.0
 51
170.8752539683341
  0
LINE
  5
239
330
1E
100
AcDbEntity
  8
0
  6
ByBlock
 62
     0
100
AcDbLine
 10
11.82470976427327
 20
5.017281487606044
 30
0.0
 11
11.82470976427327
 21
5.193924442267771
 31
0.0
  0
POINT
  5
23A
330
1E
100
AcDbEntity
  8
DEFPOINTS
  6
ByBlock
 62
     0
100
AcDbPoint
 10
11.82470976427327
 20
4.954281487606042
 30
0.0
  0
POINT
  5
23B
330
1E
100
AcDbEntity
  8
DEFPOINTS
  6
ByBlock
 62
     0
100
AcDbPoint
 10
12.41470976427327
 20
4.876281487606046
 30
0.0
  0
ARC
  5
23C
330
1E
100
AcDbEntity
  8
OBJ
100
AcDbCircle
 10
12.33670976427327
 20
4.876281487606046
 30
0.0
 40
0.078
100
AcDbArc
 50
9.124746031665837
 51
90.0
  0
LINE
  5
243
330
1E
100
AcDbEntity
  8
OBJ
100
AcDbLine
 10
13.49575854760435
 20
15.31630417697906
 30
0.0
 11
13.49575854760435
 21
17.17028745105259
 31
0.0
  0
LINE
  5
244
330
1E
100
AcDbEntity
  8
OBJ
100
AcDbLine
 10
13.30270976427327
 20
17.49475326922427
 30
0.0
 11
13.30270976427327
 21
14.0425061734642
 31
0.0
  0
ARC
  5
245
330
1E
100
AcDbEntity
  8
OBJ
100
AcDbCircle
 10
11.82470976427327
 20
15.76862972134424
 30
0.0
 40
0.423
100
AcDbArc
 50
180.0
 51
359.9999999999998
  0
ARC
  5
246
330
1E
100
AcDbEntity
  8
OBJ
100
AcDbCircle
 10
11.82470976427327
 20
15.76862972134424
 30
0.0
 40
0.4035000000000001
100
AcDbArc
 50
180.0000000000001
 51
359.9999999999998
  0
ARC
  5
247
330
1E
100
AcDbEntity
  8
OBJ
100
AcDbCircle
 10
11.55226379563773
 20
15.70384957101015
 30
0.0
 40
0.5004489969235796
100
AcDbArc
 50
170.4780990377917
 51
246.4112127716914
  0
LINE
  5
248
330
1E
100
AcDbEntity
  8
OBJ
100
AcDbLine
 10
11.05870976427327
 20
15.76862972134424
 30
0.0
 11
11.05870976427327
 21
15.11862972134424
 31
0.0
  0
ARC
  5
249
330
1E
100
AcDbEntity
  8
OBJ
100
AcDbCircle
 10
11.82470976427327
 20
15.76862972134424
 30
0.0
 40
0.5905000000000001
100
AcDbArc
 50
180.0
 51
359.9999999999998
  0
ARC
  5
24A
330
1E
100
AcDbEntity
  8
OBJ
100
AcDbCircle
 10
11.82470976427327
 20
15.76862972134424
 30
0.0
 40
0.7079999999999993
100
AcDbArc
 50
227.2475347748028
 51
359.9999999999998
  0
LINE
  5
24B
330
1E
100
AcDbEntity
  8
OBJ
100
AcDbLine
 10
12.73070976427327
 20
13.21012972134424
 30
0.0
 11
12.73070976427327
 21
18.32712972134423
 31
0.0
  0
LINE
  5
24C
330
1E
100
AcDbEntity
  8
OBJ
  6
CENTER2
100
AcDbLine
 10
11.82470976427327
 20
14.93171448629839
 30
0.0
 11
11.82470976427327
 21
16.58533118722522
 31
0.0
  0
ARC
  5
24D
330
1E
100
AcDbEntity
  8
OBJ
100
AcDbCircle
 10
12.61170976427327
 20
15.69062972134424
 30
0.0
 40
0.078
100
AcDbArc
 50
90.0
 51
179.9999999999999
  0
LINE
  5
24E
330
1E
100
AcDbEntity
  8
OBJ
100
AcDbLine
 10
12.73070976427327
 20
18.32712972134423
 30
0.0
 11
12.73070976427327
 21
13.21012972134423
 31
0.0
  0
ARC
  5
24F
330
1E
100
AcDbEntity
  8
OBJ
100
AcDbCircle
 10
12.17186723748163
 20
15.76699434826005
 30
0.0
 40
1.27131742092991
100
AcDbArc
 50
358.3745695310036
 51
25.9218862797286
  0
ARC
  5
250
330
1E
100
AcDbEntity
  8
OBJ
100
AcDbCircle
 10
11.86470976427327
 20
13.79962972134423
 30
0.0
 40
0.197
100
AcDbArc
 50
0.0
 51
90.0
  0
ARC
  5
251
330
1E
100
AcDbEntity
  8
OBJ
100
AcDbCircle
 10
11.98370976427327
 20
14.54862972134424
 30
0.0
 40
0.078
100
AcDbArc
 50
0.0
 51
90.0
  0
LINE
  5
252
330
1E
100
AcDbEntity
  8
OBJ
  6
Continuous
100
AcDbLine
 10
12.00370976427326
 20
13.90800308364304
 30
0.0
 11
12.06370976427326
 21
13.90800308364304
 31
0.0
  0
LINE
  5
253
330
1E
100
AcDbEntity
  8
OBJ
  6
Continuous
100
AcDbLine
 10
12.00370976427326
 20
13.22800308364304
 30
0.0
 11
12.06370976427326
 21
13.22800308364304
 31
0.0
  0
LINE
  5
254
330
1E
100
AcDbEntity
  8
0
100
AcDbLine
 10
12.00370976427326
 20
13.90800308364304
 30
0.0
 11
12.00370976427326
 21
13.22800308364304
 31
0.0
  0
ARC
  5
255
330
1E
100
AcDbEntity
  8
0
100
AcDbCircle
 10
12.10751763951763
 20
13.78883956160807
 30
0.0
 40
0.1451067142246597
100
AcDbArc
 50
149.5160676037334
 51
210.483932396266
  0
ARC
  5
256
330
1E
100
AcDbEntity
  8
0
100
AcDbCircle
 10
11.85940179577577
 20
13.78883956160807
 30
0.0
 40
0.1156920315025084
100
AcDbArc
 50
140.4852508123726
 51
219.5147491876274
  0
LINE
  5
257
330
1E
100
AcDbEntity
  8
0
100
AcDbLine
 10
11.74370976427326
 20
13.78883956160807
 30
0.0
 11
11.74370976427326
 21
13.347166605678
 31
0.0
  0
ARC
  5
258
330
1E
100
AcDbEntity
  8
0
100
AcDbCircle
 10
12.51397186371554
 20
13.56800308364304
 30
0.0
 40
0.5515165371892456
100
AcDbArc
 50
164.5174712837546
 51
195.4825287162451
  0
LINE
  5
259
330
1E
100
AcDbEntity
  8
0
100
AcDbLine
 10
11.98246881500066
 20
13.27355444635633
 30
0.0
 11
12.00370976427326
 21
13.22800308364304
 31
0.0
  0
ARC
  5
25A
330
1E
100
AcDbEntity
  8
0
100
AcDbCircle
 10
12.10751763951763
 20
13.347166605678
 30
0.0
 40
0.1451067142246597
100
AcDbArc
 50
149.5160676037339
 51
210.4839323962664
  0
LINE
  5
25B
330
1E
100
AcDbEntity
  8
OBJ
  6
Continuous
100
AcDbLine
 10
11.69053336662362
 20
13.73300308364304
 30
0.0
 11
11.74370976427326
 21
13.73300308364304
 31
0.0
  0
LINE
  5
25C
330
1E
100
AcDbEntity
  8
OBJ
  6
Continuous
100
AcDbLine
 10
11.69053336662362
 20
13.40300308364304
 30
0.0
 11
11.74370976427326
 21
13.40300308364304
 31
0.0
  0
LINE
  5
25D
330
1E
100
AcDbEntity
  8
0
100
AcDbLine
 10
11.69053336662362
 20
13.73300308364304
 30
0.0
 11
11.69053336662362
 21
13.40300308364304
 31
0.0
  0
ARC
  5
25E
330
1E
100
AcDbEntity
  8
0
100
AcDbCircle
 10
12.12020473661043
 20
13.56800308364304
 30
0.0
 40
0.4602634964738641
100
AcDbArc
 50
158.9924907656085
 51
201.0075092343914
  0
ARC
  5
25F
330
1E
100
AcDbEntity
  8
0
100
AcDbCircle
 10
12.16681764680839
 20
13.56800308364304
 30
0.0
 40
0.4231078825351276
100
AcDbArc
 50
159.6374530946513
 51
200.3625469053487
  0
ARC
  5
260
330
1E
100
AcDbEntity
  8
0
100
AcDbCircle
 10
11.85940179577577
 20
13.347166605678
 30
0.0
 40
0.1156920315025084
100
AcDbArc
 50
140.4852508123726
 51
219.5147491876274
  0
LINE
  5
261
330
1E
100
AcDbEntity
  8
0
100
AcDbLine
 10
11.77014992658987
 20
13.42077876499968
 30
0.0
 11
11.98246881500066
 21
13.42077876499968
 31
0.0
  0
LINE
  5
262
330
1E
100
AcDbEntity
  8
0
100
AcDbLine
 10
11.77014992658987
 20
13.27355444635633
 30
0.0
 11
11.98246881500066
 21
13.27355444635633
 31
0.0
  0
LINE
  5
263
330
1E
100
AcDbEntity
  8
0
100
AcDbLine
 10
11.77014992658987
 20
13.71522740228639
 30
0.0
 11
11.98246881500066
 21
13.71522740228639
 31
0.0
  0
LINE
  5
264
330
1E
100
AcDbEntity
  8
OBJ
  6
CENTER2
100
AcDbLine
 10
10.64883288654491
 20
14.62662972134424
 30
0.0
 11
11.33309232060762
 21
14.62662972134424
 31
0.0
  0
LINE
  5
265
330
1E
100
AcDbEntity
  8
OBJ
100
AcDbLine
 10
10.95970976427327
 20
15.04062972134423
 30
0.0
 11
10.95970976427327
 21
14.21262972134424
 31
0.0
  0
LINE
  5
266
330
1E
100
AcDbEntity
  8
OBJ
100
AcDbLine
 10
11.21570976427327
 20
15.33347059955774
 30
0.0
 11
11.21570976427327
 21
14.31162972134424
 31
0.0
  0
ARC
  5
267
330
1E
100
AcDbEntity
  8
OBJ
100
AcDbCircle
 10
11.53070976427327
 20
14.31162972134424
 30
0.0
 40
0.315
100
AcDbArc
 50
180.0
 51
270.0
  0
ARC
  5
268
330
1E
100
AcDbEntity
  8
OBJ
100
AcDbCircle
 10
11.03770976427327
 20
14.21262972134424
 30
0.0
 40
0.078
100
AcDbArc
 50
180.0
 51
270.0
  0
LINE
  5
269
330
1E
100
AcDbEntity
  8
OBJ
100
AcDbLine
 10
11.27014115526597
 20
14.13462972134424
 30
0.0
 11
11.03770976427327
 21
14.13462972134424
 31
0.0
  0
LINE
  5
26A
330
1E
100
AcDbEntity
  8
0
100
AcDbLine
 10
12.00370976427326
 20
13.90800308364304
 30
0.0
 11
11.98246881500066
 21
13.86245172092975
 31
0.0
  0
LINE
  5
26B
330
1E
100
AcDbEntity
  8
OBJ
100
AcDbLine
 10
11.53070976427327
 20
13.99662972134424
 30
0.0
 11
11.86470976427327
 21
13.99662972134424
 31
0.0
  0
LINE
  5
26C
330
1E
100
AcDbEntity
  8
0
100
AcDbLine
 10
11.77014992658987
 20
13.86245172092975
 30
0.0
 11
11.98246881500066
 21
13.86245172092975
 31
0.0
  0
ARC
  5
26D
330
1E
100
AcDbEntity
  8
OBJ
100
AcDbCircle
 10
11.09770976427327
 20
15.23662972134424
 30
0.0
 40
0.118
100
AcDbArc
 50
270.0
 51
0.0
  0
LINE
  5
26E
330
1E
100
AcDbEntity
  8
OBJ
100
AcDbLine
 10
11.09770976427327
 20
15.11862972134424
 30
0.0
 11
11.03770976427327
 21
15.11862972134424
 31
0.0
  0
ARC
  5
26F
330
1E
100
AcDbEntity
  8
OBJ
100
AcDbCircle
 10
11.03770976427327
 20
15.04062972134423
 30
0.0
 40
0.078
100
AcDbArc
 50
90.0
 51
180.0
  0
ARC
  5
270
330
1E
100
AcDbEntity
  8
0
100
AcDbCircle
 10
14.00622773277076
 20
13.78883956160807
 30
0.0
 40
0.1156920315025084
100
AcDbArc
 50
320.4852508123726
 51
39.5147491876274
  0
LINE
  5
271
330
1E
100
AcDbEntity
  8
0
100
AcDbLine
 10
14.12191976427326
 20
13.86300308364304
 30
0.0
 11
14.12191976427326
 21
13.27300308364304
 31
0.0
  0
LINE
  5
272
330
1E
100
AcDbEntity
  8
OBJ
100
AcDbLine
 10
12.53370976427327
 20
13.64212972134424
 30
0.0
 11
12.53370976427327
 21
14.54862972134424
 31
0.0
  0
LINE
  5
273
330
1E
100
AcDbEntity
  8
OBJ
100
AcDbLine
 10
12.06170976427327
 20
13.28812972134424
 30
0.0
 11
12.06170976427327
 21
14.54862972134424
 31
0.0
  0
LINE
  5
274
330
1E
100
AcDbEntity
  8
0
100
AcDbLine
 10
12.06370976427326
 20
13.90800308364304
 30
0.0
 11
12.06370976427326
 21
13.22800308364304
 31
0.0
  0
ARC
  5
275
330
1E
100
AcDbEntity
  8
0
100
AcDbCircle
 10
12.97561179577577
 20
13.78883956160807
 30
0.0
 40
0.1156920315025084
100
AcDbArc
 50
140.4852508123726
 51
219.5147491876274
  0
LINE
  5
276
330
1E
100
AcDbEntity
  8
0
100
AcDbLine
 10
12.85991976427326
 20
13.81300308364304
 30
0.0
 11
12.85991976427326
 21
13.32300308364304
 31
0.0
  0
LINE
  5
277
330
1E
100
AcDbEntity
  8
0
100
AcDbLine
 10
12.80991976427326
 20
13.81300308364304
 30
0.0
 11
12.80991976427326
 21
13.32300308364304
 31
0.0
  0
LINE
  5
278
330
1E
100
AcDbEntity
  8
0
100
AcDbLine
 10
12.88635992658988
 20
13.71522740228639
 30
0.0
 11
14.09547960195666
 21
13.71522740228639
 31
0.0
  0
LINE
  5
279
330
1E
100
AcDbEntity
  8
0
100
AcDbLine
 10
12.88635992659004
 20
13.27355444635633
 30
0.0
 11
14.09547960195666
 21
13.27355444635633
 31
0.0
  0
LINE
  5
27A
330
1E
100
AcDbEntity
  8
0
100
AcDbLine
 10
12.88635992659005
 20
13.42077876499968
 30
0.0
 11
14.09547960195666
 21
13.42077876499968
 31
0.0
  0
ARC
  5
27B
330
1E
100
AcDbEntity
  8
OBJ
100
AcDbCircle
 10
12.61170976427327
 20
13.64212972134424
 30
0.0
 40
0.078
100
AcDbArc
 50
179.9999999999997
 51
270.0
  0
LINE
  5
27C
330
1E
100
AcDbEntity
  8
OBJ
100
AcDbLine
 10
12.13970976427327
 20
13.21012972134424
 30
0.0
 11
12.73070976427327
 21
13.21012972134424
 31
0.0
  0
POINT
  5
27D
330
1E
100
AcDbEntity
  8
DEFPOINTS
  6
ByBlock
 62
     0
100
AcDbPoint
 10
12.53370976427327
 20
13.64212972134424
 30
0.0
  0
ARC
  5
27E
330
1E
100
AcDbEntity
  8
OBJ
100
AcDbCircle
 10
12.13970976427327
 20
13.28812972134424
 30
0.0
 40
0.078
100
AcDbArc
 50
180.0000000000001
 51
270.0
  0
ARC
  5
27F
330
1E
100
AcDbEntity
  8
0
100
AcDbCircle
 10
13.28302764680839
 20
13.56800308364304
 30
0.0
 40
0.4231078825351276
100
AcDbArc
 50
159.6374530946513
 51
200.3625469053487
  0
ARC
  5
280
330
1E
100
AcDbEntity
  8
0
100
AcDbCircle
 10
12.97561179577577
 20
13.347166605678
 30
0.0
 40
0.1156920315025084
100
AcDbArc
 50
140.4852508123726
 51
219.5147491876274
  0
POINT
  5
281
330
1E
100
AcDbEntity
  8
DEFPOINTS
  6
ByBlock
 62
     0
100
AcDbPoint
 10
12.73070976427327
 20
13.21012972134424
 30
0.0
  0
LINE
  5
282
330
1E
100
AcDbEntity
  8
0
100
AcDbLine
 10
12.73070976427326
 20
13.32300308364304
 30
0.0
 11
12.85991976427326
 21
13.32300308364304
 31
0.0
  0
ARC
  5
283
330
1E
100
AcDbEntity
  8
0
100
AcDbCircle
 10
13.69881188173814
 20
13.56800308364304
 30
0.0
 40
0.4231078825351276
100
AcDbArc
 50
339.6374530946512
 51
20.36254690534861
  0
ARC
  5
284
330
1E
100
AcDbEntity
  8
0
100
AcDbCircle
 10
14.00622773277076
 20
13.347166605678
 30
0.0
 40
0.1156920315025084
100
AcDbArc
 50
320.4852508123726
 51
39.5147491876274
  0
LINE
  5
285
330
1E
100
AcDbEntity
  8
0
100
AcDbLine
 10
12.73070976427327
 20
15.12782972134424
 30
0.0
 11
13.30270976427327
 21
15.12782972134424
 31
0.0
  0
LINE
  5
286
330
1E
100
AcDbEntity
  8
0
100
AcDbLine
 10
12.73070976427327
 20
14.12542972134424
 30
0.0
 11
13.30270976427327
 21
14.12542972134424
 31
0.0
  0
LINE
  5
287
330
1E
100
AcDbEntity
  8
0
100
AcDbLine
 10
12.73070976427327
 20
15.26742972134424
 30
0.0
 11
13.30270976427327
 21
15.26742972134424
 31
0.0
  0
LINE
  5
288
330
1E
100
AcDbEntity
  8
0
100
AcDbLine
 10
12.88635992658963
 20
13.86245172092975
 30
0.0
 11
14.09547960195666
 21
13.86245172092975
 31
0.0
  0
LINE
  5
289
330
1E
100
AcDbEntity
  8
OBJ
100
AcDbLine
 10
12.53370976427327
 20
14.70462972134424
 30
0.0
 11
12.53370976427327
 21
15.69062972134424
 31
0.0
  0
ARC
  5
28A
330
1E
100
AcDbEntity
  8
OBJ
100
AcDbCircle
 10
12.61170976427327
 20
14.70462972134424
 30
0.0
 40
0.078
100
AcDbArc
 50
179.9999999999999
 51
270.0000000000002
  0
ARC
  5
28B
330
1E
100
AcDbEntity
  8
OBJ
100
AcDbCircle
 10
12.61170976427327
 20
14.54862972134424
 30
0.0
 40
0.078
100
AcDbArc
 50
90.0
 51
180.0
  0
LINE
  5
28C
330
1E
100
AcDbEntity
  8
OBJ
100
AcDbLine
 10
12.73070976427327
 20
14.62662972134424
 30
0.0
 11
12.61170976427327
 21
14.62662972134424
 31
0.0
  0
LINE
  5
28D
330
1E
100
AcDbEntity
  8
0
100
AcDbLine
 10
12.73070976427326
 20
13.81300308364304
 30
0.0
 11
12.85991976427326
 21
13.81300308364304
 31
0.0
  0
CIRCLE
  5
28E
330
1E
100
AcDbEntity
  8
OBJ
100
AcDbCircle
 10
13.89325976427327
 20
15.00862972134424
 30
0.0
 40
0.2705498427446287
  0
ARC
  5
28F
330
1E
100
AcDbEntity
  8
OBJ
100
AcDbCircle
 10
12.17186723748163
 20
14.58337066190341
 30
0.0
 40
1.27131742092991
100
AcDbArc
 50
338.3818123692123
 51
25.92188627972865
  0
ARC
  5
290
330
1E
100
AcDbEntity
  8
OBJ
100
AcDbCircle
 10
13.73919412879023
 20
14.89992348109723
 30
0.0
 40
0.2817034627849869
100
AcDbArc
 50
218.7619788299662
 51
268.925492804649
  0
LINE
  5
291
330
1E
100
AcDbEntity
  8
OBJ
100
AcDbLine
 10
13.38144976427326
 20
13.9637661734642
 30
0.0
 11
14.12317976427326
 21
13.9637661734642
 31
0.0
  0
ARC
  5
292
330
1E
100
AcDbEntity
  8
OBJ
100
AcDbCircle
 10
13.50982196717686
 20
14.71575400096485
 30
0.0
 40
0.0124563338144484
100
AcDbArc
 50
38.76197882996647
 51
179.824078041882
  0
LINE
  5
293
330
1E
100
AcDbEntity
  8
OBJ
100
AcDbLine
 10
13.49575854760435
 20
14.68561666322984
 30
0.0
 11
13.49575854760435
 21
14.29157862422175
 31
0.0
  0
ARC
  5
294
330
1E
100
AcDbEntity
  8
OBJ
100
AcDbCircle
 10
13.38144976427326
 20
14.0425061734642
 30
0.0
 40
0.07874
100
AcDbArc
 50
180.0
 51
270.0
  0
ARC
  5
295
330
1E
100
AcDbEntity
  8
OBJ
100
AcDbCircle
 10
13.15765525808082
 20
14.30755725614275
 30
0.0
 40
0.3384806509458162
100
AcDbArc
 50
310.020210509169
 51
357.2942366293368
  0
ARC
  5
296
330
1E
100
AcDbEntity
  8
OBJ
100
AcDbCircle
 10
13.73919412879023
 20
15.11733596159125
 30
0.0
 40
0.2817034627849869
100
AcDbArc
 50
91.07450719535096
 51
141.2380211700337
  0
ARC
  5
297
330
1E
100
AcDbEntity
  8
OBJ
100
AcDbCircle
 10
13.50982196717686
 20
15.30150544172363
 30
0.0
 40
0.0124563338144484
100
AcDbArc
 50
180.1759219581178
 51
321.2380211700335
  0
POINT
  5
298
330
1E
100
AcDbEntity
  8
DEFPOINTS
  6
ByBlock
 62
     0
100
AcDbPoint
 10
13.30270976427327
 20
15.1292528313015
 30
0.0
  0
ARC
  5
299
330
1E
100
AcDbEntity
  8
OBJ
100
AcDbCircle
 10
12.17186723748163
 20
15.69487172701435
 30
0.0
 40
1.27131742092991
100
AcDbArc
 50
334.0781137202714
 51
1.625430468996421
  0
LINE
  5
29A
330
1E
100
AcDbEntity
  8
OBJ
100
AcDbLine
 10
13.89325976427327
 20
15.09862972134424
 30
0.0
 11
13.89325976427327
 21
14.91862972134424
 31
0.0
  0
POINT
  5
29B
330
1E
100
AcDbEntity
  8
DEFPOINTS
  6
ByBlock
 62
     0
100
AcDbPoint
 10
13.89325976427327
 20
15.0730607346462
 30
0.0
  0
LINE
  5
29C
330
1E
100
AcDbEntity
  8
OBJ
100
AcDbLine
 10
14.03484173499269
 20
15.00862972134424
 30
0.0
 11
13.74652506322046
 21
15.00862972134424
 31
0.0
  0
LINE
  5
29D
330
1E
100
AcDbEntity
  8
OBJ
  6
Continuous
100
AcDbLine
 10
12.00370976427326
 20
18.30925635904543
 30
0.0
 11
12.06370976427326
 21
18.30925635904543
 31
0.0
  0
ARC
  5
29E
330
1E
100
AcDbEntity
  8
OBJ
100
AcDbCircle
 10
11.98370976427327
 20
16.98862972134424
 30
0.0
 40
0.078
100
AcDbArc
 50
270.0
 51
0.0
  0
LINE
  5
29F
330
1E
100
AcDbEntity
  8
OBJ
  6
Continuous
100
AcDbLine
 10
12.00370976427326
 20
17.62925635904544
 30
0.0
 11
12.06370976427326
 21
17.62925635904544
 31
0.0
  0
ARC
  5
2A0
330
1E
100
AcDbEntity
  8
OBJ
100
AcDbCircle
 10
11.86470976427327
 20
17.73762972134425
 30
0.0
 40
0.197
100
AcDbArc
 50
269.9999999999998
 51
0.0
  0
LINE
  5
2A1
330
1E
100
AcDbEntity
  8
OBJ
  6
CENTER2
100
AcDbLine
 10
12.85570976427327
 20
15.76862972134424
 30
0.0
 11
10.93370976427327
 21
15.76862972134424
 31
0.0
  0
ARC
  5
2A2
330
1E
100
AcDbEntity
  8
OBJ
100
AcDbCircle
 10
11.82470976427327
 20
15.76862972134424
 30
0.0
 40
0.7079999999999993
100
AcDbArc
 50
0.0000000000000763
 51
132.7524652251972
  0
ARC
  5
2A3
330
1E
100
AcDbEntity
  8
OBJ
100
AcDbCircle
 10
11.82470976427327
 20
15.76862972134424
 30
0.0
 40
0.5905000000000001
100
AcDbArc
 50
0.0000000000000763
 51
180.0
  0
ARC
  5
2A4
330
1E
100
AcDbEntity
  8
OBJ
100
AcDbCircle
 10
11.82470976427327
 20
15.76862972134424
 30
0.0
 40
0.4035000000000001
100
AcDbArc
 50
0.0000000000000763
 51
179.9999999999999
  0
ARC
  5
2A5
330
1E
100
AcDbEntity
  8
OBJ
100
AcDbCircle
 10
11.82470976427327
 20
15.76862972134424
 30
0.0
 40
0.423
100
AcDbArc
 50
0.0000000000000763
 51
180.0
  0
LINE
  5
2A6
330
1E
100
AcDbEntity
  8
0
100
AcDbLine
 10
12.00370976427326
 20
17.62925635904544
 30
0.0
 11
12.00370976427326
 21
18.30925635904543
 31
0.0
  0
ARC
  5
2A7
330
1E
100
AcDbEntity
  8
0
100
AcDbCircle
 10
12.10751763951763
 20
17.7484198810804
 30
0.0
 40
0.1451067142246597
100
AcDbArc
 50
149.5160676037339
 51
210.4839323962664
  0
ARC
  5
2A8
330
1E
100
AcDbEntity
  8
0
100
AcDbCircle
 10
11.85940179577577
 20
17.7484198810804
 30
0.0
 40
0.1156920315025084
100
AcDbArc
 50
140.4852508123726
 51
219.5147491876274
  0
LINE
  5
2A9
330
1E
100
AcDbEntity
  8
OBJ
  6
CENTER2
100
AcDbLine
 10
11.33309232060762
 20
16.91062972134424
 30
0.0
 11
10.64883288654491
 21
16.91062972134424
 31
0.0
  0
LINE
  5
2AA
330
1E
100
AcDbEntity
  8
OBJ
100
AcDbLine
 10
10.95970976427327
 20
16.49662972134425
 30
0.0
 11
10.95970976427327
 21
17.32462972134424
 31
0.0
  0
LINE
  5
2AB
330
1E
100
AcDbEntity
  8
OBJ
100
AcDbLine
 10
11.21570976427327
 20
16.20378884313074
 30
0.0
 11
11.21570976427327
 21
17.22562972134423
 31
0.0
  0
LINE
  5
2AC
330
1E
100
AcDbEntity
  8
OBJ
100
AcDbLine
 10
11.05870976427327
 20
15.76862972134424
 30
0.0
 11
11.05870976427327
 21
16.41862972134425
 31
0.0
  0
LINE
  5
2AD
330
1E
100
AcDbEntity
  8
OBJ
100
AcDbLine
 10
11.09770976427327
 20
16.41862972134425
 30
0.0
 11
11.03770976427327
 21
16.41862972134425
 31
0.0
  0
ARC
  5
2AE
330
1E
100
AcDbEntity
  8
OBJ
100
AcDbCircle
 10
11.09770976427327
 20
16.30062972134424
 30
0.0
 40
0.118
100
AcDbArc
 50
0.0
 51
90.0
  0
ARC
  5
2AF
330
1E
100
AcDbEntity
  8
OBJ
100
AcDbCircle
 10
11.03770976427327
 20
16.49662972134425
 30
0.0
 40
0.078
100
AcDbArc
 50
180.0
 51
270.0
  0
POINT
  5
2B0
330
1E
100
AcDbEntity
  8
DEFPOINTS
  6
ByBlock
 62
     0
100
AcDbPoint
 10
11.03770976427327
 20
16.41862972134425
 30
0.0
  0
POINT
  5
2B1
330
1E
100
AcDbEntity
  8
DEFPOINTS
  6
ByBlock
 62
     0
100
AcDbPoint
 10
10.95970976427327
 20
16.57562972134424
 30
0.0
  0
POINT
  5
2B2
330
1E
100
AcDbEntity
  8
DEFPOINTS
  6
ByBlock
 62
     0
100
AcDbPoint
 10
10.95970976427327
 20
16.57562972134424
 30
0.0
  0
ARC
  5
2B3
330
1E
100
AcDbEntity
  8
OBJ
100
AcDbCircle
 10
11.55226379563773
 20
15.83340987167833
 30
0.0
 40
0.5004489969235796
100
AcDbArc
 50
113.5887872283075
 51
189.5219009622082
  0
ARC
  5
2B4
330
1E
100
AcDbEntity
  8
OBJ
100
AcDbCircle
 10
11.53070976427327
 20
17.22562972134425
 30
0.0
 40
0.315
100
AcDbArc
 50
90.0
 51
144.3285566574579
  0
ARC
  5
2B5
330
1E
100
AcDbEntity
  8
OBJ
  6
HIDDEN2
100
AcDbCircle
 10
11.53070976427327
 20
17.22562972134425
 30
0.0
 40
0.315
100
AcDbArc
 50
146.4228803497263
 51
180.0
  0
POINT
  5
2B6
330
1E
100
AcDbEntity
  8
DEFPOINTS
  6
ByBlock
 62
     0
100
AcDbPoint
 10
10.95970976427327
 20
17.24562972134424
 30
0.0
  0
POINT
  5
2B7
330
1E
100
AcDbEntity
  8
DEFPOINTS
  6
ByBlock
 62
     0
100
AcDbPoint
 10
10.95970976427327
 20
17.24562972134424
 30
0.0
  0
POINT
  5
2B8
330
1E
100
AcDbEntity
  8
DEFPOINTS
  6
ByBlock
 62
     0
100
AcDbPoint
 10
10.95970976427327
 20
17.24562972134424
 30
0.0
  0
LINE
  5
2B9
330
1E
100
AcDbEntity
  8
OBJ
100
AcDbLine
 10
11.27014115526597
 20
17.40262972134424
 30
0.0
 11
11.03770976427327
 21
17.40262972134424
 31
0.0
  0
ARC
  5
2BA
330
1E
100
AcDbEntity
  8
OBJ
100
AcDbCircle
 10
11.03770976427327
 20
17.32462972134424
 30
0.0
 40
0.078
100
AcDbArc
 50
90.0
 51
180.0
  0
POINT
  5
2BB
330
1E
100
AcDbEntity
  8
DEFPOINTS
  6
ByBlock
 62
     0
100
AcDbPoint
 10
11.03770976427327
 20
17.40262972134424
 30
0.0
  0
LINE
  5
2BC
330
1E
100
AcDbEntity
  8
0
100
AcDbLine
 10
12.00370976427326
 20
17.62925635904544
 30
0.0
 11
11.98246881500066
 21
17.67480772175872
 31
0.0
  0
LINE
  5
2BD
330
1E
100
AcDbEntity
  8
OBJ
100
AcDbLine
 10
11.53070976427327
 20
17.54062972134424
 30
0.0
 11
11.86470976427327
 21
17.54062972134424
 31
0.0
  0
LINE
  5
2BE
330
1E
100
AcDbEntity
  8
0
100
AcDbLine
 10
11.77014992658987
 20
17.67480772175872
 30
0.0
 11
11.98246881500066
 21
17.67480772175872
 31
0.0
  0
ARC
  5
2BF
330
1E
100
AcDbEntity
  8
0
100
AcDbCircle
 10
12.51397186371554
 20
17.96925635904543
 30
0.0
 40
0.5515165371892456
100
AcDbArc
 50
164.5174712837548
 51
195.4825287162453
  0
LINE
  5
2C0
330
1E
100
AcDbEntity
  8
0
100
AcDbLine
 10
11.98246881500066
 20
18.26370499633214
 30
0.0
 11
12.00370976427326
 21
18.30925635904543
 31
0.0
  0
ARC
  5
2C1
330
1E
100
AcDbEntity
  8
0
100
AcDbCircle
 10
12.10751763951763
 20
18.19009283701047
 30
0.0
 40
0.1451067142246597
100
AcDbArc
 50
149.5160676037335
 51
210.483932396266
  0
LINE
  5
2C2
330
1E
100
AcDbEntity
  8
OBJ
  6
Continuous
100
AcDbLine
 10
11.69053336662362
 20
18.13425635904544
 30
0.0
 11
11.74370976427326
 21
18.13425635904544
 31
0.0
  0
LINE
  5
2C3
330
1E
100
AcDbEntity
  8
OBJ
  6
Continuous
100
AcDbLine
 10
11.69053336662362
 20
17.80425635904543
 30
0.0
 11
11.74370976427326
 21
17.80425635904543
 31
0.0
  0
ARC
  5
2C4
330
1E
100
AcDbEntity
  8
0
100
AcDbCircle
 10
12.12020473661043
 20
17.96925635904543
 30
0.0
 40
0.4602634964738641
100
AcDbArc
 50
158.9924907656086
 51
201.0075092343913
  0
LINE
  5
2C5
330
1E
100
AcDbEntity
  8
0
100
AcDbLine
 10
11.69053336662362
 20
17.80425635904543
 30
0.0
 11
11.69053336662362
 21
18.13425635904544
 31
0.0
  0
LINE
  5
2C6
330
1E
100
AcDbEntity
  8
0
100
AcDbLine
 10
11.74370976427326
 20
17.7484198810804
 30
0.0
 11
11.74370976427326
 21
18.19009283701047
 31
0.0
  0
ARC
  5
2C7
330
1E
100
AcDbEntity
  8
0
100
AcDbCircle
 10
12.16681764680839
 20
17.96925635904543
 30
0.0
 40
0.4231078825351276
100
AcDbArc
 50
159.6374530946513
 51
200.3625469053486
  0
ARC
  5
2C8
330
1E
100
AcDbEntity
  8
0
100
AcDbCircle
 10
11.85940179577577
 20
18.19009283701047
 30
0.0
 40
0.1156920315025084
100
AcDbArc
 50
140.4852508123726
 51
219.5147491876274
  0
LINE
  5
2C9
330
1E
100
AcDbEntity
  8
0
100
AcDbLine
 10
11.77014992658987
 20
18.26370499633214
 30
0.0
 11
11.98246881500066
 21
18.26370499633214
 31
0.0
  0
LINE
  5
2CA
330
1E
100
AcDbEntity
  8
0
100
AcDbLine
 10
11.77014992658987
 20
18.11648067768879
 30
0.0
 11
11.98246881500066
 21
18.11648067768879
 31
0.0
  0
LINE
  5
2CB
330
1E
100
AcDbEntity
  8
0
100
AcDbLine
 10
11.77014992658987
 20
17.82203204040208
 30
0.0
 11
11.98246881500066
 21
17.82203204040208
 31
0.0
  0
LINE
  5
2CC
330
1E
100
AcDbEntity
  8
0
100
AcDbLine
 10
14.12191976427326
 20
17.67425635904543
 30
0.0
 11
14.12191976427326
 21
18.26425635904543
 31
0.0
  0
ARC
  5
2CD
330
1E
100
AcDbEntity
  8
0
100
AcDbCircle
 10
14.00622773277076
 20
17.7484198810804
 30
0.0
 40
0.1156920315025084
100
AcDbArc
 50
320.4852508123726
 51
39.51474918762739
  0
LINE
  5
2CE
330
1E
100
AcDbEntity
  8
OBJ
100
AcDbLine
 10
12.53370976427327
 20
17.89512972134423
 30
0.0
 11
12.53370976427327
 21
16.98862972134424
 31
0.0
  0
LINE
  5
2CF
330
1E
100
AcDbEntity
  8
OBJ
100
AcDbLine
 10
12.06170976427327
 20
18.24912972134423
 30
0.0
 11
12.06170976427327
 21
16.98862972134424
 31
0.0
  0
ARC
  5
2D0
330
1E
100
AcDbEntity
  8
0
100
AcDbCircle
 10
12.97561179577577
 20
17.7484198810804
 30
0.0
 40
0.1156920315025084
100
AcDbArc
 50
140.4852508123726
 51
219.5147491876274
  0
LINE
  5
2D1
330
1E
100
AcDbEntity
  8
0
100
AcDbLine
 10
12.06370976427326
 20
17.62925635904544
 30
0.0
 11
12.06370976427326
 21
18.30925635904543
 31
0.0
  0
LINE
  5
2D2
330
1E
100
AcDbEntity
  8
0
100
AcDbLine
 10
12.73070976427327
 20
16.40942972134423
 30
0.0
 11
13.30270976427327
 21
16.40942972134423
 31
0.0
  0
LINE
  5
2D3
330
1E
100
AcDbEntity
  8
0
100
AcDbLine
 10
12.73070976427327
 20
17.41182972134423
 30
0.0
 11
13.30270976427327
 21
17.41182972134423
 31
0.0
  0
LINE
  5
2D4
330
1E
100
AcDbEntity
  8
0
100
AcDbLine
 10
12.73070976427327
 20
16.26982972134424
 30
0.0
 11
13.30270976427327
 21
16.26982972134424
 31
0.0
  0
LINE
  5
2D5
330
1E
100
AcDbEntity
  8
0
100
AcDbLine
 10
12.88635992659026
 20
17.67480772175873
 30
0.0
 11
14.09547960195666
 21
17.67480772175872
 31
0.0
  0
LINE
  5
2D6
330
1E
100
AcDbEntity
  8
OBJ
100
AcDbLine
 10
12.53370976427327
 20
16.83262972134423
 30
0.0
 11
12.53370976427327
 21
15.84662972134424
 31
0.0
  0
ARC
  5
2D7
330
1E
100
AcDbEntity
  8
OBJ
100
AcDbCircle
 10
12.61170976427327
 20
15.84662972134424
 30
0.0
 40
0.078
100
AcDbArc
 50
180.0
 51
270.0
  0
ARC
  5
2D8
330
1E
100
AcDbEntity
  8
OBJ
100
AcDbCircle
 10
12.61170976427327
 20
16.98862972134424
 30
0.0
 40
0.078
100
AcDbArc
 50
180.0
 51
270.0
  0
ARC
  5
2D9
330
1E
100
AcDbEntity
  8
OBJ
100
AcDbCircle
 10
12.61170976427327
 20
16.83262972134423
 30
0.0
 40
0.078
100
AcDbArc
 50
89.99999999999975
 51
180.0000000000001
  0
ARC
  5
2DA
330
1E
100
AcDbEntity
  8
OBJ
100
AcDbCircle
 10
12.17186723748163
 20
16.87849541337098
 30
0.0
 40
1.27131742092991
100
AcDbArc
 50
334.0781137202713
 51
21.61818763078766
  0
LINE
  5
2DB
330
1E
100
AcDbEntity
  8
OBJ
100
AcDbLine
 10
13.38144976427326
 20
17.57349326922426
 30
0.0
 11
14.12317976427326
 21
17.57349326922426
 31
0.0
  0
ARC
  5
2DC
330
1E
100
AcDbEntity
  8
OBJ
100
AcDbCircle
 10
13.38144976427326
 20
17.49475326922427
 30
0.0
 40
0.07874
100
AcDbArc
 50
90.0
 51
180.0
  0
ARC
  5
2DD
330
1E
100
AcDbEntity
  8
OBJ
100
AcDbCircle
 10
13.15765525808082
 20
17.15430881913164
 30
0.0
 40
0.3384806509458162
100
AcDbArc
 50
2.705763370663138
 51
49.97978949083097
  0
LINE
  5
2DE
330
1E
100
AcDbEntity
  8
0
100
AcDbLine
 10
12.88635992659016
 20
18.11648067768879
 30
0.0
 11
14.09547960195666
 21
18.11648067768878
 31
0.0
  0
LINE
  5
2DF
330
1E
100
AcDbEntity
  8
0
100
AcDbLine
 10
12.88635992658988
 20
17.82203204040208
 30
0.0
 11
14.09547960195666
 21
17.82203204040208
 31
0.0
  0
LINE
  5
2E0
330
1E
100
AcDbEntity
  8
0
100
AcDbLine
 10
12.88635992659016
 20
18.26370499633214
 30
0.0
 11
14.09547960195666
 21
18.26370499633214
 31
0.0
  0
ARC
  5
2E1
330
1E
100
AcDbEntity
  8
OBJ
100
AcDbCircle
 10
12.61170976427327
 20
17.89512972134423
 30
0.0
 40
0.078
100
AcDbArc
 50
90.0
 51
180.0000000000002
  0
LINE
  5
2E2
330
1E
100
AcDbEntity
  8
OBJ
100
AcDbLine
 10
12.13970976427327
 20
18.32712972134423
 30
0.0
 11
12.73070976427327
 21
18.32712972134423
 31
0.0
  0
POINT
  5
2E3
330
1E
100
AcDbEntity
  8
DEFPOINTS
  6
ByBlock
 62
     0
100
AcDbPoint
 10
12.53370976427327
 20
17.89512972134423
 30
0.0
  0
ARC
  5
2E4
330
1E
100
AcDbEntity
  8
OBJ
100
AcDbCircle
 10
12.13970976427327
 20
18.24912972134425
 30
0.0
 40
0.078
100
AcDbArc
 50
90.00000000000007
 51
180.0
  0
LINE
  5
2E5
330
1E
100
AcDbEntity
  8
OBJ
100
AcDbLine
 10
12.06170976427327
 20
18.24912972134425
 30
0.0
 11
12.06170976427327
 21
17.73762972134425
 31
0.0
  0
ARC
  5
2E6
330
1E
100
AcDbEntity
  8
OBJ
100
AcDbCircle
 10
12.13970976427327
 20
18.24912972134423
 30
0.0
 40
0.078
100
AcDbArc
 50
90.0
 51
179.9999999999998
  0
ARC
  5
2E7
330
1E
100
AcDbEntity
  8
0
100
AcDbCircle
 10
13.28302764680839
 20
17.96925635904543
 30
0.0
 40
0.4231078825351276
100
AcDbArc
 50
159.6374530946513
 51
200.3625469053486
  0
LINE
  5
2E8
330
1E
100
AcDbEntity
  8
0
100
AcDbLine
 10
12.85991976427326
 20
17.72425635904543
 30
0.0
 11
12.85991976427326
 21
18.21425635904543
 31
0.0
  0
ARC
  5
2E9
330
1E
100
AcDbEntity
  8
0
100
AcDbCircle
 10
12.97561179577577
 20
18.19009283701047
 30
0.0
 40
0.1156920315025084
100
AcDbArc
 50
140.4852508123726
 51
219.5147491876274
  0
LINE
  5
2EA
330
1E
100
AcDbEntity
  8
0
100
AcDbLine
 10
12.80991976427326
 20
17.72425635904543
 30
0.0
 11
12.80991976427326
 21
18.21425635904543
 31
0.0
  0
POINT
  5
2EB
330
1E
100
AcDbEntity
  8
DEFPOINTS
  6
ByBlock
 62
     0
100
AcDbPoint
 10
12.73070976427327
 20
18.32712972134423
 30
0.0
  0
LINE
  5
2EC
330
1E
100
AcDbEntity
  8
0
100
AcDbLine
 10
12.73070976427326
 20
18.21425635904543
 30
0.0
 11
12.85991976427326
 21
18.21425635904543
 31
0.0
  0
LINE
  5
2ED
330
1E
100
AcDbEntity
  8
0
100
AcDbLine
 10
12.73070976427326
 20
17.72425635904543
 30
0.0
 11
12.85991976427326
 21
17.72425635904543
 31
0.0
  0
ARC
  5
2EE
330
1E
100
AcDbEntity
  8
0
100
AcDbCircle
 10
13.69881188173814
 20
17.96925635904543
 30
0.0
 40
0.4231078825351276
100
AcDbArc
 50
339.6374530946514
 51
20.36254690534866
  0
ARC
  5
2EF
330
1E
100
AcDbEntity
  8
0
100
AcDbCircle
 10
14.00622773277076
 20
18.19009283701047
 30
0.0
 40
0.1156920315025084
100
AcDbArc
 50
320.4852508123726
 51
39.51474918762739
  0
LINE
  5
2F0
330
1E
100
AcDbEntity
  8
0
100
AcDbLine
 10
18.60761976427324
 20
11.4073961783707
 30
0.0
 11
18.60761976427324
 21
12.66739617837072
 31
0.0
  0
LINE
  5
2F1
330
1E
100
AcDbEntity
  8
0
100
AcDbLine
 10
19.02641976427323
 20
11.37739617837071
 30
0.0
 11
19.02641976427323
 21
12.61171819008862
 31
0.0
  0
LINE
  5
2F2
330
1E
100
AcDbEntity
  8
0
100
AcDbLine
 10
18.83841976427325
 20
11.37739617837071
 30
0.0
 11
18.83841976427325
 21
12.6117181900886
 31
0.0
  0
LINE
  5
2F3
330
1E
100
AcDbEntity
  8
0
100
AcDbLine
 10
19.25721976427326
 20
11.40739617837071
 30
0.0
 11
19.25721976427325
 21
12.66739617837072
 31
0.0
  0
ARC
  5
2F8
330
1E
100
AcDbEntity
  8
0
100
AcDbCircle
 10
21.24330623079729
 20
-11.61753640521095
 30
0.0
 40
17.57961361673391
100
AcDbArc
 50
92.14306496055824
 51
101.5351848084236
  0
CIRCLE
  5
2F9
330
1E
100
AcDbEntity
  8
0
100
AcDbCircle
 10
18.93241976427325
 20
3.852281487606045
 30
0.0
 40
0.3935
  0
CIRCLE
  5
2FA
330
1E
100
AcDbEntity
  8
0
100
AcDbCircle
 10
18.93241976427325
 20
3.852281487606045
 30
0.0
 40
0.4900000000000001
  0
LINE
  5
2FB
330
1E
100
AcDbEntity
  8
0
100
AcDbLine
 10
16.91191480672522
 20
1.708276530057982
 30
0.0
 11
18.5909247218213
 21
1.708276530057997
 31
0.0
  0
CIRCLE
  5
2FC
330
1E
100
AcDbEntity
  8
0
100
AcDbCircle
 10
18.93241976427325
 20
3.852281487606045
 30
0.0
 40
1.584999999999999
  0
CIRCLE
  5
2FD
330
1E
100
AcDbEntity
  8
0
100
AcDbCircle
 10
18.93241976427325
 20
3.852281487606045
 30
0.0
 40
0.654
  0
CIRCLE
  5
2FE
330
1E
100
AcDbEntity
  8
0
100
AcDbCircle
 10
18.93241976427325
 20
3.852281487606045
 30
0.0
 40
0.9009999999999999
  0
ARC
  5
300
330
1E
100
AcDbEntity
  8
0
100
AcDbCircle
 10
21.24330623079729
 20
19.32209938042307
 30
0.0
 40
17.57961361673391
100
AcDbArc
 50
249.8827091576846
 51
267.8569350394417
  0
CIRCLE
  5
301
330
1E
100
AcDbEntity
  8
0
100
AcDbCircle
 10
18.04146521997821
 20
4.743236031901101
 30
0.0
 40
0.2251666049839471
  0
CIRCLE
  5
30A
330
1E
100
AcDbEntity
  8
0
100
AcDbCircle
 10
18.04146521997821
 20
4.743236031901101
 30
0.0
 40
0.1867872331998521
  0
CIRCLE
  5
30B
330
1E
100
AcDbEntity
  8
OBJ
100
AcDbCircle
 10
18.04146521997821
 20
4.743236031901101
 30
0.0
 40
0.16065
  0
LINE
  5
30C
330
1E
100
AcDbEntity
  8
OBJ
100
AcDbLine
 10
18.07716521997821
 20
4.7789360319011
 30
0.0
 11
18.07716521997821
 21
4.850336031901104
 31
0.0
  0
LINE
  5
30D
330
1E
100
AcDbEntity
  8
OBJ
100
AcDbLine
 10
18.00576521997821
 20
4.7789360319011
 30
0.0
 11
18.00576521997821
 21
4.850336031901104
 31
0.0
  0
ARC
  5
30E
330
1E
100
AcDbEntity
  8
0
100
AcDbCircle
 10
18.04146521997821
 20
4.743236031901101
 30
0.0
 40
0.1932853545235975
100
AcDbArc
 50
139.3955218742233
 51
160.6044781257771
  0
ARC
  5
30F
330
1E
100
AcDbEntity
  8
0
100
AcDbCircle
 10
18.04146521997821
 20
4.743236031901101
 30
0.0
 40
0.1932853545235975
100
AcDbArc
 50
19.39552187422217
 51
40.60447812577818
  0
ARC
  5
310
330
1E
100
AcDbEntity
  8
0
100
AcDbCircle
 10
21.24330623079729
 20
-11.61753640521095
 30
0.0
 40
17.57961361673391
100
AcDbArc
 50
108.1674706180862
 51
112.1968017046705
  0
LINE
  5
311
330
1E
100
AcDbEntity
  8
0
100
AcDbLine
 10
16.22591976427326
 20
1.02228148760609
 30
0.0
 11
16.91191480672522
 21
1.708276530057982
 31
0.0
  0
LINE
  5
312
330
1E
100
AcDbEntity
  8
0
100
AcDbLine
 10
15.38891976427327
 20
1.686281487606049
 30
0.0
 11
16.88991976427329
 21
1.686281487606049
 31
0.0
  0
LINE
  5
313
330
1E
100
AcDbEntity
  8
0
100
AcDbLine
 10
16.38291976427328
 20
0.8992814876060428
 30
0.0
 11
15.38891976427327
 21
0.8992814876060428
 31
0.0
  0
LINE
  5
314
330
1E
100
AcDbEntity
  8
0
100
AcDbLine
 10
15.76422310123347
 20
3.762281487606042
 30
0.0
 11
17.31262905703568
 21
3.762281487606042
 31
0.0
  0
LINE
  5
315
330
1E
100
AcDbEntity
  8
0
100
AcDbLine
 10
15.76422310123352
 20
3.942281487606049
 30
0.0
 11
17.31262905703568
 21
3.942281487606049
 31
0.0
  0
LINE
  5
316
330
1E
100
AcDbEntity
  8
OBJ
100
AcDbLine
 10
14.54286476427326
 20
2.592481487606043
 30
0.0
 11
14.54286476427327
 21
2.975122540074838
 31
0.0
  0
ARC
  5
317
330
1E
100
AcDbEntity
  8
OBJ
100
AcDbCircle
 10
14.39431476427327
 20
2.892481487606044
 30
0.0
 40
0.06
100
AcDbArc
 50
270.0
 51
0.0000000000000254
  0
LINE
  5
318
330
1E
100
AcDbEntity
  8
0
100
AcDbLine
 10
15.19691976427326
 20
2.850300824419644
 30
0.0
 11
15.19691976427326
 21
2.815009218583764
 31
0.0
  0
POINT
  5
31B
330
1E
100
AcDbEntity
  8
DEFPOINTS
  6
ByBlock
 62
     0
100
AcDbPoint
 10
14.54286476427326
 20
2.592481487606043
 30
0.0
  0
POINT
  5
31C
330
1E
100
AcDbEntity
  8
DEFPOINTS
  6
ByBlock
 62
     0
100
AcDbPoint
 10
14.54286476427326
 20
2.592481487606043
 30
0.0
  0
LINE
  5
31E
330
1E
100
AcDbEntity
  8
0
100
AcDbLine
 10
15.38891976427327
 20
2.67887952449443
 30
0.0
 11
15.38891976427327
 21
0.8992814876060428
 31
0.0
  0
CIRCLE
  5
31F
330
1E
100
AcDbEntity
  8
0
100
AcDbCircle
 10
15.78291976427327
 20
1.372281487606041
 30
0.0
 40
0.167
  0
LINE
  5
320
330
1E
100
AcDbEntity
  8
0
100
AcDbLine
 10
16.18591976427325
 20
0.992281487606089
 30
0.0
 11
16.18591976427325
 21
0.8992814876060712
 31
0.0
  0
ARC
  5
321
330
1E
100
AcDbEntity
  8
0
100
AcDbCircle
 10
16.21591976427325
 20
0.992281487606089
 30
0.0
 40
0.03
100
AcDbArc
 50
90.0
 51
179.999999999997
  0
LINE
  5
322
330
1E
100
AcDbEntity
  8
0
100
AcDbLine
 10
16.22591976427326
 20
1.02228148760609
 30
0.0
 11
16.21591976427325
 21
1.02228148760609
 31
0.0
  0
ARC
  5
323
330
1E
100
AcDbEntity
  8
0
100
AcDbCircle
 10
15.29391976427327
 20
2.67887952449443
 30
0.0
 40
0.095
100
AcDbArc
 50
0.0
 51
70.32975354902676
  0
ARC
  5
324
330
1E
100
AcDbEntity
  8
0
100
AcDbCircle
 10
14.79926334752064
 20
5.667662099603827
 30
0.0
 40
2.23554674561778
100
AcDbArc
 50
270.6985173636149
 51
300.7019822736773
  0
ARC
  5
325
330
1E
100
AcDbEntity
  8
0
100
AcDbCircle
 10
14.79926334752064
 20
2.036900875608235
 30
0.0
 40
2.23554674561778
100
AcDbArc
 50
59.29801772632258
 51
89.30148263638507
  0
LINE
  5
326
330
1E
100
AcDbEntity
  8
0
100
AcDbLine
 10
14.20191976427326
 20
4.147281487606047
 30
0.0
 11
14.20191976427326
 21
3.557281487606044
 31
0.0
  0
LINE
  5
327
330
1E
100
AcDbEntity
  8
OBJ
100
AcDbLine
 10
14.20191976427326
 20
4.23597949137283
 30
0.0
 11
14.20191976427326
 21
3.46858348383926
 31
0.0
  0
LINE
  5
328
330
1E
100
AcDbEntity
  8
0
100
AcDbLine
 10
14.60191976427326
 20
4.639681487606043
 30
0.0
 11
14.60191976427327
 21
3.029972854340119
 31
0.0
  0
LINE
  5
329
330
1E
100
AcDbEntity
  8
0
100
AcDbLine
 10
14.60191976427326
 20
3.102281487606045
 30
0.0
 11
14.60191976427326
 21
4.602281487606045
 31
0.0
  0
LINE
  5
32A
330
1E
100
AcDbEntity
  8
0
100
AcDbLine
 10
14.60191976427325
 20
4.659281487606047
 30
0.0
 11
14.60191976427326
 21
3.080573093441923
 31
0.0
  0
LINE
  5
32B
330
1E
100
AcDbEntity
  8
0
100
AcDbLine
 10
14.60191976427326
 20
3.432281487606015
 30
0.0
 11
14.8265171792979
 21
3.432281487606015
 31
0.0
  0
ARC
  5
32C
330
1E
100
AcDbEntity
  8
0
100
AcDbCircle
 10
21.24330623079729
 20
19.35739098625893
 30
0.0
 40
17.57961361673391
100
AcDbArc
 50
247.8031982953294
 51
249.8827091576846
  0
ARC
  5
32D
330
1E
100
AcDbEntity
  8
OBJ
100
AcDbCircle
 10
14.59786476427327
 20
2.975122540074838
 30
0.0
 40
0.055
100
AcDbArc
 50
85.77190206894089
 51
179.9999999999997
  0
LINE
  5
32E
330
1E
100
AcDbEntity
  8
OBJ
  6
Continuous
100
AcDbLine
 10
14.45431476427326
 20
2.892481487606044
 30
0.0
 11
14.45431476427326
 21
3.324237245325754
 31
0.0
  0
ARC
  5
32F
330
1E
100
AcDbEntity
  8
OBJ
100
AcDbCircle
 10
14.51431476427327
 20
3.075805952955661
 30
0.0
 40
0.06
100
AcDbArc
 50
90.0
 51
180.0
  0
ARC
  5
330
330
1E
100
AcDbEntity
  8
OBJ
100
AcDbCircle
 10
14.51431476427327
 20
3.324237245325754
 30
0.0
 40
0.06
100
AcDbArc
 50
90.0
 51
180.0
  0
LINE
  5
331
330
1E
100
AcDbEntity
  8
OBJ
100
AcDbLine
 10
14.20191976427326
 20
3.497781487606044
 30
0.0
 11
14.60191976427326
 21
3.497781487606044
 31
0.0
  0
LINE
  5
332
330
1E
100
AcDbEntity
  8
0
100
AcDbLine
 10
14.60191976427326
 20
4.272281487606047
 30
0.0
 11
14.8265171792979
 21
4.272281487606047
 31
0.0
  0
POINT
  5
333
330
1E
100
AcDbEntity
  8
DEFPOINTS
  6
ByBlock
 62
     0
100
AcDbPoint
 10
14.60191976427326
 20
4.53125449137283
 30
0.0
  0
POINT
  5
334
330
1E
100
AcDbEntity
  8
DEFPOINTS
  6
ByBlock
 62
     0
100
AcDbPoint
 10
14.60191976427326
 20
4.53125449137283
 30
0.0
  0
ARC
  5
335
330
1E
100
AcDbEntity
  8
OBJ
100
AcDbCircle
 10
14.22751976427327
 20
4.738181487606045
 30
0.0
 40
0.0591
100
AcDbArc
 50
10.99536720521724
 51
90.0
  0
POINT
  5
336
330
1E
100
AcDbEntity
  8
DEFPOINTS
  6
ByBlock
 62
     0
100
AcDbPoint
 10
14.22751976427327
 20
4.797281487606042
 30
0.0
  0
ARC
  5
337
330
1E
100
AcDbEntity
  8
OBJ
100
AcDbCircle
 10
14.42360851261552
 20
4.778326862853226
 30
0.0
 40
0.1410602822317444
100
AcDbArc
 50
191.3294324217795
 51
259.3828734096134
  0
LINE
  5
338
330
1E
100
AcDbEntity
  8
OBJ
100
AcDbLine
 10
14.20191976427326
 20
4.206781487606043
 30
0.0
 11
14.60191976427326
 21
4.206781487606043
 31
0.0
  0
LINE
  5
339
330
1E
100
AcDbEntity
  8
OBJ
100
AcDbLine
 10
14.60191976427326
 20
4.639681487606043
 30
0.0
 11
14.60191976427326
 21
4.23597949137283
 31
0.0
  0
ARC
  5
33A
330
1E
100
AcDbEntity
  8
0
100
AcDbCircle
 10
15.65831889274468
 20
3.852281487606042
 30
0.0
 40
0.0530394112514543
100
AcDbArc
 50
179.9999999999961
 51
216.1861349231113
  0
ARC
  5
33B
330
1E
100
AcDbEntity
  8
0
100
AcDbCircle
 10
15.70876269614727
 20
3.889182028226638
 30
0.0
 40
0.1155392288496788
100
AcDbArc
 50
216.1861349231028
 51
240.4797896104715
  0
ARC
  5
33C
330
1E
100
AcDbEntity
  8
0
100
AcDbCircle
 10
15.74222424614506
 20
3.948276471324142
 30
0.0
 40
0.1834496737993223
100
AcDbArc
 50
240.4797896104851
 51
256.8002285281516
  0
ARC
  5
33D
330
1E
100
AcDbEntity
  8
0
100
AcDbCircle
 10
15.76422310123346
 20
4.042070751363613
 30
0.0
 40
0.2797892637575725
100
AcDbArc
 50
256.8002285281331
 51
270.0000000000065
  0
ARC
  5
33E
330
1E
100
AcDbEntity
  8
0
100
AcDbCircle
 10
16.00194112952825
 20
3.642281487606009
 30
0.0
 40
0.12
100
AcDbArc
 50
90.0
 51
120.7019822736753
  0
ARC
  5
33F
330
1E
100
AcDbEntity
  8
0
100
AcDbCircle
 10
15.76422310123353
 20
3.662492223848065
 30
0.0
 40
0.2797892637579844
100
AcDbArc
 50
90.00000000000655
 51
103.1997714718575
  0
ARC
  5
340
330
1E
100
AcDbEntity
  8
0
100
AcDbCircle
 10
15.74222424614524
 20
3.7562865038877
 30
0.0
 40
0.1834496737996021
100
AcDbArc
 50
103.1997714718802
 51
119.5202103895292
  0
ARC
  5
341
330
1E
100
AcDbEntity
  8
0
100
AcDbCircle
 10
15.70876269614723
 20
3.815380946985424
 30
0.0
 40
0.1155392288496582
100
AcDbArc
 50
119.5202103895099
 51
143.8138650768632
  0
ARC
  5
342
330
1E
100
AcDbEntity
  8
0
100
AcDbCircle
 10
15.65831889274468
 20
3.852281487606045
 30
0.0
 40
0.0530394112514489
100
AcDbArc
 50
143.8138650768606
 51
180.0
  0
ARC
  5
343
330
1E
100
AcDbEntity
  8
0
100
AcDbCircle
 10
16.00194112952825
 20
4.062281487606053
 30
0.0
 40
0.12
100
AcDbArc
 50
239.2980177263246
 51
270.0
  0
CIRCLE
  5
344
330
1E
100
AcDbEntity
  8
0
100
AcDbCircle
 10
18.04146521997821
 20
2.961326943310989
 30
0.0
 40
0.2251666049839471
  0
CIRCLE
  5
34D
330
1E
100
AcDbEntity
  8
0
100
AcDbCircle
 10
18.04146521997821
 20
2.961326943310989
 30
0.0
 40
0.1867872331998521
  0
CIRCLE
  5
34E
330
1E
100
AcDbEntity
  8
OBJ
100
AcDbCircle
 10
18.04146521997821
 20
2.961326943310989
 30
0.0
 40
0.16065
  0
LINE
  5
34F
330
1E
100
AcDbEntity
  8
0
100
AcDbLine
 10
16.38291976427328
 20
1.1792814876061
 30
0.0
 11
16.38291976427325
 21
0.899281487606057
 31
0.0
  0
ARC
  5
350
330
1E
100
AcDbEntity
  8
0
100
AcDbCircle
 10
18.04146521997821
 20
2.961326943310989
 30
0.0
 40
0.1932853545235975
100
AcDbArc
 50
229.3955218742233
 51
250.6044781257771
  0
ARC
  5
351
330
1E
100
AcDbEntity
  8
0
100
AcDbCircle
 10
18.04146521997821
 20
2.961326943310989
 30
0.0
 40
0.1932853545235975
100
AcDbArc
 50
289.3955218742216
 51
310.6044781257789
  0
ARC
  5
352
330
1E
100
AcDbEntity
  8
0
100
AcDbCircle
 10
17.31262905703568
 20
3.722281487606036
 30
0.0
 40
0.04
100
AcDbArc
 50
4.200013708966422
 51
90.0
  0
ARC
  5
353
330
1E
100
AcDbEntity
  8
0
100
AcDbCircle
 10
17.31262905703568
 20
3.982281487606041
 30
0.0
 40
0.04
100
AcDbArc
 50
270.0
 51
355.7999862910335
  0
LINE
  5
354
330
1E
100
AcDbEntity
  8
OBJ
100
AcDbLine
 10
18.00576521997821
 20
2.997026943310988
 30
0.0
 11
17.9343652199782
 21
2.997026943310988
 31
0.0
  0
LINE
  5
355
330
1E
100
AcDbEntity
  8
OBJ
100
AcDbLine
 10
18.00576521997821
 20
2.925626943310991
 30
0.0
 11
17.9343652199782
 21
2.925626943310991
 31
0.0
  0
ARC
  5
356
330
1E
100
AcDbEntity
  8
0
100
AcDbCircle
 10
18.04146521997821
 20
2.961326943310989
 30
0.0
 40
0.1932853545235975
100
AcDbArc
 50
169.3955218742207
 51
190.6044781257792
  0
LINE
  5
357
330
1E
100
AcDbEntity
  8
OBJ
100
AcDbLine
 10
17.9343652199782
 20
2.997026943310988
 30
0.0
 11
17.9343652199782
 21
2.925626943310991
 31
0.0
  0
ARC
  5
358
330
1E
100
AcDbEntity
  8
0
100
AcDbCircle
 10
18.04146521997821
 20
2.961326943310989
 30
0.0
 40
0.1932853545235975
100
AcDbArc
 50
109.3955218742221
 51
130.6044781257781
  0
LINE
  5
359
330
1E
100
AcDbEntity
  8
OBJ
100
AcDbLine
 10
18.00576521997821
 20
3.068426943310985
 30
0.0
 11
18.00576521997821
 21
2.997026943310988
 31
0.0
  0
LINE
  5
35A
330
1E
100
AcDbEntity
  8
OBJ
100
AcDbLine
 10
18.07716521997821
 20
3.068426943310985
 30
0.0
 11
18.07716521997821
 21
2.997026943310988
 31
0.0
  0
LINE
  5
35B
330
1E
100
AcDbEntity
  8
OBJ
100
AcDbLine
 10
18.07716521997821
 20
3.068426943310985
 30
0.0
 11
18.00576521997821
 21
3.068426943310985
 31
0.0
  0
LINE
  5
35C
330
1E
100
AcDbEntity
  8
0
100
AcDbLine
 10
18.07716521997821
 20
2.997026943310988
 30
0.0
 11
18.00576521997821
 21
2.925626943310991
 31
0.0
  0
LINE
  5
35D
330
1E
100
AcDbEntity
  8
0
100
AcDbLine
 10
18.00576521997821
 20
2.997026943310988
 30
0.0
 11
18.07716521997821
 21
2.925626943310991
 31
0.0
  0
LINE
  5
35E
330
1E
100
AcDbEntity
  8
OBJ
100
AcDbLine
 10
18.00576521997821
 20
2.925626943310991
 30
0.0
 11
18.00576521997821
 21
2.854226943310987
 31
0.0
  0
LINE
  5
35F
330
1E
100
AcDbEntity
  8
OBJ
100
AcDbLine
 10
18.00576521997821
 20
2.854226943310987
 30
0.0
 11
18.07716521997821
 21
2.854226943310987
 31
0.0
  0
LINE
  5
360
330
1E
100
AcDbEntity
  8
OBJ
100
AcDbLine
 10
18.07716521997821
 20
2.925626943310991
 30
0.0
 11
18.07716521997821
 21
2.854226943310987
 31
0.0
  0
LINE
  5
361
330
1E
100
AcDbEntity
  8
OBJ
100
AcDbLine
 10
18.1485652199782
 20
2.925626943310991
 30
0.0
 11
18.07716521997821
 21
2.925626943310991
 31
0.0
  0
LINE
  5
362
330
1E
100
AcDbEntity
  8
OBJ
100
AcDbLine
 10
18.1485652199782
 20
2.925626943310991
 30
0.0
 11
18.1485652199782
 21
2.997026943310988
 31
0.0
  0
LINE
  5
363
330
1E
100
AcDbEntity
  8
OBJ
100
AcDbLine
 10
18.1485652199782
 20
2.997026943310988
 30
0.0
 11
18.07716521997821
 21
2.997026943310988
 31
0.0
  0
ARC
  5
364
330
1E
100
AcDbEntity
  8
0
100
AcDbCircle
 10
18.04146521997821
 20
2.961326943310989
 30
0.0
 40
0.1932853545235975
100
AcDbArc
 50
349.3955218742212
 51
10.60447812577881
  0
ARC
  5
365
330
1E
100
AcDbEntity
  8
0
100
AcDbCircle
 10
18.04146521997821
 20
2.961326943310989
 30
0.0
 40
0.1932853545235975
100
AcDbArc
 50
49.39552187422297
 51
70.60447812577717
  0
LINE
  5
366
330
1E
100
AcDbEntity
  8
OBJ
100
AcDbLine
 10
18.00576521997821
 20
4.7789360319011
 30
0.0
 11
17.9343652199782
 21
4.7789360319011
 31
0.0
  0
LINE
  5
367
330
1E
100
AcDbEntity
  8
OBJ
100
AcDbLine
 10
18.00576521997821
 20
4.707536031901103
 30
0.0
 11
17.9343652199782
 21
4.707536031901103
 31
0.0
  0
LINE
  5
368
330
1E
100
AcDbEntity
  8
OBJ
100
AcDbLine
 10
17.9343652199782
 20
4.7789360319011
 30
0.0
 11
17.9343652199782
 21
4.707536031901103
 31
0.0
  0
ARC
  5
369
330
1E
100
AcDbEntity
  8
0
100
AcDbCircle
 10
18.04146521997821
 20
4.743236031901101
 30
0.0
 40
0.1932853545235975
100
AcDbArc
 50
199.3955218742216
 51
220.6044781257789
  0
LINE
  5
36A
330
1E
100
AcDbEntity
  8
OBJ
100
AcDbLine
 10
18.1485652199782
 20
4.7789360319011
 30
0.0
 11
18.07716521997821
 21
4.7789360319011
 31
0.0
  0
LINE
  5
36B
330
1E
100
AcDbEntity
  8
OBJ
100
AcDbLine
 10
18.1485652199782
 20
4.707536031901103
 30
0.0
 11
18.07716521997821
 21
4.707536031901103
 31
0.0
  0
LINE
  5
36C
330
1E
100
AcDbEntity
  8
OBJ
100
AcDbLine
 10
18.1485652199782
 20
4.707536031901103
 30
0.0
 11
18.1485652199782
 21
4.7789360319011
 31
0.0
  0
LINE
  5
36D
330
1E
100
AcDbEntity
  8
0
100
AcDbLine
 10
18.07716521997821
 20
4.707536031901103
 30
0.0
 11
18.00576521997821
 21
4.7789360319011
 31
0.0
  0
LINE
  5
36E
330
1E
100
AcDbEntity
  8
0
100
AcDbLine
 10
18.07716521997821
 20
4.7789360319011
 30
0.0
 11
18.00576521997821
 21
4.707536031901103
 31
0.0
  0
LINE
  5
36F
330
1E
100
AcDbEntity
  8
OBJ
100
AcDbLine
 10
18.00576521997821
 20
4.636136031901106
 30
0.0
 11
18.00576521997821
 21
4.707536031901103
 31
0.0
  0
LINE
  5
370
330
1E
100
AcDbEntity
  8
OBJ
100
AcDbLine
 10
18.00576521997821
 20
4.636136031901106
 30
0.0
 11
18.07716521997821
 21
4.636136031901106
 31
0.0
  0
LINE
  5
371
330
1E
100
AcDbEntity
  8
OBJ
100
AcDbLine
 10
18.07716521997821
 20
4.636136031901106
 30
0.0
 11
18.07716521997821
 21
4.707536031901103
 31
0.0
  0
ARC
  5
372
330
1E
100
AcDbEntity
  8
0
100
AcDbCircle
 10
18.04146521997821
 20
4.743236031901101
 30
0.0
 40
0.1932853545235975
100
AcDbArc
 50
259.3955218742212
 51
280.6044781257787
  0
ARC
  5
373
330
1E
100
AcDbEntity
  8
0
100
AcDbCircle
 10
18.04146521997821
 20
4.743236031901101
 30
0.0
 40
0.1932853545235975
100
AcDbArc
 50
319.3955218742229
 51
340.6044781257771
  0
ARC
  5
374
330
1E
100
AcDbEntity
  8
0
100
AcDbCircle
 10
15.28677817253991
 20
11.10481340875969
 30
0.0
 40
6.008726752300936
100
AcDbArc
 50
276.0695785608472
 51
292.7713695473706
  0
LINE
  5
375
330
1E
100
AcDbEntity
  8
OBJ
  6
Continuous
100
AcDbLine
 10
15.62442976427323
 20
5.732266319066408
 30
0.0
 11
17.83140976427325
 21
5.732266319066408
 31
0.0
  0
LINE
  5
376
330
1E
100
AcDbEntity
  8
0
100
AcDbLine
 10
15.84191976427323
 20
5.70228148760604
 30
0.0
 11
17.61391976427323
 21
5.70228148760604
 31
0.0
  0
ARC
  5
377
330
1E
100
AcDbEntity
  8
OBJ
100
AcDbCircle
 10
16.72791976427325
 20
2.120794842556303
 30
0.0
 40
4.120471476510105
100
AcDbArc
 50
79.78634404178666
 51
100.2136559582138
  0
LINE
  5
378
330
1E
100
AcDbEntity
  8
OBJ
  6
Continuous
100
AcDbLine
 10
16.17617476427324
 20
6.092266319066407
 30
0.0
 11
17.27966476427323
 21
6.092266319066407
 31
0.0
  0
ARC
  5
379
330
1E
100
AcDbEntity
  8
OBJ
100
AcDbCircle
 10
16.72791976427322
 20
4.839994051209242
 30
0.0
 40
1.252272267857175
100
AcDbArc
 50
63.85814425804303
 51
116.1418557419569
  0
LINE
  5
37B
330
1E
100
AcDbEntity
  8
OBJ
100
AcDbLine
 10
15.62442976427323
 20
5.964166319066404
 30
0.0
 11
15.62442976427323
 21
5.732266319066408
 31
0.0
  0
LINE
  5
37C
330
1E
100
AcDbEntity
  8
OBJ
100
AcDbLine
 10
16.17617476427324
 20
5.964166319066418
 30
0.0
 11
16.17617476427324
 21
5.732266319066408
 31
0.0
  0
ARC
  5
37D
330
1E
100
AcDbEntity
  8
0
100
AcDbCircle
 10
15.74191976427325
 20
5.183670430058239
 30
0.0
 40
0.1
100
AcDbArc
 50
281.6197653345056
 51
0.0
  0
ARC
  5
37E
330
1E
100
AcDbEntity
  8
0
100
AcDbCircle
 10
15.98130646812882
 20
5.779046973501902
 30
0.0
 40
0.083
100
AcDbArc
 50
214.30667891419
 51
247.6510764500562
  0
LINE
  5
37F
330
1E
100
AcDbEntity
  8
0
100
AcDbLine
 10
15.84191976427323
 20
5.70228148760604
 30
0.0
 11
15.84191976427323
 21
5.183670430058239
 31
0.0
  0
ARC
  5
380
330
1E
100
AcDbEntity
  8
OBJ
100
AcDbCircle
 10
15.90030226427325
 20
5.731160752102123
 30
0.0
 40
0.3611055669642886
100
AcDbArc
 50
40.18487908820896
 51
139.8151209117928
  0
LINE
  5
381
330
1E
100
AcDbEntity
  8
OBJ
  6
Continuous
100
AcDbLine
 10
15.747921255362
 20
6.092266319066407
 30
0.0
 11
16.17617476427324
 21
6.092266319066407
 31
0.0
  0
LINE
  5
382
330
1E
100
AcDbEntity
  8
OBJ
100
AcDbLine
 10
15.62442976427323
 20
5.964166319066404
 30
0.0
 11
15.747921255362
 21
6.092266319066407
 31
0.0
  0
ARC
  5
383
330
1E
100
AcDbEntity
  8
OBJ
100
AcDbCircle
 10
16.00791976427323
 20
6.116921543694825
 30
0.0
 40
0.06
100
AcDbArc
 50
100.2136559582149
 51
179.9999999999982
  0
LINE
  5
384
330
1E
100
AcDbEntity
  8
OBJ
100
AcDbLine
 10
15.94791976427322
 20
6.092266319066407
 30
0.0
 11
15.94791976427322
 21
6.116921543694825
 31
0.0
  0
LINE
  5
385
330
1E
100
AcDbEntity
  8
OBJ
  6
Continuous
100
AcDbLine
 10
17.27966476427323
 20
6.092266319066407
 30
0.0
 11
17.70791827318445
 21
6.092266319066407
 31
0.0
  0
ARC
  5
386
330
1E
100
AcDbEntity
  8
OBJ
100
AcDbCircle
 10
17.55553726427326
 20
5.731160752102123
 30
0.0
 40
0.3611055669642929
100
AcDbArc
 50
40.18487908821017
 51
139.815120911792
  0
LINE
  5
387
330
1E
100
AcDbEntity
  8
OBJ
100
AcDbLine
 10
17.27966476427323
 20
5.964166319066418
 30
0.0
 11
17.27966476427323
 21
5.732266319066408
 31
0.0
  0
LINE
  5
388
330
1E
100
AcDbEntity
  8
OBJ
100
AcDbLine
 10
17.83140976427325
 20
5.964166319066418
 30
0.0
 11
17.83140976427325
 21
5.732266319066408
 31
0.0
  0
ARC
  5
389
330
1E
100
AcDbEntity
  8
0
100
AcDbCircle
 10
17.47453306041766
 20
5.779046973501902
 30
0.0
 40
0.083
100
AcDbArc
 50
292.3489235499437
 51
325.6933210858099
  0
ARC
  5
38A
330
1E
100
AcDbEntity
  8
0
100
AcDbCircle
 10
17.70891976427323
 20
5.700086953844088
 30
0.0
 40
0.095
100
AcDbArc
 50
180.0
 51
281.5351848084182
  0
LINE
  5
38B
330
1E
100
AcDbEntity
  8
0
100
AcDbLine
 10
17.61391976427323
 20
5.700086953844088
 30
0.0
 11
17.61391976427323
 21
5.70228148760604
 31
0.0
  0
ARC
  5
38C
330
1E
100
AcDbEntity
  8
0
100
AcDbCircle
 10
18.04146521997821
 20
4.743236031901101
 30
0.0
 40
0.1932853545235975
100
AcDbArc
 50
79.3955218742207
 51
100.6044781257793
  0
LINE
  5
38D
330
1E
100
AcDbEntity
  8
OBJ
100
AcDbLine
 10
18.07716521997821
 20
4.850336031901104
 30
0.0
 11
18.00576521997821
 21
4.850336031901104
 31
0.0
  0
ARC
  5
38E
330
1E
100
AcDbEntity
  8
OBJ
100
AcDbCircle
 10
17.44791976427325
 20
6.116921543694825
 30
0.0
 40
0.06
100
AcDbArc
 50
0.0
 51
79.78634404178838
  0
LINE
  5
38F
330
1E
100
AcDbEntity
  8
OBJ
100
AcDbLine
 10
17.50791976427322
 20
6.092266319066407
 30
0.0
 11
17.50791976427322
 21
6.116921543694825
 31
0.0
  0
LINE
  5
390
330
1E
100
AcDbEntity
  8
OBJ
100
AcDbLine
 10
17.83140976427322
 20
5.964166319066404
 30
0.0
 11
17.70791827318447
 21
6.092266319066407
 31
0.0
  0
CIRCLE
  5
391
330
1E
100
AcDbEntity
  8
0
100
AcDbCircle
 10
19.8233743085683
 20
4.743236031901101
 30
0.0
 40
0.2251666049839471
  0
LINE
  5
393
330
1E
100
AcDbEntity
  8
0
100
AcDbLine
 10
20.89091976427326
 20
1.834781487606047
 30
0.0
 11
20.89091976427326
 21
5.869781487606029
 31
0.0
  0
LINE
  5
394
330
1E
100
AcDbEntity
  8
0
100
AcDbLine
 10
20.79416902740538
 20
5.486260739361011
 30
0.0
 11
20.79416902740538
 21
2.218302235851066
 31
0.0
  0
LINE
  5
395
330
1E
100
AcDbEntity
  8
0
100
AcDbLine
 10
20.58591976427324
 20
5.949781487606013
 30
0.0
 11
20.58591976427325
 21
1.754781487606049
 31
0.0
  0
ARC
  5
396
330
1E
100
AcDbEntity
  8
0
100
AcDbCircle
 10
9.528749973738431
 20
3.162430263715645
 30
0.0
 40
11.84412404290485
100
AcDbArc
 50
358.9591636477077
 51
11.47969664083667
  0
LINE
  5
398
330
1E
100
AcDbEntity
  8
0
100
AcDbLine
 10
20.58591976427325
 20
1.754781487606049
 30
0.0
 11
20.81091976427326
 21
1.75478148760602
 31
0.0
  0
CIRCLE
  5
39A
330
1E
100
AcDbEntity
  8
0
100
AcDbCircle
 10
19.8233743085683
 20
2.961326943310989
 30
0.0
 40
0.2251666049839471
  0
CIRCLE
  5
39B
330
1E
100
AcDbEntity
  8
0
100
AcDbCircle
 10
19.71991976427326
 20
1.372281487606041
 30
0.0
 40
0.167
  0
LINE
  5
39C
330
1E
100
AcDbEntity
  8
0
100
AcDbLine
 10
18.61291976427324
 20
1.686281487606049
 30
0.0
 11
20.11430093726152
 21
1.686281487606049
 31
0.0
  0
LINE
  5
39D
330
1E
100
AcDbEntity
  8
0
100
AcDbLine
 10
20.11391976427326
 20
0.899281487606057
 30
0.0
 11
19.11991976427326
 21
0.899281487606057
 31
0.0
  0
LINE
  5
39E
330
1E
100
AcDbEntity
  8
0
100
AcDbLine
 10
19.27691976427326
 20
1.02228148760609
 30
0.0
 11
18.5909247218213
 21
1.708276530057997
 31
0.0
  0
ARC
  5
39F
330
1E
100
AcDbEntity
  8
0
100
AcDbCircle
 10
19.28691976427326
 20
0.992281487606089
 30
0.0
 40
0.03
100
AcDbArc
 50
0.0000000000029007
 51
90.0
  0
LINE
  5
3A0
330
1E
100
AcDbEntity
  8
0
100
AcDbLine
 10
19.27691976427326
 20
1.02228148760609
 30
0.0
 11
19.28691976427326
 21
1.02228148760609
 31
0.0
  0
LINE
  5
3A1
330
1E
100
AcDbEntity
  8
0
100
AcDbLine
 10
19.31691976427327
 20
0.992281487606089
 30
0.0
 11
19.31691976427327
 21
0.8992814876060712
 31
0.0
  0
LINE
  5
3A2
330
1E
100
AcDbEntity
  8
0
100
AcDbLine
 10
19.11991976427326
 20
1.179281487606086
 30
0.0
 11
19.11991976427326
 21
0.899281487606057
 31
0.0
  0
ARC
  5
3A3
330
1E
100
AcDbEntity
  8
0
100
AcDbCircle
 10
20.20891976427326
 20
1.677779865669645
 30
0.0
 40
0.095
100
AcDbArc
 50
86.64491321527483
 51
180.0
  0
LINE
  5
3A4
330
1E
100
AcDbEntity
  8
0
100
AcDbLine
 10
20.11391976427326
 20
1.677779865669645
 30
0.0
 11
20.11391976427326
 21
0.899281487606057
 31
0.0
  0
LINE
  5
3A5
330
1E
100
AcDbEntity
  8
0
100
AcDbLine
 10
20.70091976427322
 20
1.754781487606035
 30
0.0
 11
20.69691976427323
 21
1.754781487606035
 31
0.0
  0
CIRCLE
  5
3A6
330
1E
100
AcDbEntity
  8
0
100
AcDbCircle
 10
18.93241976427325
 20
3.852281487606045
 30
0.0
 40
0.1291779115586422
  0
CIRCLE
  5
3A7
330
1E
100
AcDbEntity
  8
0
  6
DASHED4
100
AcDbCircle
 10
18.93241976427325
 20
3.852281487606045
 30
0.0
 40
0.157
  0
ARC
  5
3A8
330
1E
100
AcDbEntity
  8
0
100
AcDbCircle
 10
18.93241976427325
 20
3.852281487606045
 30
0.0
 40
0.2913063289807098
100
AcDbArc
 50
108.8253422823842
 51
71.17465771760952
  0
CIRCLE
  5
3A9
330
1E
100
AcDbEntity
  8
0
100
AcDbCircle
 10
18.93241976427325
 20
3.852281487606045
 30
0.0
 40
0.3248
  0
LINE
  5
3AA
330
1E
100
AcDbEntity
  8
0
100
AcDbLine
 10
18.83841976427327
 20
4.052481487606055
 30
0.0
 11
19.02641976427326
 21
4.052481487606055
 31
0.0
  0
LINE
  5
3AB
330
1E
100
AcDbEntity
  8
0
100
AcDbLine
 10
19.02641976427326
 20
4.163181857499676
 30
0.0
 11
19.02641976427326
 21
4.052481487606055
 31
0.0
  0
LINE
  5
3AC
330
1E
100
AcDbEntity
  8
0
100
AcDbLine
 10
18.83841976427327
 20
4.16318185749969
 30
0.0
 11
18.83841976427327
 21
4.052481487606055
 31
0.0
  0
LINE
  5
3AD
330
1E
100
AcDbEntity
  8
0
100
AcDbLine
 10
21.15091976427327
 20
2.877281487606023
 30
0.0
 11
21.15091976427327
 21
1.908134057039003
 31
0.0
  0
ARC
  5
3AE
330
1E
100
AcDbEntity
  8
0
100
AcDbCircle
 10
20.81091976427326
 20
1.834781487606047
 30
0.0
 40
0.08
100
AcDbArc
 50
270.0
 51
0.0
  0
LINE
  5
3AF
330
1E
100
AcDbEntity
  8
OBJ
  6
Continuous
100
AcDbLine
 10
21.15091976427327
 20
2.098341524535126
 30
0.0
 11
21.30926021227266
 21
2.098341524535111
 31
0.0
  0
LINE
  5
3B0
330
1E
100
AcDbEntity
  8
OBJ
  6
Continuous
100
AcDbLine
 10
21.15091976427327
 20
1.896165524535117
 30
0.0
 11
21.30926021227266
 21
1.896165524535117
 31
0.0
  0
LINE
  5
3B1
330
1E
100
AcDbEntity
  8
OBJ
  6
Continuous
100
AcDbLine
 10
21.15091976427327
 20
2.713855124535111
 30
0.0
 11
21.30926021227266
 21
2.713855124535111
 31
0.0
  0
LINE
  5
3B2
330
1E
100
AcDbEntity
  8
OBJ
  6
Continuous
100
AcDbLine
 10
21.15091976427327
 20
2.511679124535117
 30
0.0
 11
21.30926021227266
 21
2.511679124535117
 31
0.0
  0
LINE
  5
3B3
330
1E
100
AcDbEntity
  8
0
100
AcDbLine
 10
21.15091976427327
 20
2.713855124535111
 30
0.0
 11
21.15091976427327
 21
1.896165524535117
 31
0.0
  0
ARC
  5
3B4
330
1E
100
AcDbEntity
  8
0
100
AcDbCircle
 10
21.12091976427327
 20
1.908134057039003
 30
0.0
 40
0.03
100
AcDbArc
 50
270.000000000001
 51
0.0
  0
ARC
  5
3B5
330
1E
100
AcDbEntity
  8
0
100
AcDbCircle
 10
20.90091976427325
 20
1.868134057038997
 30
0.0
 40
0.01
100
AcDbArc
 50
90.0
 51
180.0
  0
LINE
  5
3B6
330
1E
100
AcDbEntity
  8
0
100
AcDbLine
 10
20.90091976427325
 20
1.878134057039002
 30
0.0
 11
21.12091976427327
 21
1.878134057039002
 31
0.0
  0
LINE
  5
3B7
330
1E
100
AcDbEntity
  8
OBJ
100
AcDbLine
 10
21.13593576427327
 20
2.239739887606059
 30
0.0
 11
21.13593576427324
 21
2.019823087606052
 31
0.0
  0
ARC
  5
3B8
330
1E
100
AcDbEntity
  8
OBJ
100
AcDbCircle
 10
20.95669840136473
 20
2.129781487606049
 30
0.0
 40
0.1792373629085269
100
AcDbArc
 50
322.1584983941728
 51
37.84150160583113
  0
LINE
  5
3B9
330
1E
100
AcDbEntity
  8
OBJ
100
AcDbLine
 10
20.93872776427325
 20
2.347307887606046
 30
0.0
 11
20.93872776427325
 21
1.912255087606052
 31
0.0
  0
LINE
  5
3BA
330
1E
100
AcDbEntity
  8
0
100
AcDbLine
 10
20.89091976427325
 20
2.329977487606054
 30
0.0
 11
20.89091976427325
 21
1.929585487606043
 31
0.0
  0
LINE
  5
3BB
330
1E
100
AcDbEntity
  8
OBJ
  6
Continuous
100
AcDbLine
 10
20.93872776427325
 20
2.347307887606046
 30
0.0
 11
21.09824409198031
 21
2.347307887606046
 31
0.0
  0
LINE
  5
3BC
330
1E
100
AcDbEntity
  8
OBJ
  6
Continuous
100
AcDbLine
 10
20.93872776427325
 20
2.239739887606059
 30
0.0
 11
21.09824409198031
 21
2.239739887606059
 31
0.0
  0
LINE
  5
3BD
330
1E
100
AcDbEntity
  8
OBJ
100
AcDbLine
 10
21.13593576427327
 20
2.32239283839527
 30
0.0
 11
21.11271584051424
 21
2.339546597758623
 31
0.0
  0
LINE
  5
3BE
330
1E
100
AcDbEntity
  8
OBJ
100
AcDbLine
 10
21.13593576427327
 20
2.32239283839527
 30
0.0
 11
21.13593576427324
 21
2.239739887606059
 31
0.0
  0
ARC
  5
3BF
330
1E
100
AcDbEntity
  8
OBJ
100
AcDbCircle
 10
21.07871648274717
 20
2.293523887606053
 30
0.0
 40
0.0572192815260978
100
AcDbArc
 50
289.9546783938691
 51
70.04532160613152
  0
LINE
  5
3C0
330
1E
100
AcDbEntity
  8
OBJ
  6
CENTER2
100
AcDbLine
 10
20.89091976427325
 20
2.327977487606059
 30
0.0
 11
20.93872776427325
 21
2.327977487606059
 31
0.0
  0
LINE
  5
3C1
330
1E
100
AcDbEntity
  8
OBJ
  6
Continuous
100
AcDbLine
 10
20.93872776427325
 20
2.019823087606052
 30
0.0
 11
21.09824409198031
 21
2.019823087606052
 31
0.0
  0
LINE
  5
3C2
330
1E
100
AcDbEntity
  8
OBJ
  6
Continuous
100
AcDbLine
 10
20.93872776427325
 20
1.912255087606052
 30
0.0
 11
21.09824409198031
 21
1.912255087606052
 31
0.0
  0
LINE
  5
3C3
330
1E
100
AcDbEntity
  8
OBJ
100
AcDbLine
 10
21.13593576427324
 20
2.019823087606052
 30
0.0
 11
21.13593576427324
 21
1.937170136816828
 31
0.0
  0
ARC
  5
3C4
330
1E
100
AcDbEntity
  8
OBJ
100
AcDbCircle
 10
21.07871648274717
 20
1.966039087606059
 30
0.0
 40
0.0572192815260978
100
AcDbArc
 50
289.9546783938684
 51
70.04532160613081
  0
LINE
  5
3C5
330
1E
100
AcDbEntity
  8
OBJ
100
AcDbLine
 10
21.13593576427327
 20
1.937170136816842
 30
0.0
 11
21.11271584051424
 21
1.920016377453475
 31
0.0
  0
LINE
  5
3C6
330
1E
100
AcDbEntity
  8
OBJ
  6
CENTER2
100
AcDbLine
 10
20.89091976427325
 20
1.929585487606043
 30
0.0
 11
20.93872776427325
 21
1.929585487606043
 31
0.0
  0
LINE
  5
3C7
330
1E
100
AcDbEntity
  8
OBJ
100
AcDbLine
 10
20.89091976427325
 20
2.178174050627244
 30
0.0
 11
20.93872776427325
 21
2.225982050627248
 31
0.0
  0
ARC
  5
3C8
330
1E
100
AcDbEntity
  8
0
100
AcDbCircle
 10
20.85416902740538
 20
2.218302235851066
 30
0.0
 40
0.06
100
AcDbArc
 50
180.0
 51
258.8286473027595
  0
ARC
  5
3C9
330
1E
100
AcDbEntity
  8
0
100
AcDbCircle
 10
20.83091976427325
 20
2.100575978101073
 30
0.0
 40
0.06
100
AcDbArc
 50
0.0
 51
78.82864730275919
  0
ARC
  5
3CA
330
1E
100
AcDbEntity
  8
OBJ
100
AcDbCircle
 10
21.04322252870602
 20
2.305010324535128
 30
0.0
 40
0.3368798628160265
100
AcDbArc
 50
322.1584983941689
 51
37.84150160582705
  0
LINE
  5
3CB
330
1E
100
AcDbEntity
  8
OBJ
100
AcDbLine
 10
21.38010239152206
 20
1.94299380979876
 30
0.0
 11
21.38010239152204
 21
2.667026839271482
 31
0.0
  0
LINE
  5
3CC
330
1E
100
AcDbEntity
  8
OBJ
100
AcDbLine
 10
21.38010239152204
 20
1.94299380979876
 30
0.0
 11
21.33646012517981
 21
1.910753009067615
 31
0.0
  0
ARC
  5
3CD
330
1E
100
AcDbEntity
  8
OBJ
100
AcDbCircle
 10
21.27255771781034
 20
1.997253524535121
 30
0.0
 40
0.1075446737117018
100
AcDbArc
 50
289.9546783938684
 51
70.04532160613085
  0
LINE
  5
3CE
330
1E
100
AcDbEntity
  8
OBJ
100
AcDbLine
 10
21.38010239152204
 20
2.667026839271482
 30
0.0
 11
21.33646012517981
 21
2.699267640002613
 31
0.0
  0
ARC
  5
3CF
330
1E
100
AcDbEntity
  8
OBJ
100
AcDbCircle
 10
21.27255771781034
 20
2.612767124535121
 30
0.0
 40
0.1075446737117018
100
AcDbArc
 50
289.9546783938691
 51
70.04532160613156
  0
LINE
  5
3D0
330
1E
100
AcDbEntity
  8
OBJ
100
AcDbLine
 10
21.57091976427323
 20
4.20028148760603
 30
0.0
 11
21.57091976427325
 21
3.504281487606046
 31
0.0
  0
LINE
  5
3D1
330
1E
100
AcDbEntity
  8
OBJ
100
AcDbLine
 10
21.37091976427324
 20
4.47328148760604
 30
0.0
 11
21.37091976427324
 21
3.23128148760605
 31
0.0
  0
LINE
  5
3D2
330
1E
100
AcDbEntity
  8
0
100
AcDbLine
 10
21.16091976427327
 20
2.887281487606028
 30
0.0
 11
21.31091976427323
 21
2.887281487606042
 31
0.0
  0
ARC
  5
3D3
330
1E
100
AcDbEntity
  8
0
100
AcDbCircle
 10
21.16091976427327
 20
2.877281487606023
 30
0.0
 40
0.01
100
AcDbArc
 50
90.0
 51
180.0
  0
ARC
  5
3D4
330
1E
100
AcDbEntity
  8
OBJ
100
AcDbCircle
 10
21.49091976427324
 20
3.504281487606046
 30
0.0
 40
0.08
100
AcDbArc
 50
270.000000000002
 51
0.0000000000009542
  0
LINE
  5
3D5
330
1E
100
AcDbEntity
  8
OBJ
  6
Continuous
100
AcDbLine
 10
21.37091976427324
 20
3.424281487606048
 30
0.0
 11
21.49091976427324
 21
3.424281487606048
 31
0.0
  0
ARC
  5
3D6
330
1E
100
AcDbEntity
  8
OBJ
100
AcDbCircle
 10
21.31091976427323
 20
2.94728148760603
 30
0.0
 40
0.06
100
AcDbArc
 50
269.9999999999993
 51
0.0000000000006361
  0
LINE
  5
3D7
330
1E
100
AcDbEntity
  8
0
100
AcDbLine
 10
21.31091976427323
 20
4.533281487606014
 30
0.0
 11
21.29327466731084
 21
4.533281487606014
 31
0.0
  0
ARC
  5
3D8
330
1E
100
AcDbEntity
  8
OBJ
100
AcDbCircle
 10
21.31091976427323
 20
4.473281487606012
 30
0.0
 40
0.06
100
AcDbArc
 50
359.9999999999993
 51
90.00000000000063
  0
POINT
  5
3D9
330
1E
100
AcDbEntity
  8
DEFPOINTS
  6
ByBlock
 62
     0
100
AcDbPoint
 10
21.57091976427323
 20
3.852281487606031
 30
0.0
  0
LINE
  5
3DA
330
1E
100
AcDbEntity
  8
OBJ
  6
Continuous
100
AcDbLine
 10
21.37091976427324
 20
4.280281487606043
 30
0.0
 11
21.49091976427321
 21
4.280281487606028
 31
0.0
  0
ARC
  5
3DB
330
1E
100
AcDbEntity
  8
OBJ
100
AcDbCircle
 10
21.49091976427321
 20
4.20028148760603
 30
0.0
 40
0.08
100
AcDbArc
 50
0.0000000000010432
 51
90.00000000000202
  0
LINE
  5
3DC
330
1E
100
AcDbEntity
  8
0
100
AcDbLine
 10
20.58591976427324
 20
5.949781487606013
 30
0.0
 11
20.81091976427326
 21
5.949781487606042
 31
0.0
  0
LINE
  5
3DD
330
1E
100
AcDbEntity
  8
0
100
AcDbLine
 10
20.70091976427322
 20
5.949781487606042
 30
0.0
 11
20.69691976427323
 21
5.949781487606042
 31
0.0
  0
LINE
  5
3DE
330
1E
100
AcDbEntity
  8
0
100
AcDbLine
 10
19.02641976427323
 20
11.40739617837071
 30
0.0
 11
19.25721976427326
 21
11.40739617837071
 31
0.0
  0
LINE
  5
3DF
330
1E
100
AcDbEntity
  8
OBJ
100
AcDbLine
 10
19.22721976427326
 20
11.37739617837071
 30
0.0
 11
18.63761976427324
 21
11.3773961783707
 31
0.0
  0
LINE
  5
3E0
330
1E
100
AcDbEntity
  8
0
100
AcDbLine
 10
18.60761976427324
 20
11.4073961783707
 30
0.0
 11
18.63761976427324
 21
11.3773961783707
 31
0.0
  0
LINE
  5
3E1
330
1E
100
AcDbEntity
  8
0
100
AcDbLine
 10
18.60761976427324
 20
11.4073961783707
 30
0.0
 11
18.83841976427325
 21
11.40739617837071
 31
0.0
  0
LINE
  5
3E2
330
1E
100
AcDbEntity
  8
0
100
AcDbLine
 10
19.22721976427326
 20
11.37739617837071
 30
0.0
 11
19.25721976427326
 21
11.40739617837071
 31
0.0
  0
ARC
  5
3E3
330
1E
100
AcDbEntity
  8
0
100
AcDbCircle
 10
20.83091976427325
 20
5.60398699711099
 30
0.0
 40
0.06
100
AcDbArc
 50
281.1713526972408
 51
0.0
  0
ARC
  5
3E4
330
1E
100
AcDbEntity
  8
0
100
AcDbCircle
 10
20.85416902740538
 20
5.486260739361011
 30
0.0
 40
0.06
100
AcDbArc
 50
101.1713526972404
 51
180.0
  0
LINE
  5
3E5
330
1E
100
AcDbEntity
  8
OBJ
100
AcDbLine
 10
20.89091976427325
 20
5.526388924584818
 30
0.0
 11
20.93872776427325
 21
5.478580924584814
 31
0.0
  0
LINE
  5
3E6
330
1E
100
AcDbEntity
  8
OBJ
  6
CENTER2
100
AcDbLine
 10
20.89091976427325
 20
5.774977487606019
 30
0.0
 11
20.93872776427325
 21
5.774977487606019
 31
0.0
  0
LINE
  5
3E7
330
1E
100
AcDbEntity
  8
OBJ
100
AcDbLine
 10
21.13593576427327
 20
5.76739283839522
 30
0.0
 11
21.11271584051424
 21
5.784546597758588
 31
0.0
  0
ARC
  5
3E8
330
1E
100
AcDbEntity
  8
OBJ
100
AcDbCircle
 10
21.07871648274717
 20
5.738523887606003
 30
0.0
 40
0.0572192815260978
100
AcDbArc
 50
289.9546783938691
 51
70.04532160613156
  0
LINE
  5
3E9
330
1E
100
AcDbEntity
  8
OBJ
100
AcDbLine
 10
21.13593576427324
 20
5.684739887606024
 30
0.0
 11
21.13593576427324
 21
5.767392838395249
 31
0.0
  0
LINE
  5
3EA
330
1E
100
AcDbEntity
  8
OBJ
  6
Continuous
100
AcDbLine
 10
20.93872776427325
 20
5.792307887606011
 30
0.0
 11
21.09824409198031
 21
5.792307887606011
 31
0.0
  0
LINE
  5
3EB
330
1E
100
AcDbEntity
  8
OBJ
  6
Continuous
100
AcDbLine
 10
20.93872776427325
 20
5.684739887606024
 30
0.0
 11
21.09824409198031
 21
5.684739887606024
 31
0.0
  0
LINE
  5
3EC
330
1E
100
AcDbEntity
  8
OBJ
  6
CENTER2
100
AcDbLine
 10
20.89091976427325
 20
5.376585487606018
 30
0.0
 11
20.93872776427325
 21
5.376585487606018
 31
0.0
  0
ARC
  5
3ED
330
1E
100
AcDbEntity
  8
OBJ
100
AcDbCircle
 10
21.07871648274717
 20
5.411039087606024
 30
0.0
 40
0.0572192815260978
100
AcDbArc
 50
289.9546783938684
 51
70.04532160613085
  0
LINE
  5
3EE
330
1E
100
AcDbEntity
  8
OBJ
100
AcDbLine
 10
21.13593576427327
 20
5.382170136816807
 30
0.0
 11
21.13593576427324
 21
5.464823087606003
 31
0.0
  0
LINE
  5
3EF
330
1E
100
AcDbEntity
  8
OBJ
100
AcDbLine
 10
21.13593576427327
 20
5.382170136816807
 30
0.0
 11
21.11271584051424
 21
5.365016377453439
 31
0.0
  0
LINE
  5
3F0
330
1E
100
AcDbEntity
  8
OBJ
  6
Continuous
100
AcDbLine
 10
20.93872776427325
 20
5.464823087606003
 30
0.0
 11
21.09824409198031
 21
5.464823087606003
 31
0.0
  0
LINE
  5
3F1
330
1E
100
AcDbEntity
  8
OBJ
  6
Continuous
100
AcDbLine
 10
20.93872776427325
 20
5.357255087606016
 30
0.0
 11
21.09824409198031
 21
5.357255087606016
 31
0.0
  0
LINE
  5
3F2
330
1E
100
AcDbEntity
  8
0
100
AcDbLine
 10
20.89091976427325
 20
5.374585487606008
 30
0.0
 11
20.89091976427325
 21
5.774977487606019
 31
0.0
  0
LINE
  5
3F3
330
1E
100
AcDbEntity
  8
OBJ
100
AcDbLine
 10
20.93872776427325
 20
5.357255087606016
 30
0.0
 11
20.93872776427325
 21
5.792307887606011
 31
0.0
  0
ARC
  5
3F4
330
1E
100
AcDbEntity
  8
OBJ
100
AcDbCircle
 10
20.95669840136473
 20
5.574781487606013
 30
0.0
 40
0.1792373629085269
100
AcDbArc
 50
322.1584983941689
 51
37.84150160582704
  0
LINE
  5
3F5
330
1E
100
AcDbEntity
  8
OBJ
100
AcDbLine
 10
21.13593576427327
 20
5.464823087606003
 30
0.0
 11
21.13593576427324
 21
5.684739887606024
 31
0.0
  0
ARC
  5
3F6
330
1E
100
AcDbEntity
  8
0
100
AcDbCircle
 10
20.81091976427326
 20
5.869781487606029
 30
0.0
 40
0.08
100
AcDbArc
 50
0.0
 51
90.0
  0
LINE
  5
3F7
330
1E
100
AcDbEntity
  8
0
100
AcDbLine
 10
19.25721976427326
 20
20.1273961783707
 30
0.0
 11
19.25721976427325
 21
18.86739617837069
 31
0.0
  0
LINE
  5
3F8
330
1E
100
AcDbEntity
  8
0
100
AcDbLine
 10
18.83841976427325
 20
20.1573961783707
 30
0.0
 11
18.83841976427325
 21
18.9230741666528
 31
0.0
  0
LINE
  5
3F9
330
1E
100
AcDbEntity
  8
0
100
AcDbLine
 10
19.02641976427323
 20
20.1573961783707
 30
0.0
 11
19.02641976427323
 21
18.92307416665279
 31
0.0
  0
LINE
  5
3FA
330
1E
100
AcDbEntity
  8
0
100
AcDbLine
 10
18.60761976427324
 20
20.12739617837072
 30
0.0
 11
18.60761976427324
 21
18.86739617837069
 31
0.0
  0
LINE
  5
3FB
330
1E
100
AcDbEntity
  8
0
100
AcDbLine
 10
17.40741976427326
 20
18.54239617837069
 30
0.0
 11
20.45741976427324
 21
18.54239617837069
 31
0.0
  0
LINE
  5
3FC
330
1E
100
AcDbEntity
  8
0
100
AcDbLine
 10
17.34741976427326
 20
18.32639617837069
 30
0.0
 11
20.51741976427329
 21
18.32639617837069
 31
0.0
  0
LINE
  5
3FD
330
1E
100
AcDbEntity
  8
0
100
AcDbLine
 10
19.62336362022884
 20
18.77739617837069
 30
0.0
 11
18.24147590831765
 21
18.77739617837069
 31
0.0
  0
LINE
  5
3FE
330
1E
100
AcDbEntity
  8
0
100
AcDbLine
 10
17.34741976427326
 20
13.20839617837071
 30
0.0
 11
20.51741976427329
 21
13.20839617837071
 31
0.0
  0
LINE
  5
3FF
330
1E
100
AcDbEntity
  8
0
100
AcDbLine
 10
17.40741976427326
 20
12.99239617837072
 30
0.0
 11
20.45741976427324
 21
12.99239617837072
 31
0.0
  0
LINE
  5
400
330
1E
100
AcDbEntity
  8
0
100
AcDbLine
 10
19.62336362022884
 20
12.75739617837072
 30
0.0
 11
18.24147590831765
 21
12.75739617837072
 31
0.0
  0
LINE
  5
401
330
1E
100
AcDbEntity
  8
0
100
AcDbLine
 10
14.60191976427328
 20
13.83839617837071
 30
0.0
 11
20.58591976427324
 21
13.22739617837073
 31
0.0
  0
LINE
  5
402
330
1E
100
AcDbEntity
  8
0
100
AcDbLine
 10
14.60191976427328
 20
17.69639617837071
 30
0.0
 11
20.58591976427324
 21
18.30739617837069
 31
0.0
  0
LINE
  5
403
330
1E
100
AcDbEntity
  8
OBJ
100
AcDbLine
 10
14.60191976427326
 20
18.32782972134424
 30
0.0
 11
14.60191976427327
 21
13.20696263539724
 31
0.0
  0
LINE
  5
404
330
1E
100
AcDbEntity
  8
OBJ
100
AcDbLine
 10
17.29041976427324
 20
14.79311759911322
 30
0.0
 11
17.85291976427324
 21
15.76739617837071
 31
0.0
  0
CIRCLE
  5
405
330
1E
100
AcDbEntity
  8
OBJ
100
AcDbCircle
 10
16.72791976427324
 20
15.76739617837071
 30
0.0
 40
0.055
  0
LINE
  5
406
330
1E
100
AcDbEntity
  8
OBJ
100
AcDbLine
 10
15.60291976427324
 20
15.76739617837071
 30
0.0
 11
16.16541976427324
 21
14.79311759911322
 31
0.0
  0
CIRCLE
  5
407
330
1E
100
AcDbEntity
  8
OBJ
100
AcDbCircle
 10
16.72791976427324
 20
15.76739617837071
 30
0.0
 40
0.8645757300511718
  0
LINE
  5
408
330
1E
100
AcDbEntity
  8
0
100
AcDbLine
 10
14.60191976427326
 20
18.35209617837073
 30
0.0
 11
14.60191976427326
 21
13.18269617837074
 31
0.0
  0
LINE
  5
409
330
1E
100
AcDbEntity
  8
0
 62
     7
100
AcDbLine
 10
14.60191976427328
 20
13.16039617837074
 30
0.0
 11
14.60191976427326
 21
18.3743961783707
 31
0.0
  0
LINE
  5
40B
330
1E
100
AcDbEntity
  8
0
100
AcDbLine
 10
17.34741976427326
 20
13.32685617784585
 30
0.0
 11
15.60527948149321
 21
13.32685617784585
 31
0.0
  0
LINE
  5
40C
330
1E
100
AcDbEntity
  8
OBJ
100
AcDbLine
 10
16.16541976427324
 20
14.79311759911322
 30
0.0
 11
17.29041976427324
 21
14.79311759911322
 31
0.0
  0
LINE
  5
40D
330
1E
100
AcDbEntity
  8
OBJ
100
AcDbLine
 10
14.20191976427326
 20
14.01887594110769
 30
0.0
 11
14.20191976427326
 21
13.20696263539724
 31
0.0
  0
LINE
  5
40E
330
1E
100
AcDbEntity
  8
0
100
AcDbLine
 10
14.20191976427326
 20
13.86300308364304
 30
0.0
 11
14.20191976427326
 21
13.27300308364304
 31
0.0
  0
ARC
  5
40F
330
1E
100
AcDbEntity
  8
0
100
AcDbCircle
 10
14.80094169732219
 20
15.18494892172456
 30
0.0
 40
2.024714280065188
100
AcDbArc
 50
270.7237594766328
 51
303.33691378609
  0
LINE
  5
410
330
1E
100
AcDbEntity
  8
OBJ
 62
     7
100
AcDbLine
 10
14.82651717929788
 20
13.16039617837074
 30
0.0
 11
14.60191976427326
 21
13.16039617837074
 31
0.0
  0
LINE
  5
411
330
1E
100
AcDbEntity
  8
OBJ
100
AcDbLine
 10
14.20191976427326
 20
13.20696263539724
 30
0.0
 11
14.60191976427326
 21
13.20696263539724
 31
0.0
  0
ARC
  5
412
330
1E
100
AcDbEntity
  8
0
100
AcDbCircle
 10
15.88067240959756
 20
13.54352155773257
 30
0.0
 40
0.06
100
AcDbArc
 50
303.3369137860933
 51
0.0
  0
LINE
  5
413
330
1E
100
AcDbEntity
  8
0
100
AcDbLine
 10
15.94067240959758
 20
13.7017020162228
 30
0.0
 11
15.94067240959757
 21
13.54352155773257
 31
0.0
  0
POINT
  5
416
330
1E
100
AcDbEntity
  8
DEFPOINTS
  6
ByBlock
 62
     0
100
AcDbPoint
 10
14.60191976427327
 20
14.01451898415577
 30
0.0
  0
POINT
  5
417
330
1E
100
AcDbEntity
  8
DEFPOINTS
  6
ByBlock
 62
     0
100
AcDbPoint
 10
14.60191976427327
 20
14.01451898415577
 30
0.0
  0
LINE
  5
419
330
1E
100
AcDbEntity
  8
0
  6
ByBlock
 62
     0
100
AcDbLine
 10
14.60191976427326
 20
15.14333924731355
 30
0.0
 11
14.60191976427326
 21
15.26033924731355
 31
0.0
  0
POINT
  5
41A
330
1E
100
AcDbEntity
  8
DEFPOINTS
  6
ByBlock
 62
     0
100
AcDbPoint
 10
14.60191976427326
 20
15.08033924731355
 30
0.0
  0
POINT
  5
41B
330
1E
100
AcDbEntity
  8
DEFPOINTS
  6
ByBlock
 62
     0
100
AcDbPoint
 10
14.60191976427326
 20
15.08033924731355
 30
0.0
  0
LINE
  5
41C
330
1E
100
AcDbEntity
  8
0
100
AcDbLine
 10
15.86171456844717
 20
14.92099617837071
 30
0.0
 11
15.70412496009916
 21
14.92099617837071
 31
0.0
  0
LINE
  5
41D
330
1E
100
AcDbEntity
  8
0
100
AcDbLine
 10
15.78291976427317
 20
14.99979098254472
 30
0.0
 11
15.78291976427317
 21
14.84220137419671
 31
0.0
  0
LINE
  5
41E
330
1E
100
AcDbEntity
  8
0
100
AcDbLine
 10
17.34741976427326
 20
13.05239617837072
 30
0.0
 11
17.34741976427326
 21
13.20839617837071
 31
0.0
  0
ARC
  5
41F
330
1E
100
AcDbEntity
  8
0
100
AcDbCircle
 10
17.40741976427326
 20
13.05239617837072
 30
0.0
 40
0.06
100
AcDbArc
 50
180.0
 51
270.0000000000001
  0
ARC
  5
420
330
1E
100
AcDbEntity
  8
0
100
AcDbCircle
 10
17.22241976427326
 20
13.44531617732095
 30
0.0
 40
0.125
100
AcDbArc
 50
0.0
 51
86.85234349146361
  0
LINE
  5
421
330
1E
100
AcDbEntity
  8
0
100
AcDbLine
 10
17.34741976427326
 20
13.44531617732095
 30
0.0
 11
17.34741976427326
 21
13.20839617837071
 31
0.0
  0
ARC
  5
422
330
1E
100
AcDbEntity
  8
OBJ
100
AcDbCircle
 10
18.20520761997821
 20
12.80459945989681
 30
0.0
 40
0.0572192815260978
100
AcDbArc
 50
199.9546783938691
 51
340.0453216061316
  0
ARC
  5
423
330
1E
100
AcDbEntity
  8
OBJ
100
AcDbCircle
 10
18.04146521997822
 20
12.92661754127925
 30
0.0
 40
0.1792373629085269
100
AcDbArc
 50
232.1584983941688
 51
307.841501605827
  0
ARC
  5
424
330
1E
100
AcDbEntity
  8
OBJ
100
AcDbCircle
 10
17.8777228199782
 20
12.80459945989681
 30
0.0
 40
0.0572192815260978
100
AcDbArc
 50
199.9546783938684
 51
340.0453216061308
  0
LINE
  5
425
330
1E
100
AcDbEntity
  8
OBJ
100
AcDbLine
 10
17.93150681997821
 20
12.74738017837073
 30
0.0
 11
18.1514236199782
 21
12.74738017837073
 31
0.0
  0
LINE
  5
426
330
1E
100
AcDbEntity
  8
OBJ
100
AcDbLine
 10
17.84885386918898
 20
12.74738017837073
 30
0.0
 11
17.93150681997821
 21
12.74738017837073
 31
0.0
  0
LINE
  5
427
330
1E
100
AcDbEntity
  8
OBJ
100
AcDbLine
 10
17.84885386918898
 20
12.74738017837073
 30
0.0
 11
17.83170010982562
 21
12.77060010212974
 31
0.0
  0
LINE
  5
428
330
1E
100
AcDbEntity
  8
OBJ
100
AcDbLine
 10
18.23407657076743
 20
12.74738017837073
 30
0.0
 11
18.25123033013079
 21
12.77060010212974
 31
0.0
  0
LINE
  5
429
330
1E
100
AcDbEntity
  8
OBJ
100
AcDbLine
 10
18.1514236199782
 20
12.74738017837073
 30
0.0
 11
18.23407657076743
 21
12.74738017837073
 31
0.0
  0
LINE
  5
42A
330
1E
100
AcDbEntity
  8
OBJ
100
AcDbLine
 10
17.8239388199782
 20
12.94458817837071
 30
0.0
 11
18.25899161997822
 21
12.94458817837071
 31
0.0
  0
LINE
  5
42B
330
1E
100
AcDbEntity
  8
OBJ
  6
Continuous
100
AcDbLine
 10
17.93150681997821
 20
12.94458817837071
 30
0.0
 11
17.93150681997821
 21
12.78507185066368
 31
0.0
  0
LINE
  5
42C
330
1E
100
AcDbEntity
  8
OBJ
  6
Continuous
100
AcDbLine
 10
17.8239388199782
 20
12.94458817837071
 30
0.0
 11
17.8239388199782
 21
12.78507185066368
 31
0.0
  0
LINE
  5
42D
330
1E
100
AcDbEntity
  8
OBJ
100
AcDbLine
 10
17.993072656957
 20
12.99239617837072
 30
0.0
 11
17.94526465695702
 21
12.94458817837071
 31
0.0
  0
LINE
  5
42E
330
1E
100
AcDbEntity
  8
OBJ
  6
CENTER2
100
AcDbLine
 10
17.84126921997821
 20
12.99239617837072
 30
0.0
 11
17.84126921997821
 21
12.94458817837071
 31
0.0
  0
LINE
  5
42F
330
1E
100
AcDbEntity
  8
OBJ
  6
Continuous
100
AcDbLine
 10
18.25899161997822
 20
12.94458817837071
 30
0.0
 11
18.25899161997822
 21
12.78507185066368
 31
0.0
  0
LINE
  5
430
330
1E
100
AcDbEntity
  8
OBJ
  6
Continuous
100
AcDbLine
 10
18.1514236199782
 20
12.94458817837071
 30
0.0
 11
18.1514236199782
 21
12.78507185066368
 31
0.0
  0
LINE
  5
431
330
1E
100
AcDbEntity
  8
OBJ
  6
CENTER2
100
AcDbLine
 10
18.2416612199782
 20
12.99239617837072
 30
0.0
 11
18.2416612199782
 21
12.94458817837071
 31
0.0
  0
LINE
  5
432
330
1E
100
AcDbEntity
  8
0
100
AcDbLine
 10
17.34741976427326
 20
18.20793617889557
 30
0.0
 11
15.60527948149321
 21
18.20793617889559
 31
0.0
  0
LINE
  5
434
330
1E
100
AcDbEntity
  8
OBJ
100
AcDbLine
 10
17.29041976427324
 20
16.74167475762819
 30
0.0
 11
16.16541976427324
 21
16.74167475762819
 31
0.0
  0
LINE
  5
435
330
1E
100
AcDbEntity
  8
OBJ
100
AcDbLine
 10
14.20191976427326
 20
17.51838350158078
 30
0.0
 11
14.20191976427326
 21
18.33029680729123
 31
0.0
  0
LINE
  5
436
330
1E
100
AcDbEntity
  8
0
100
AcDbLine
 10
14.20191976427326
 20
17.67425635904543
 30
0.0
 11
14.20191976427326
 21
18.26425635904543
 31
0.0
  0
POINT
  5
439
330
1E
100
AcDbEntity
  8
DEFPOINTS
  6
ByBlock
 62
     0
100
AcDbPoint
 10
14.60191976427327
 20
17.5227404585327
 30
0.0
  0
POINT
  5
43A
330
1E
100
AcDbEntity
  8
DEFPOINTS
  6
ByBlock
 62
     0
100
AcDbPoint
 10
14.60191976427327
 20
17.5227404585327
 30
0.0
  0
LINE
  5
43C
330
1E
100
AcDbEntity
  8
OBJ
100
AcDbLine
 10
16.16541976427324
 20
16.74167475762819
 30
0.0
 11
15.60291976427324
 21
15.76739617837071
 31
0.0
  0
LINE
  5
43D
330
1E
100
AcDbEntity
  8
0
100
AcDbLine
 10
15.86171456844717
 20
16.61379617837071
 30
0.0
 11
15.70412496009916
 21
16.61379617837071
 31
0.0
  0
LINE
  5
43E
330
1E
100
AcDbEntity
  8
0
100
AcDbLine
 10
15.78291976427317
 20
16.69259098254472
 30
0.0
 11
15.78291976427317
 21
16.53500137419672
 31
0.0
  0
ARC
  5
43F
330
1E
100
AcDbEntity
  8
0
100
AcDbCircle
 10
14.80094169732219
 20
16.34984343501686
 30
0.0
 40
2.024714280065188
100
AcDbArc
 50
56.66308621390995
 51
89.27624052336719
  0
LINE
  5
440
330
1E
100
AcDbEntity
  8
OBJ
 62
     7
100
AcDbLine
 10
14.82651717929788
 20
18.3743961783707
 30
0.0
 11
14.60191976427326
 21
18.3743961783707
 31
0.0
  0
LINE
  5
441
330
1E
100
AcDbEntity
  8
OBJ
100
AcDbLine
 10
14.20821976427327
 20
18.32782972134424
 30
0.0
 11
14.60191976427326
 21
18.32782972134424
 31
0.0
  0
ARC
  5
442
330
1E
100
AcDbEntity
  8
0
100
AcDbCircle
 10
15.88067240959756
 20
17.99127079900885
 30
0.0
 40
0.06
100
AcDbArc
 50
0.0
 51
56.66308621390662
  0
LINE
  5
443
330
1E
100
AcDbEntity
  8
0
100
AcDbLine
 10
15.94067240959758
 20
17.83309034051863
 30
0.0
 11
15.94067240959757
 21
17.99127079900885
 31
0.0
  0
LINE
  5
444
330
1E
100
AcDbEntity
  8
OBJ
100
AcDbLine
 10
17.85291976427324
 20
15.76739617837071
 30
0.0
 11
17.29041976427324
 21
16.74167475762819
 31
0.0
  0
LINE
  5
445
330
1E
100
AcDbEntity
  8
0
100
AcDbLine
 10
17.34741976427326
 20
18.48239617837069
 30
0.0
 11
17.34741976427326
 21
18.32639617837069
 31
0.0
  0
ARC
  5
446
330
1E
100
AcDbEntity
  8
0
100
AcDbCircle
 10
17.40741976427326
 20
18.48239617837069
 30
0.0
 40
0.06
100
AcDbArc
 50
89.99999999999991
 51
180.0
  0
ARC
  5
447
330
1E
100
AcDbEntity
  8
0
100
AcDbCircle
 10
17.22241976427326
 20
18.08947617942048
 30
0.0
 40
0.125
100
AcDbArc
 50
273.1476565085364
 51
0.0
  0
LINE
  5
448
330
1E
100
AcDbEntity
  8
0
100
AcDbLine
 10
17.34741976427326
 20
18.08947617942045
 30
0.0
 11
17.34741976427326
 21
18.32639617837069
 31
0.0
  0
LINE
  5
449
330
1E
100
AcDbEntity
  8
OBJ
  6
Continuous
100
AcDbLine
 10
17.93150681997821
 20
18.59020417837069
 30
0.0
 11
17.93150681997821
 21
18.74972050607773
 31
0.0
  0
LINE
  5
44A
330
1E
100
AcDbEntity
  8
OBJ
  6
Continuous
100
AcDbLine
 10
18.25899161997822
 20
18.59020417837069
 30
0.0
 11
18.25899161997822
 21
18.74972050607773
 31
0.0
  0
LINE
  5
44B
330
1E
100
AcDbEntity
  8
OBJ
  6
Continuous
100
AcDbLine
 10
18.1514236199782
 20
18.59020417837069
 30
0.0
 11
18.1514236199782
 21
18.74972050607773
 31
0.0
  0
LINE
  5
44C
330
1E
100
AcDbEntity
  8
OBJ
  6
Continuous
100
AcDbLine
 10
17.8239388199782
 20
18.59020417837069
 30
0.0
 11
17.8239388199782
 21
18.74972050607773
 31
0.0
  0
LINE
  5
44D
330
1E
100
AcDbEntity
  8
OBJ
100
AcDbLine
 10
17.8239388199782
 20
18.59020417837069
 30
0.0
 11
18.25899161997822
 21
18.59020417837069
 31
0.0
  0
LINE
  5
44E
330
1E
100
AcDbEntity
  8
OBJ
100
AcDbLine
 10
17.993072656957
 20
18.54239617837069
 30
0.0
 11
17.94526465695702
 21
18.59020417837069
 31
0.0
  0
LINE
  5
44F
330
1E
100
AcDbEntity
  8
OBJ
  6
CENTER2
100
AcDbLine
 10
17.84126921997821
 20
18.54239617837069
 30
0.0
 11
17.84126921997821
 21
18.59020417837069
 31
0.0
  0
LINE
  5
450
330
1E
100
AcDbEntity
  8
OBJ
  6
CENTER2
100
AcDbLine
 10
18.2416612199782
 20
18.54239617837069
 30
0.0
 11
18.2416612199782
 21
18.59020417837069
 31
0.0
  0
ARC
  5
451
330
1E
100
AcDbEntity
  8
OBJ
100
AcDbCircle
 10
18.04146521997822
 20
18.60817481546216
 30
0.0
 40
0.1792373629085269
100
AcDbArc
 50
52.15849839417293
 51
127.8415016058311
  0
LINE
  5
452
330
1E
100
AcDbEntity
  8
OBJ
100
AcDbLine
 10
17.93150681997821
 20
18.78741217837068
 30
0.0
 11
18.1514236199782
 21
18.78741217837068
 31
0.0
  0
LINE
  5
453
330
1E
100
AcDbEntity
  8
OBJ
100
AcDbLine
 10
17.84885386918898
 20
18.78741217837068
 30
0.0
 11
17.93150681997821
 21
18.78741217837068
 31
0.0
  0
ARC
  5
454
330
1E
100
AcDbEntity
  8
OBJ
100
AcDbCircle
 10
17.8777228199782
 20
18.73019289684459
 30
0.0
 40
0.0572192815260978
100
AcDbArc
 50
19.95467839386913
 51
160.0453216061316
  0
LINE
  5
455
330
1E
100
AcDbEntity
  8
OBJ
100
AcDbLine
 10
17.84885386918898
 20
18.78741217837068
 30
0.0
 11
17.83170010982562
 21
18.76419225461166
 31
0.0
  0
LINE
  5
456
330
1E
100
AcDbEntity
  8
OBJ
100
AcDbLine
 10
18.23407657076743
 20
18.78741217837068
 30
0.0
 11
18.25123033013079
 21
18.76419225461166
 31
0.0
  0
LINE
  5
457
330
1E
100
AcDbEntity
  8
OBJ
100
AcDbLine
 10
18.1514236199782
 20
18.78741217837068
 30
0.0
 11
18.23407657076743
 21
18.78741217837068
 31
0.0
  0
ARC
  5
458
330
1E
100
AcDbEntity
  8
OBJ
100
AcDbCircle
 10
18.20520761997821
 20
18.73019289684459
 30
0.0
 40
0.0572192815260978
100
AcDbArc
 50
19.95467839386836
 51
160.0453216061308
  0
ARC
  5
459
330
1E
100
AcDbEntity
  8
OBJ
100
AcDbCircle
 10
25.97098892891849
 20
15.76739617837071
 30
0.0
 40
4.865069164645264
100
AcDbArc
 50
180.0
 51
183.7977440057283
  0
LINE
  5
45A
330
1E
100
AcDbEntity
  8
OBJ
100
AcDbLine
 10
21.58091976427322
 20
16.1153961783707
 30
0.0
 11
21.58091976427324
 21
15.41939617837073
 31
0.0
  0
LINE
  5
45B
330
1E
100
AcDbEntity
  8
OBJ
100
AcDbLine
 10
21.38091976427323
 20
16.38839617837072
 30
0.0
 11
21.38091976427323
 21
15.14639617837073
 31
0.0
  0
LINE
  5
45C
330
1E
100
AcDbEntity
  8
0
100
AcDbLine
 10
20.80416902740537
 20
13.63191692661572
 30
0.0
 11
20.80416902740537
 21
17.90287543012572
 31
0.0
  0
LINE
  5
45D
330
1E
100
AcDbEntity
  8
0
100
AcDbLine
 10
20.90091976427324
 20
18.2273961783707
 30
0.0
 11
20.90091976427324
 21
13.3073961783707
 31
0.0
  0
LINE
  5
45E
330
1E
100
AcDbEntity
  8
0
100
AcDbLine
 10
20.58591976427324
 20
18.30739617837069
 30
0.0
 11
20.58591976427324
 21
13.22739617837072
 31
0.0
  0
LINE
  5
45F
330
1E
100
AcDbEntity
  8
0
100
AcDbLine
 10
20.58591976427324
 20
13.22739617837072
 30
0.0
 11
20.82091976427326
 21
13.22739617837072
 31
0.0
  0
LINE
  5
460
330
1E
100
AcDbEntity
  8
OBJ
100
AcDbLine
 10
20.0409007085683
 20
12.94458817837071
 30
0.0
 11
19.60584790856828
 21
12.94458817837071
 31
0.0
  0
ARC
  5
461
330
1E
100
AcDbEntity
  8
OBJ
100
AcDbCircle
 10
19.65963190856829
 20
12.80459945989681
 30
0.0
 40
0.0572192815260978
100
AcDbArc
 50
199.9546783938684
 51
340.0453216061308
  0
LINE
  5
462
330
1E
100
AcDbEntity
  8
OBJ
100
AcDbLine
 10
19.63076295777907
 20
12.74738017837073
 30
0.0
 11
19.6136091984157
 21
12.77060010212974
 31
0.0
  0
LINE
  5
463
330
1E
100
AcDbEntity
  8
0
100
AcDbLine
 10
19.32541976427323
 20
12.66739617837072
 30
0.0
 11
18.53941976427325
 21
12.66739617837072
 31
0.0
  0
ARC
  5
464
330
1E
100
AcDbEntity
  8
0
100
AcDbCircle
 10
18.93241976427326
 20
12.33776082614418
 30
0.0
 40
0.2896353522265085
100
AcDbArc
 50
71.06192714697022
 51
108.938072853036
  0
LINE
  5
465
330
1E
100
AcDbEntity
  8
OBJ
100
AcDbLine
 10
18.83841976427325
 20
12.3223961783707
 30
0.0
 11
19.02641976427324
 21
12.3223961783707
 31
0.0
  0
LINE
  5
466
330
1E
100
AcDbEntity
  8
0
100
AcDbLine
 10
18.53941976427325
 20
12.75739617837072
 30
0.0
 11
18.53941976427325
 21
12.66739617837072
 31
0.0
  0
LINE
  5
467
330
1E
100
AcDbEntity
  8
0
100
AcDbLine
 10
19.32541976427325
 20
12.75739617837072
 30
0.0
 11
19.32541976427323
 21
12.66739617837072
 31
0.0
  0
LINE
  5
468
330
1E
100
AcDbEntity
  8
OBJ
  6
CENTER2
100
AcDbLine
 10
19.6231783085683
 20
12.99239617837072
 30
0.0
 11
19.6231783085683
 21
12.94458817837071
 31
0.0
  0
LINE
  5
469
330
1E
100
AcDbEntity
  8
OBJ
  6
Continuous
100
AcDbLine
 10
19.60584790856828
 20
12.94458817837071
 30
0.0
 11
19.60584790856828
 21
12.78507185066368
 31
0.0
  0
ARC
  5
46A
330
1E
100
AcDbEntity
  8
OBJ
100
AcDbCircle
 10
19.98711670856829
 20
12.80459945989681
 30
0.0
 40
0.0572192815260978
100
AcDbArc
 50
199.9546783938691
 51
340.0453216061316
  0
ARC
  5
46B
330
1E
100
AcDbEntity
  8
OBJ
100
AcDbCircle
 10
19.82337430856827
 20
12.92661754127925
 30
0.0
 40
0.1792373629085269
100
AcDbArc
 50
232.1584983941729
 51
307.8415016058311
  0
LINE
  5
46C
330
1E
100
AcDbEntity
  8
OBJ
100
AcDbLine
 10
20.01598565935751
 20
12.74738017837073
 30
0.0
 11
20.03313941872088
 21
12.77060010212974
 31
0.0
  0
LINE
  5
46D
330
1E
100
AcDbEntity
  8
OBJ
100
AcDbLine
 10
19.93333270856829
 20
12.74738017837073
 30
0.0
 11
19.71341590856829
 21
12.74738017837073
 31
0.0
  0
LINE
  5
46E
330
1E
100
AcDbEntity
  8
OBJ
100
AcDbLine
 10
20.01598565935751
 20
12.74738017837073
 30
0.0
 11
19.93333270856829
 21
12.74738017837073
 31
0.0
  0
LINE
  5
46F
330
1E
100
AcDbEntity
  8
OBJ
100
AcDbLine
 10
19.71341590856829
 20
12.74738017837073
 30
0.0
 11
19.63076295777907
 21
12.74738017837073
 31
0.0
  0
LINE
  5
470
330
1E
100
AcDbEntity
  8
OBJ
  6
CENTER2
100
AcDbLine
 10
20.02357030856828
 20
12.99239617837072
 30
0.0
 11
20.02357030856828
 21
12.94458817837071
 31
0.0
  0
LINE
  5
471
330
1E
100
AcDbEntity
  8
OBJ
100
AcDbLine
 10
19.8717668715895
 20
12.99239617837072
 30
0.0
 11
19.91957487158948
 21
12.94458817837071
 31
0.0
  0
LINE
  5
472
330
1E
100
AcDbEntity
  8
OBJ
  6
Continuous
100
AcDbLine
 10
20.0409007085683
 20
12.94458817837071
 30
0.0
 11
20.0409007085683
 21
12.78507185066368
 31
0.0
  0
LINE
  5
473
330
1E
100
AcDbEntity
  8
OBJ
  6
Continuous
100
AcDbLine
 10
19.71341590856829
 20
12.94458817837071
 30
0.0
 11
19.71341590856829
 21
12.78507185066368
 31
0.0
  0
LINE
  5
474
330
1E
100
AcDbEntity
  8
OBJ
  6
Continuous
100
AcDbLine
 10
19.93333270856829
 20
12.94458817837071
 30
0.0
 11
19.93333270856829
 21
12.78507185066368
 31
0.0
  0
LINE
  5
475
330
1E
100
AcDbEntity
  8
0
100
AcDbLine
 10
20.51741976427324
 20
13.05239617837072
 30
0.0
 11
20.51741976427324
 21
13.20839617837071
 31
0.0
  0
ARC
  5
476
330
1E
100
AcDbEntity
  8
0
100
AcDbCircle
 10
20.45741976427324
 20
13.05239617837072
 30
0.0
 40
0.06
100
AcDbArc
 50
269.9999999999998
 51
0.0
  0
ARC
  5
477
330
1E
100
AcDbEntity
  8
0
100
AcDbCircle
 10
20.55683307343976
 20
13.18099926138088
 30
0.0
 40
0.048
100
AcDbArc
 50
92.35008432321869
 51
145.1961248593337
  0
LINE
  5
478
330
1E
100
AcDbEntity
  8
0
100
AcDbLine
 10
20.71091976427321
 20
13.22739617837072
 30
0.0
 11
20.70691976427322
 21
13.22739617837072
 31
0.0
  0
LINE
  5
479
330
1E
100
AcDbEntity
  8
0
100
AcDbLine
 10
20.71091976427321
 20
13.22739617837072
 30
0.0
 11
20.70691976427322
 21
13.22739617837072
 31
0.0
  0
LINE
  5
47E
330
1E
100
AcDbEntity
  8
0
100
AcDbLine
 10
19.64112496009926
 20
14.92099617837071
 30
0.0
 11
19.79871456844727
 21
14.92099617837071
 31
0.0
  0
LINE
  5
47F
330
1E
100
AcDbEntity
  8
0
100
AcDbLine
 10
19.71991976427326
 20
14.99979098254472
 30
0.0
 11
19.71991976427326
 21
14.84220137419671
 31
0.0
  0
ARC
  5
480
330
1E
100
AcDbEntity
  8
0
100
AcDbCircle
 10
17.05091605023504
 20
15.0043459283897
 30
0.0
 40
4.270791959510789
100
AcDbArc
 50
342.8664940222502
 51
1.100831490236511
  0
LINE
  5
481
330
1E
100
AcDbEntity
  8
OBJ
100
AcDbLine
 10
21.14593576427326
 20
13.35078482758151
 30
0.0
 11
21.12271584051423
 21
13.33363106821815
 31
0.0
  0
ARC
  5
482
330
1E
100
AcDbEntity
  8
OBJ
100
AcDbCircle
 10
21.08871648274716
 20
13.37965377837073
 30
0.0
 40
0.0572192815260978
100
AcDbArc
 50
289.9546783938684
 51
70.04532160613081
  0
LINE
  5
483
330
1E
100
AcDbEntity
  8
OBJ
100
AcDbLine
 10
21.14593576427323
 20
13.43343777837071
 30
0.0
 11
21.14593576427323
 21
13.35078482758148
 31
0.0
  0
ARC
  5
484
330
1E
100
AcDbEntity
  8
OBJ
100
AcDbCircle
 10
21.08871648274716
 20
13.70713857837071
 30
0.0
 40
0.0572192815260978
100
AcDbArc
 50
289.9546783938691
 51
70.04532160613152
  0
LINE
  5
485
330
1E
100
AcDbEntity
  8
OBJ
100
AcDbLine
 10
21.14593576427326
 20
13.73600752915993
 30
0.0
 11
21.14593576427323
 21
13.65335457837073
 31
0.0
  0
LINE
  5
486
330
1E
100
AcDbEntity
  8
OBJ
100
AcDbLine
 10
21.14593576427326
 20
13.73600752915993
 30
0.0
 11
21.12271584051423
 21
13.75316128852329
 31
0.0
  0
ARC
  5
487
330
1E
100
AcDbEntity
  8
OBJ
100
AcDbCircle
 10
20.96669840136472
 20
13.54339617837072
 30
0.0
 40
0.1792373629085269
100
AcDbArc
 50
322.1584983941728
 51
37.84150160583113
  0
LINE
  5
488
330
1E
100
AcDbEntity
  8
OBJ
100
AcDbLine
 10
21.14593576427326
 20
13.65335457837073
 30
0.0
 11
21.14593576427323
 21
13.43343777837071
 31
0.0
  0
ARC
  5
489
330
1E
100
AcDbEntity
  8
0
100
AcDbCircle
 10
20.82091976427326
 20
13.3073961783707
 30
0.0
 40
0.08
100
AcDbArc
 50
270.0
 51
0.0
  0
ARC
  5
48A
330
1E
100
AcDbEntity
  8
0
100
AcDbCircle
 10
20.84091976427324
 20
13.51419066886574
 30
0.0
 40
0.06
100
AcDbArc
 50
0.0
 51
78.82864730275919
  0
ARC
  5
48B
330
1E
100
AcDbEntity
  8
0
100
AcDbCircle
 10
20.86416902740537
 20
13.63191692661572
 30
0.0
 40
0.06
100
AcDbArc
 50
180.0
 51
258.8286473027595
  0
LINE
  5
48C
330
1E
100
AcDbEntity
  8
OBJ
100
AcDbLine
 10
20.90091976427324
 20
13.59178874139192
 30
0.0
 11
20.94872776427324
 21
13.63959674139192
 31
0.0
  0
LINE
  5
48D
330
1E
100
AcDbEntity
  8
OBJ
  6
CENTER2
100
AcDbLine
 10
20.90091976427324
 20
13.34320017837071
 30
0.0
 11
20.94872776427324
 21
13.34320017837071
 31
0.0
  0
LINE
  5
48E
330
1E
100
AcDbEntity
  8
OBJ
  6
CENTER2
100
AcDbLine
 10
20.90091976427324
 20
13.74159217837072
 30
0.0
 11
20.94872776427324
 21
13.74159217837072
 31
0.0
  0
LINE
  5
48F
330
1E
100
AcDbEntity
  8
0
100
AcDbLine
 10
20.90091976427324
 20
13.74359217837072
 30
0.0
 11
20.90091976427324
 21
13.34320017837071
 31
0.0
  0
LINE
  5
490
330
1E
100
AcDbEntity
  8
OBJ
100
AcDbLine
 10
20.94872776427324
 20
13.76092257837072
 30
0.0
 11
20.94872776427324
 21
13.32586977837072
 31
0.0
  0
LINE
  5
491
330
1E
100
AcDbEntity
  8
OBJ
  6
Continuous
100
AcDbLine
 10
20.94872776427324
 20
13.32586977837072
 30
0.0
 11
21.1082440919803
 21
13.32586977837072
 31
0.0
  0
LINE
  5
492
330
1E
100
AcDbEntity
  8
OBJ
  6
Continuous
100
AcDbLine
 10
20.94872776427324
 20
13.43343777837071
 30
0.0
 11
21.1082440919803
 21
13.43343777837071
 31
0.0
  0
LINE
  5
493
330
1E
100
AcDbEntity
  8
OBJ
  6
Continuous
100
AcDbLine
 10
20.94872776427324
 20
13.65335457837073
 30
0.0
 11
21.1082440919803
 21
13.65335457837073
 31
0.0
  0
LINE
  5
494
330
1E
100
AcDbEntity
  8
OBJ
  6
Continuous
100
AcDbLine
 10
20.94872776427324
 20
13.76092257837072
 30
0.0
 11
21.1082440919803
 21
13.76092257837072
 31
0.0
  0
ARC
  5
495
330
1E
100
AcDbEntity
  8
OBJ
100
AcDbCircle
 10
21.23091976427323
 20
15.02243897781351
 30
0.0
 40
0.0350427994428184
100
AcDbArc
 50
270.0
 51
338.8488848584212
  0
LINE
  5
496
330
1E
100
AcDbEntity
  8
OBJ
  6
Continuous
100
AcDbLine
 10
21.17205531263768
 20
15.08639617837073
 30
0.0
 11
21.32091976427323
 21
15.08639617837073
 31
0.0
  0
ARC
  5
497
330
1E
100
AcDbEntity
  8
OBJ
100
AcDbCircle
 10
21.23091976427323
 20
15.02243897781354
 30
0.0
 40
0.0350427994428349
100
AcDbArc
 50
201.1511151415839
 51
270.0
  0
ARC
  5
498
330
1E
100
AcDbEntity
  8
OBJ
100
AcDbCircle
 10
22.14682892268986
 20
15.37679800219663
 30
0.0
 40
1.017111994883359
100
AcDbArc
 50
189.1046008654021
 51
201.1511151415689
  0
ARC
  5
499
330
1E
100
AcDbEntity
  8
OBJ
100
AcDbCircle
 10
23.603526492401
 20
15.61024312554778
 30
0.0
 40
2.492396521752243
100
AcDbArc
 50
183.797744005727
 51
189.1046008654021
  0
ARC
  5
49A
330
1E
100
AcDbEntity
  8
OBJ
100
AcDbCircle
 10
20.31501060585707
 20
15.37679800219654
 30
0.0
 40
1.017111994882875
100
AcDbArc
 50
338.8488848584259
 51
343.4103007148684
  0
LINE
  5
49B
330
1E
100
AcDbEntity
  8
OBJ
  6
Continuous
100
AcDbLine
 10
21.38091976427323
 20
15.33939617837071
 30
0.0
 11
21.50091976427324
 21
15.33939617837071
 31
0.0
  0
ARC
  5
49C
330
1E
100
AcDbEntity
  8
OBJ
100
AcDbCircle
 10
21.32091976427323
 20
15.14639617837073
 30
0.0
 40
0.06
100
AcDbArc
 50
269.9999999999993
 51
0.0000000000006361
  0
ARC
  5
49D
330
1E
100
AcDbEntity
  8
OBJ
100
AcDbCircle
 10
21.50091976427324
 20
15.41939617837073
 30
0.0
 40
0.08
100
AcDbArc
 50
270.000000000002
 51
0.0000000000009542
  0
LINE
  5
49E
330
1E
100
AcDbEntity
  8
0
100
AcDbLine
 10
20.58591976427324
 20
18.30739617837069
 30
0.0
 11
20.82091976427326
 21
18.30739617837069
 31
0.0
  0
LINE
  5
4A2
330
1E
100
AcDbEntity
  8
0
100
AcDbLine
 10
19.71991976427326
 20
16.69259098254472
 30
0.0
 11
19.71991976427326
 21
16.53500137419672
 31
0.0
  0
LINE
  5
4A3
330
1E
100
AcDbEntity
  8
0
100
AcDbLine
 10
19.64112496009926
 20
16.61379617837071
 30
0.0
 11
19.79871456844727
 21
16.61379617837071
 31
0.0
  0
LINE
  5
4A5
330
1E
100
AcDbEntity
  8
OBJ
100
AcDbLine
 10
20.0409007085683
 20
18.59020417837069
 30
0.0
 11
19.60584790856828
 21
18.59020417837069
 31
0.0
  0
ARC
  5
4A6
330
1E
100
AcDbEntity
  8
OBJ
100
AcDbCircle
 10
19.65963190856829
 20
18.73019289684459
 30
0.0
 40
0.0572192815260978
100
AcDbArc
 50
19.95467839386913
 51
160.0453216061316
  0
LINE
  5
4A7
330
1E
100
AcDbEntity
  8
OBJ
100
AcDbLine
 10
19.63076295777907
 20
18.78741217837068
 30
0.0
 11
19.6136091984157
 21
18.76419225461166
 31
0.0
  0
LINE
  5
4A8
330
1E
100
AcDbEntity
  8
OBJ
  6
Continuous
100
AcDbLine
 10
19.60584790856828
 20
18.59020417837069
 30
0.0
 11
19.60584790856828
 21
18.74972050607773
 31
0.0
  0
LINE
  5
4A9
330
1E
100
AcDbEntity
  8
OBJ
  6
CENTER2
100
AcDbLine
 10
19.6231783085683
 20
18.54239617837069
 30
0.0
 11
19.6231783085683
 21
18.59020417837069
 31
0.0
  0
LINE
  5
4AA
330
1E
100
AcDbEntity
  8
0
100
AcDbLine
 10
19.32541976427323
 20
18.86739617837069
 30
0.0
 11
18.53941976427325
 21
18.86739617837069
 31
0.0
  0
ARC
  5
4AB
330
1E
100
AcDbEntity
  8
0
100
AcDbCircle
 10
18.93241976427326
 20
19.19703153059723
 30
0.0
 40
0.2896353522265085
100
AcDbArc
 50
251.0619271469639
 51
288.9380728530298
  0
LINE
  5
4AC
330
1E
100
AcDbEntity
  8
OBJ
100
AcDbLine
 10
18.83841976427325
 20
19.21239617837071
 30
0.0
 11
19.02641976427324
 21
19.21239617837071
 31
0.0
  0
LINE
  5
4AD
330
1E
100
AcDbEntity
  8
0
100
AcDbLine
 10
18.53941976427325
 20
18.77739617837069
 30
0.0
 11
18.53941976427325
 21
18.86739617837069
 31
0.0
  0
LINE
  5
4AE
330
1E
100
AcDbEntity
  8
0
100
AcDbLine
 10
19.32541976427325
 20
18.77739617837069
 30
0.0
 11
19.32541976427323
 21
18.86739617837069
 31
0.0
  0
LINE
  5
4AF
330
1E
100
AcDbEntity
  8
OBJ
  6
Continuous
100
AcDbLine
 10
20.0409007085683
 20
18.59020417837069
 30
0.0
 11
20.0409007085683
 21
18.74972050607773
 31
0.0
  0
LINE
  5
4B0
330
1E
100
AcDbEntity
  8
OBJ
  6
Continuous
100
AcDbLine
 10
19.71341590856829
 20
18.59020417837069
 30
0.0
 11
19.71341590856829
 21
18.74972050607773
 31
0.0
  0
LINE
  5
4B1
330
1E
100
AcDbEntity
  8
OBJ
  6
Continuous
100
AcDbLine
 10
19.93333270856829
 20
18.59020417837069
 30
0.0
 11
19.93333270856829
 21
18.74972050607773
 31
0.0
  0
LINE
  5
4B2
330
1E
100
AcDbEntity
  8
OBJ
  6
CENTER2
100
AcDbLine
 10
20.02357030856828
 20
18.54239617837069
 30
0.0
 11
20.02357030856828
 21
18.59020417837069
 31
0.0
  0
LINE
  5
4B3
330
1E
100
AcDbEntity
  8
OBJ
100
AcDbLine
 10
19.8717668715895
 20
18.54239617837069
 30
0.0
 11
19.91957487158948
 21
18.59020417837069
 31
0.0
  0
ARC
  5
4B4
330
1E
100
AcDbEntity
  8
0
100
AcDbCircle
 10
20.45741976427324
 20
18.48239617837069
 30
0.0
 40
0.06
100
AcDbArc
 50
0.0
 51
90.0000000000001
  0
LINE
  5
4B5
330
1E
100
AcDbEntity
  8
0
100
AcDbLine
 10
20.51741976427324
 20
18.48239617837069
 30
0.0
 11
20.51741976427324
 21
18.32639617837069
 31
0.0
  0
ARC
  5
4B6
330
1E
100
AcDbEntity
  8
0
100
AcDbCircle
 10
20.55790359604054
 20
18.35218492330796
 30
0.0
 40
0.048
100
AcDbArc
 50
212.4976842065605
 51
266.7832298050295
  0
LINE
  5
4B7
330
1E
100
AcDbEntity
  8
0
100
AcDbLine
 10
20.71091976427321
 20
18.30739617837069
 30
0.0
 11
20.70691976427322
 21
18.30739617837069
 31
0.0
  0
LINE
  5
4B8
330
1E
100
AcDbEntity
  8
0
100
AcDbLine
 10
20.71091976427321
 20
18.30739617837069
 30
0.0
 11
20.70691976427322
 21
18.30739617837069
 31
0.0
  0
LINE
  5
4B9
330
1E
100
AcDbEntity
  8
OBJ
100
AcDbLine
 10
20.01598565935751
 20
18.78741217837068
 30
0.0
 11
20.03313941872088
 21
18.76419225461166
 31
0.0
  0
ARC
  5
4BA
330
1E
100
AcDbEntity
  8
OBJ
100
AcDbCircle
 10
19.98711670856829
 20
18.73019289684459
 30
0.0
 40
0.0572192815260978
100
AcDbArc
 50
19.95467839386836
 51
160.0453216061308
  0
LINE
  5
4BB
330
1E
100
AcDbEntity
  8
OBJ
100
AcDbLine
 10
19.93333270856829
 20
18.78741217837068
 30
0.0
 11
19.71341590856829
 21
18.78741217837068
 31
0.0
  0
ARC
  5
4BC
330
1E
100
AcDbEntity
  8
OBJ
100
AcDbCircle
 10
19.82337430856827
 20
18.60817481546216
 30
0.0
 40
0.1792373629085269
100
AcDbArc
 50
52.15849839416886
 51
127.841501605827
  0
LINE
  5
4BD
330
1E
100
AcDbEntity
  8
OBJ
100
AcDbLine
 10
20.01598565935751
 20
18.78741217837068
 30
0.0
 11
19.93333270856829
 21
18.78741217837068
 31
0.0
  0
LINE
  5
4BE
330
1E
100
AcDbEntity
  8
OBJ
100
AcDbLine
 10
19.71341590856829
 20
18.78741217837068
 30
0.0
 11
19.63076295777907
 21
18.78741217837068
 31
0.0
  0
ARC
  5
4BF
330
1E
100
AcDbEntity
  8
0
100
AcDbCircle
 10
17.05091605023504
 20
16.53044642835172
 30
0.0
 40
4.270791959510789
100
AcDbArc
 50
358.8991685097634
 51
17.15227859427317
  0
ARC
  5
4C0
330
1E
100
AcDbEntity
  8
OBJ
100
AcDbCircle
 10
21.23091976427323
 20
16.5123533789279
 30
0.0
 40
0.0350427994428108
100
AcDbArc
 50
21.15111514154633
 51
90.0
  0
LINE
  5
4C1
330
1E
100
AcDbEntity
  8
OBJ
  6
Continuous
100
AcDbLine
 10
21.17205531263768
 20
16.44839617837069
 30
0.0
 11
21.32091976427323
 21
16.44839617837069
 31
0.0
  0
ARC
  5
4C2
330
1E
100
AcDbEntity
  8
OBJ
100
AcDbCircle
 10
23.60352649240035
 20
15.92454923119373
 30
0.0
 40
2.492396521751584
100
AcDbArc
 50
170.8953991345978
 51
176.2022559942754
  0
ARC
  5
4C3
330
1E
100
AcDbEntity
  8
OBJ
100
AcDbCircle
 10
25.97098892891721
 20
15.76739617837071
 30
0.0
 40
4.865069164643978
100
AcDbArc
 50
176.2022559942711
 51
180.0
  0
ARC
  5
4C4
330
1E
100
AcDbEntity
  8
OBJ
100
AcDbCircle
 10
21.23091976427323
 20
16.51235337892788
 30
0.0
 40
0.0350427994428344
100
AcDbArc
 50
90.0
 51
158.848884858416
  0
ARC
  5
4C5
330
1E
100
AcDbEntity
  8
OBJ
100
AcDbCircle
 10
22.14682892268986
 20
16.15799435454479
 30
0.0
 40
1.017111994883359
100
AcDbArc
 50
158.8488848584309
 51
170.8953991345977
  0
ARC
  5
4C6
330
1E
100
AcDbEntity
  8
OBJ
100
AcDbCircle
 10
21.5009197642732
 20
16.1153961783707
 30
0.0
 40
0.08
100
AcDbArc
 50
0.0000000000010432
 51
90.00000000000204
  0
LINE
  5
4C7
330
1E
100
AcDbEntity
  8
OBJ
  6
Continuous
100
AcDbLine
 10
21.38091976427323
 20
16.19539617837071
 30
0.0
 11
21.5009197642732
 21
16.19539617837071
 31
0.0
  0
POINT
  5
4C8
330
1E
100
AcDbEntity
  8
DEFPOINTS
  6
ByBlock
 62
     0
100
AcDbPoint
 10
21.58091976427322
 20
15.76739617837071
 30
0.0
  0
ARC
  5
4C9
330
1E
100
AcDbEntity
  8
OBJ
100
AcDbCircle
 10
20.31501060585724
 20
16.1579943545449
 30
0.0
 40
1.017111994882706
100
AcDbArc
 50
16.58969928513289
 51
21.15111514157575
  0
ARC
  5
4CA
330
1E
100
AcDbEntity
  8
OBJ
100
AcDbCircle
 10
21.32091976427323
 20
16.38839617837069
 30
0.0
 40
0.06
100
AcDbArc
 50
359.9999999999993
 51
90.00000000000063
  0
LINE
  5
4CB
330
1E
100
AcDbEntity
  8
OBJ
100
AcDbLine
 10
21.14593576427326
 20
18.18400752915994
 30
0.0
 11
21.12271584051423
 21
18.2011612885233
 31
0.0
  0
ARC
  5
4CC
330
1E
100
AcDbEntity
  8
OBJ
100
AcDbCircle
 10
21.08871648274716
 20
18.15513857837072
 30
0.0
 40
0.0572192815260978
100
AcDbArc
 50
289.9546783938691
 51
70.04532160613152
  0
LINE
  5
4CD
330
1E
100
AcDbEntity
  8
OBJ
100
AcDbLine
 10
21.14593576427323
 20
18.10135457837071
 30
0.0
 11
21.14593576427323
 21
18.18400752915994
 31
0.0
  0
ARC
  5
4CE
330
1E
100
AcDbEntity
  8
OBJ
100
AcDbCircle
 10
20.96669840136472
 20
17.99139617837073
 30
0.0
 40
0.1792373629085269
100
AcDbArc
 50
322.1584983941689
 51
37.84150160582706
  0
LINE
  5
4CF
330
1E
100
AcDbEntity
  8
OBJ
100
AcDbLine
 10
21.14593576427326
 20
17.88143777837072
 30
0.0
 11
21.14593576427323
 21
18.10135457837071
 31
0.0
  0
ARC
  5
4D0
330
1E
100
AcDbEntity
  8
0
100
AcDbCircle
 10
20.86416902740537
 20
17.9028754301257
 30
0.0
 40
0.06
100
AcDbArc
 50
101.1713526972404
 51
180.0
  0
ARC
  5
4D1
330
1E
100
AcDbEntity
  8
0
100
AcDbCircle
 10
20.84091976427324
 20
18.0206016878757
 30
0.0
 40
0.06
100
AcDbArc
 50
281.1713526972408
 51
0.0
  0
LINE
  5
4D2
330
1E
100
AcDbEntity
  8
OBJ
100
AcDbLine
 10
20.90091976427324
 20
17.94300361534953
 30
0.0
 11
20.94872776427324
 21
17.89519561534953
 31
0.0
  0
LINE
  5
4D3
330
1E
100
AcDbEntity
  8
OBJ
  6
CENTER2
100
AcDbLine
 10
20.90091976427324
 20
18.19159217837073
 30
0.0
 11
20.94872776427324
 21
18.19159217837073
 31
0.0
  0
ARC
  5
4D4
330
1E
100
AcDbEntity
  8
0
100
AcDbCircle
 10
20.82091976427326
 20
18.2273961783707
 30
0.0
 40
0.08
100
AcDbArc
 50
0.0
 51
90.0
  0
LINE
  5
4D5
330
1E
100
AcDbEntity
  8
OBJ
  6
Continuous
100
AcDbLine
 10
20.94872776427324
 20
18.10135457837071
 30
0.0
 11
21.1082440919803
 21
18.10135457837071
 31
0.0
  0
LINE
  5
4D6
330
1E
100
AcDbEntity
  8
OBJ
  6
Continuous
100
AcDbLine
 10
20.94872776427324
 20
17.88143777837072
 30
0.0
 11
21.1082440919803
 21
17.88143777837072
 31
0.0
  0
LINE
  5
4D7
330
1E
100
AcDbEntity
  8
OBJ
  6
Continuous
100
AcDbLine
 10
20.94872776427324
 20
18.20892257837073
 30
0.0
 11
21.1082440919803
 21
18.20892257837073
 31
0.0
  0
LINE
  5
4D8
330
1E
100
AcDbEntity
  8
OBJ
100
AcDbLine
 10
21.14593576427326
 20
17.79878482758149
 30
0.0
 11
21.12271584051423
 21
17.78163106821815
 31
0.0
  0
LINE
  5
4D9
330
1E
100
AcDbEntity
  8
OBJ
  6
CENTER2
100
AcDbLine
 10
20.90091976427324
 20
17.79120017837072
 30
0.0
 11
20.94872776427324
 21
17.79120017837072
 31
0.0
  0
LINE
  5
4DA
330
1E
100
AcDbEntity
  8
OBJ
  6
Continuous
100
AcDbLine
 10
20.94872776427324
 20
17.77386977837073
 30
0.0
 11
21.1082440919803
 21
17.77386977837073
 31
0.0
  0
ARC
  5
4DB
330
1E
100
AcDbEntity
  8
OBJ
100
AcDbCircle
 10
21.08871648274716
 20
17.82765377837071
 30
0.0
 40
0.0572192815260978
100
AcDbArc
 50
289.9546783938684
 51
70.04532160613081
  0
LINE
  5
4DC
330
1E
100
AcDbEntity
  8
OBJ
100
AcDbLine
 10
21.14593576427326
 20
17.79878482758149
 30
0.0
 11
21.14593576427323
 21
17.88143777837072
 31
0.0
  0
LINE
  5
4DD
330
1E
100
AcDbEntity
  8
0
100
AcDbLine
 10
20.90091976427324
 20
17.79120017837072
 30
0.0
 11
20.90091976427324
 21
18.19159217837073
 31
0.0
  0
LINE
  5
4DE
330
1E
100
AcDbEntity
  8
OBJ
100
AcDbLine
 10
20.94872776427324
 20
17.77386977837073
 30
0.0
 11
20.94872776427324
 21
18.20892257837073
 31
0.0
  0
LINE
  5
4DF
330
1E
100
AcDbEntity
  8
0
100
AcDbLine
 10
19.02641976427323
 20
20.1273961783707
 30
0.0
 11
19.25721976427326
 21
20.1273961783707
 31
0.0
  0
LINE
  5
4E0
330
1E
100
AcDbEntity
  8
OBJ
100
AcDbLine
 10
19.22721976427326
 20
20.1573961783707
 30
0.0
 11
18.63761976427324
 21
20.15739617837072
 31
0.0
  0
LINE
  5
4E1
330
1E
100
AcDbEntity
  8
0
100
AcDbLine
 10
18.60761976427324
 20
20.12739617837072
 30
0.0
 11
18.63761976427324
 21
20.15739617837072
 31
0.0
  0
LINE
  5
4E2
330
1E
100
AcDbEntity
  8
0
100
AcDbLine
 10
18.60761976427324
 20
20.12739617837072
 30
0.0
 11
18.83841976427325
 21
20.1273961783707
 31
0.0
  0
LINE
  5
4E3
330
1E
100
AcDbEntity
  8
0
100
AcDbLine
 10
19.22721976427326
 20
20.1573961783707
 30
0.0
 11
19.25721976427326
 21
20.1273961783707
 31
0.0
  0
POINT
  5
4EB
330
1E
100
AcDbEntity
  8
DEFPOINTS
  6
ByBlock
 62
     0
100
AcDbPoint
 10
10.64883288654491
 20
14.62662972134424
 30
0.0
  0
POINT
  5
4EC
330
1E
100
AcDbEntity
  8
DEFPOINTS
  6
ByBlock
 62
     0
100
AcDbPoint
 10
10.64883288654491
 20
16.91062972134424
 30
0.0
  0
POINT
  5
4F5
330
1E
100
AcDbEntity
  8
DEFPOINTS
  6
ByBlock
 62
     0
100
AcDbPoint
 10
3.166229884646355
 20
3.852281487606031
 30
0.0
  0
POINT
  5
4FF
330
1E
100
AcDbEntity
  8
DEFPOINTS
  6
ByBlock
 62
     0
100
AcDbPoint
 10
2.805633376856343
 20
3.557481487606022
 30
0.0
  0
POINT
  5
500
330
1E
100
AcDbEntity
  8
DEFPOINTS
  6
ByBlock
 62
     0
100
AcDbPoint
 10
-5.974366623143668
 20
3.557481487606022
 30
0.0
  0
POINT
  5
509
330
1E
100
AcDbEntity
  8
DEFPOINTS
  6
ByBlock
 62
     0
100
AcDbPoint
 10
21.57091976427325
 20
3.504281487606046
 30
0.0
  0
POINT
  5
50A
330
1E
100
AcDbEntity
  8
DEFPOINTS
  6
ByBlock
 62
     0
100
AcDbPoint
 10
10.96070976427326
 20
3.426261350815195
 30
0.0
  0
POINT
  5
514
330
1E
100
AcDbEntity
  8
DEFPOINTS
  6
ByBlock
 62
     0
100
AcDbPoint
 10
16.72791976427325
 20
6.241266319066409
 30
0.0
  0
POINT
  5
527
330
1E
100
AcDbEntity
  8
DEFPOINTS
  6
ByBlock
 62
     0
100
AcDbPoint
 10
21.57091976427324
 20
3.852281487606038
 30
0.0
  0
POINT
  5
530
330
1E
100
AcDbEntity
  8
DEFPOINTS
  6
ByBlock
 62
     0
100
AcDbPoint
 10
18.93241976427325
 20
11.3773961783707
 30
0.0
  0
POINT
  5
531
330
1E
100
AcDbEntity
  8
DEFPOINTS
  6
ByBlock
 62
     0
100
AcDbPoint
 10
11.82470976427327
 20
14.93171448629839
 30
0.0
  0
POINT
  5
53A
330
1E
100
AcDbEntity
  8
DEFPOINTS
  6
ByBlock
 62
     0
100
AcDbPoint
 10
18.93241976427325
 20
20.15739617837071
 30
0.0
  0
POINT
  5
53B
330
1E
100
AcDbEntity
  8
DEFPOINTS
  6
ByBlock
 62
     0
100
AcDbPoint
 10
10.95970976427327
 20
17.32462972134424
 30
0.0
  0
POINT
  5
544
330
1E
100
AcDbEntity
  8
DEFPOINTS
  6
ByBlock
 62
     0
100
AcDbPoint
 10
10.71603313817742
 20
3.852281487606045
 30
0.0
  0
POINT
  5
545
330
1E
100
AcDbEntity
  8
DEFPOINTS
  6
ByBlock
 62
     0
100
AcDbPoint
 10
11.30118134282984
 20
4.954281487606047
 30
0.0
  0
LINE
  5
54E
330
1E
100
AcDbEntity
  8
0
100
AcDbLine
 10
-2.017092796556884
 20
1.219281487606021
 30
0.0
 11
-1.152040449730442
 21
1.219281487606021
 31
0.0
  0
LINE
  5
550
330
1E
100
AcDbEntity
  8
0
100
AcDbLine
 10
-4.043866623143674
 20
3.999505806249388
 30
0.0
 11
-3.788866623143674
 21
4.146730124892741
 31
0.0
  0
LINE
  5
551
330
1E
100
AcDbEntity
  8
0
100
AcDbLine
 10
-3.788866623143674
 20
4.146730124892741
 30
0.0
 11
-3.533866623143675
 21
3.999505806249388
 31
0.0
  0
LINE
  5
552
330
1E
100
AcDbEntity
  8
0
100
AcDbLine
 10
-3.533866623143675
 20
3.999505806249388
 30
0.0
 11
-3.533866623143675
 21
3.705057168962678
 31
0.0
  0
LINE
  5
553
330
1E
100
AcDbEntity
  8
0
100
AcDbLine
 10
-3.533866623143675
 20
3.705057168962678
 30
0.0
 11
-3.788866623143674
 21
3.557832850319325
 31
0.0
  0
LINE
  5
554
330
1E
100
AcDbEntity
  8
0
100
AcDbLine
 10
-3.788866623143674
 20
3.557832850319325
 30
0.0
 11
-4.043866623143674
 21
3.705057168962678
 31
0.0
  0
LINE
  5
555
330
1E
100
AcDbEntity
  8
0
100
AcDbLine
 10
-4.043866623143674
 20
3.705057168962678
 30
0.0
 11
-4.043866623143674
 21
3.999505806249388
 31
0.0
  0
LINE
  5
556
330
1E
100
AcDbEntity
  8
0
100
AcDbLine
 10
0.8751333768563309
 20
3.999505806249388
 30
0.0
 11
0.620133376856332
 21
4.146730124892741
 31
0.0
  0
LINE
  5
557
330
1E
100
AcDbEntity
  8
0
100
AcDbLine
 10
0.620133376856332
 20
4.146730124892741
 30
0.0
 11
0.3651333768563312
 21
3.999505806249388
 31
0.0
  0
LINE
  5
558
330
1E
100
AcDbEntity
  8
0
100
AcDbLine
 10
0.3651333768563312
 20
3.999505806249388
 30
0.0
 11
0.3651333768563312
 21
3.705057168962678
 31
0.0
  0
LINE
  5
559
330
1E
100
AcDbEntity
  8
0
100
AcDbLine
 10
0.3651333768563312
 20
3.705057168962678
 30
0.0
 11
0.620133376856332
 21
3.557832850319325
 31
0.0
  0
LINE
  5
55A
330
1E
100
AcDbEntity
  8
0
100
AcDbLine
 10
0.620133376856332
 20
3.557832850319325
 30
0.0
 11
0.8751333768563309
 21
3.705057168962678
 31
0.0
  0
LINE
  5
55B
330
1E
100
AcDbEntity
  8
0
100
AcDbLine
 10
0.8751333768563309
 20
3.705057168962678
 30
0.0
 11
0.8751333768563309
 21
3.999505806249388
 31
0.0
  0
LINE
  5
55C
330
1E
100
AcDbEntity
  8
0
100
AcDbLine
 10
18.04146521997821
 20
2.741952053028786
 30
0.0
 11
17.85148099204139
 21
2.851639498169884
 31
0.0
  0
LINE
  5
55D
330
1E
100
AcDbEntity
  8
0
100
AcDbLine
 10
17.85148099204139
 20
2.851639498169884
 30
0.0
 11
17.85148099204139
 21
3.071014388452088
 31
0.0
  0
LINE
  5
55E
330
1E
100
AcDbEntity
  8
0
100
AcDbLine
 10
17.85148099204139
 20
3.071014388452088
 30
0.0
 11
18.04146521997821
 21
3.18070183359319
 31
0.0
  0
LINE
  5
55F
330
1E
100
AcDbEntity
  8
0
100
AcDbLine
 10
18.04146521997821
 20
3.18070183359319
 30
0.0
 11
18.23144944791502
 21
3.071014388452088
 31
0.0
  0
LINE
  5
560
330
1E
100
AcDbEntity
  8
0
100
AcDbLine
 10
18.23144944791502
 20
3.071014388452088
 30
0.0
 11
18.23144944791502
 21
2.851639498169888
 31
0.0
  0
LINE
  5
561
330
1E
100
AcDbEntity
  8
0
100
AcDbLine
 10
18.23144944791502
 20
2.851639498169888
 30
0.0
 11
18.04146521997821
 21
2.741952053028786
 31
0.0
  0
LINE
  5
562
330
1E
100
AcDbEntity
  8
0
100
AcDbLine
 10
17.822090329696
 20
4.743236031901101
 30
0.0
 11
17.9317777748371
 21
4.933220259837913
 31
0.0
  0
LINE
  5
563
330
1E
100
AcDbEntity
  8
0
100
AcDbLine
 10
17.9317777748371
 20
4.933220259837913
 30
0.0
 11
18.15115266511931
 21
4.933220259837913
 31
0.0
  0
LINE
  5
564
330
1E
100
AcDbEntity
  8
0
100
AcDbLine
 10
18.15115266511931
 20
4.933220259837913
 30
0.0
 11
18.26084011026041
 21
4.743236031901101
 31
0.0
  0
LINE
  5
565
330
1E
100
AcDbEntity
  8
0
100
AcDbLine
 10
18.26084011026041
 20
4.743236031901101
 30
0.0
 11
18.15115266511931
 21
4.553251803964293
 31
0.0
  0
LINE
  5
566
330
1E
100
AcDbEntity
  8
0
100
AcDbLine
 10
18.15115266511931
 20
4.553251803964293
 30
0.0
 11
17.93177777483711
 21
4.553251803964293
 31
0.0
  0
LINE
  5
567
330
1E
100
AcDbEntity
  8
0
100
AcDbLine
 10
17.93177777483711
 20
4.553251803964293
 30
0.0
 11
17.822090329696
 21
4.743236031901101
 31
0.0
  0
CIRCLE
  5
569
330
1E
100
AcDbEntity
  8
0
100
AcDbCircle
 10
19.8233743085683
 20
2.961326943310989
 30
0.0
 40
0.1867872331998521
  0
CIRCLE
  5
56A
330
1E
100
AcDbEntity
  8
OBJ
100
AcDbCircle
 10
19.8233743085683
 20
2.961326943310989
 30
0.0
 40
0.16065
  0
ARC
  5
56B
330
1E
100
AcDbEntity
  8
0
100
AcDbCircle
 10
19.8233743085683
 20
2.961326943310989
 30
0.0
 40
0.1932853545235975
100
AcDbArc
 50
349.3955218742207
 51
10.60447812577928
  0
LINE
  5
56C
330
1E
100
AcDbEntity
  8
OBJ
100
AcDbLine
 10
19.8590743085683
 20
3.068426943310985
 30
0.0
 11
19.8590743085683
 21
2.997026943310988
 31
0.0
  0
LINE
  5
56D
330
1E
100
AcDbEntity
  8
OBJ
100
AcDbLine
 10
19.7876743085683
 20
3.068426943310985
 30
0.0
 11
19.7876743085683
 21
2.997026943310988
 31
0.0
  0
LINE
  5
56E
330
1E
100
AcDbEntity
  8
OBJ
100
AcDbLine
 10
19.7876743085683
 20
3.068426943310985
 30
0.0
 11
19.8590743085683
 21
3.068426943310985
 31
0.0
  0
LINE
  5
56F
330
1E
100
AcDbEntity
  8
OBJ
100
AcDbLine
 10
19.8590743085683
 20
2.997026943310988
 30
0.0
 11
19.93047430856831
 21
2.997026943310988
 31
0.0
  0
LINE
  5
570
330
1E
100
AcDbEntity
  8
OBJ
100
AcDbLine
 10
19.8590743085683
 20
2.925626943310991
 30
0.0
 11
19.93047430856831
 21
2.925626943310991
 31
0.0
  0
LINE
  5
571
330
1E
100
AcDbEntity
  8
0
100
AcDbLine
 10
19.7876743085683
 20
2.997026943310988
 30
0.0
 11
19.8590743085683
 21
2.925626943310991
 31
0.0
  0
LINE
  5
572
330
1E
100
AcDbEntity
  8
0
100
AcDbLine
 10
19.8590743085683
 20
2.997026943310988
 30
0.0
 11
19.7876743085683
 21
2.925626943310991
 31
0.0
  0
LINE
  5
573
330
1E
100
AcDbEntity
  8
OBJ
100
AcDbLine
 10
19.8590743085683
 20
2.925626943310991
 30
0.0
 11
19.8590743085683
 21
2.854226943310987
 31
0.0
  0
LINE
  5
574
330
1E
100
AcDbEntity
  8
OBJ
100
AcDbLine
 10
19.8590743085683
 20
2.854226943310987
 30
0.0
 11
19.7876743085683
 21
2.854226943310987
 31
0.0
  0
LINE
  5
575
330
1E
100
AcDbEntity
  8
OBJ
100
AcDbLine
 10
19.7876743085683
 20
2.925626943310991
 30
0.0
 11
19.7876743085683
 21
2.854226943310987
 31
0.0
  0
LINE
  5
576
330
1E
100
AcDbEntity
  8
OBJ
100
AcDbLine
 10
19.71627430856831
 20
2.925626943310991
 30
0.0
 11
19.7876743085683
 21
2.925626943310991
 31
0.0
  0
LINE
  5
577
330
1E
100
AcDbEntity
  8
OBJ
100
AcDbLine
 10
19.71627430856831
 20
2.925626943310991
 30
0.0
 11
19.71627430856831
 21
2.997026943310988
 31
0.0
  0
LINE
  5
578
330
1E
100
AcDbEntity
  8
OBJ
100
AcDbLine
 10
19.71627430856831
 20
2.997026943310988
 30
0.0
 11
19.7876743085683
 21
2.997026943310988
 31
0.0
  0
LINE
  5
579
330
1E
100
AcDbEntity
  8
OBJ
100
AcDbLine
 10
19.93047430856831
 20
2.997026943310988
 30
0.0
 11
19.93047430856831
 21
2.925626943310991
 31
0.0
  0
ARC
  5
57A
330
1E
100
AcDbEntity
  8
0
100
AcDbCircle
 10
19.8233743085683
 20
2.961326943310989
 30
0.0
 40
0.1932853545235975
100
AcDbArc
 50
289.3955218742227
 51
310.6044781257767
  0
ARC
  5
57B
330
1E
100
AcDbEntity
  8
0
100
AcDbCircle
 10
19.8233743085683
 20
2.961326943310989
 30
0.0
 40
0.1932853545235975
100
AcDbArc
 50
229.3955218742211
 51
250.6044781257783
  0
ARC
  5
57C
330
1E
100
AcDbEntity
  8
0
100
AcDbCircle
 10
19.8233743085683
 20
2.961326943310989
 30
0.0
 40
0.1932853545235975
100
AcDbArc
 50
169.3955218742212
 51
190.6044781257787
  0
ARC
  5
57D
330
1E
100
AcDbEntity
  8
0
100
AcDbCircle
 10
19.8233743085683
 20
2.961326943310989
 30
0.0
 40
0.1932853545235975
100
AcDbArc
 50
109.3955218742227
 51
130.604478125777
  0
ARC
  5
57E
330
1E
100
AcDbEntity
  8
0
100
AcDbCircle
 10
19.8233743085683
 20
2.961326943310989
 30
0.0
 40
0.1932853545235975
100
AcDbArc
 50
49.39552187422187
 51
70.60447812577788
  0
CIRCLE
  5
580
330
1E
100
AcDbEntity
  8
0
100
AcDbCircle
 10
19.8233743085683
 20
4.743236031901101
 30
0.0
 40
0.1867872331998521
  0
CIRCLE
  5
581
330
1E
100
AcDbEntity
  8
OBJ
100
AcDbCircle
 10
19.8233743085683
 20
4.743236031901101
 30
0.0
 40
0.16065
  0
ARC
  5
582
330
1E
100
AcDbEntity
  8
0
100
AcDbCircle
 10
19.8233743085683
 20
4.743236031901101
 30
0.0
 40
0.1932853545235975
100
AcDbArc
 50
79.39552187422069
 51
100.6044781257793
  0
LINE
  5
583
330
1E
100
AcDbEntity
  8
OBJ
100
AcDbLine
 10
19.71627430856831
 20
4.7789360319011
 30
0.0
 11
19.7876743085683
 21
4.7789360319011
 31
0.0
  0
LINE
  5
584
330
1E
100
AcDbEntity
  8
OBJ
100
AcDbLine
 10
19.71627430856831
 20
4.707536031901103
 30
0.0
 11
19.7876743085683
 21
4.707536031901103
 31
0.0
  0
LINE
  5
585
330
1E
100
AcDbEntity
  8
OBJ
100
AcDbLine
 10
19.71627430856831
 20
4.707536031901103
 30
0.0
 11
19.71627430856831
 21
4.7789360319011
 31
0.0
  0
LINE
  5
586
330
1E
100
AcDbEntity
  8
OBJ
100
AcDbLine
 10
19.7876743085683
 20
4.7789360319011
 30
0.0
 11
19.7876743085683
 21
4.850336031901104
 31
0.0
  0
LINE
  5
587
330
1E
100
AcDbEntity
  8
OBJ
100
AcDbLine
 10
19.8590743085683
 20
4.7789360319011
 30
0.0
 11
19.8590743085683
 21
4.850336031901104
 31
0.0
  0
LINE
  5
588
330
1E
100
AcDbEntity
  8
0
100
AcDbLine
 10
19.7876743085683
 20
4.707536031901103
 30
0.0
 11
19.8590743085683
 21
4.7789360319011
 31
0.0
  0
LINE
  5
589
330
1E
100
AcDbEntity
  8
0
100
AcDbLine
 10
19.7876743085683
 20
4.7789360319011
 30
0.0
 11
19.8590743085683
 21
4.707536031901103
 31
0.0
  0
LINE
  5
58A
330
1E
100
AcDbEntity
  8
OBJ
100
AcDbLine
 10
19.8590743085683
 20
4.7789360319011
 30
0.0
 11
19.93047430856831
 21
4.7789360319011
 31
0.0
  0
LINE
  5
58B
330
1E
100
AcDbEntity
  8
OBJ
100
AcDbLine
 10
19.93047430856831
 20
4.7789360319011
 30
0.0
 11
19.93047430856831
 21
4.707536031901103
 31
0.0
  0
LINE
  5
58C
330
1E
100
AcDbEntity
  8
OBJ
100
AcDbLine
 10
19.8590743085683
 20
4.707536031901103
 30
0.0
 11
19.93047430856831
 21
4.707536031901103
 31
0.0
  0
LINE
  5
58D
330
1E
100
AcDbEntity
  8
OBJ
100
AcDbLine
 10
19.8590743085683
 20
4.636136031901106
 30
0.0
 11
19.8590743085683
 21
4.707536031901103
 31
0.0
  0
LINE
  5
58E
330
1E
100
AcDbEntity
  8
OBJ
100
AcDbLine
 10
19.8590743085683
 20
4.636136031901106
 30
0.0
 11
19.7876743085683
 21
4.636136031901106
 31
0.0
  0
LINE
  5
58F
330
1E
100
AcDbEntity
  8
OBJ
100
AcDbLine
 10
19.7876743085683
 20
4.636136031901106
 30
0.0
 11
19.7876743085683
 21
4.707536031901103
 31
0.0
  0
LINE
  5
590
330
1E
100
AcDbEntity
  8
OBJ
100
AcDbLine
 10
19.7876743085683
 20
4.850336031901104
 30
0.0
 11
19.8590743085683
 21
4.850336031901104
 31
0.0
  0
ARC
  5
591
330
1E
100
AcDbEntity
  8
0
100
AcDbCircle
 10
19.8233743085683
 20
4.743236031901101
 30
0.0
 40
0.1932853545235975
100
AcDbArc
 50
19.39552187422286
 51
40.6044781257767
  0
ARC
  5
592
330
1E
100
AcDbEntity
  8
0
100
AcDbCircle
 10
19.8233743085683
 20
4.743236031901101
 30
0.0
 40
0.1932853545235975
100
AcDbArc
 50
319.3955218742211
 51
340.6044781257783
  0
ARC
  5
593
330
1E
100
AcDbEntity
  8
0
100
AcDbCircle
 10
19.8233743085683
 20
4.743236031901101
 30
0.0
 40
0.1932853545235975
100
AcDbArc
 50
259.3955218742213
 51
280.6044781257786
  0
ARC
  5
594
330
1E
100
AcDbEntity
  8
0
100
AcDbCircle
 10
19.8233743085683
 20
4.743236031901101
 30
0.0
 40
0.1932853545235975
100
AcDbArc
 50
199.3955218742229
 51
220.6044781257769
  0
ARC
  5
595
330
1E
100
AcDbEntity
  8
0
100
AcDbCircle
 10
19.8233743085683
 20
4.743236031901101
 30
0.0
 40
0.1932853545235975
100
AcDbArc
 50
139.3955218742217
 51
160.6044781257778
  0
LINE
  5
596
330
1E
100
AcDbEntity
  8
0
100
AcDbLine
 10
19.8233743085683
 20
2.741952053028786
 30
0.0
 11
20.01335853650512
 21
2.851639498169884
 31
0.0
  0
LINE
  5
597
330
1E
100
AcDbEntity
  8
0
100
AcDbLine
 10
20.01335853650512
 20
2.851639498169884
 30
0.0
 11
20.01335853650512
 21
3.071014388452088
 31
0.0
  0
LINE
  5
598
330
1E
100
AcDbEntity
  8
0
100
AcDbLine
 10
20.01335853650512
 20
3.071014388452088
 30
0.0
 11
19.8233743085683
 21
3.18070183359319
 31
0.0
  0
LINE
  5
599
330
1E
100
AcDbEntity
  8
0
100
AcDbLine
 10
19.8233743085683
 20
3.18070183359319
 30
0.0
 11
19.6333900806315
 21
3.071014388452088
 31
0.0
  0
LINE
  5
59A
330
1E
100
AcDbEntity
  8
0
100
AcDbLine
 10
19.6333900806315
 20
3.071014388452088
 30
0.0
 11
19.6333900806315
 21
2.851639498169888
 31
0.0
  0
LINE
  5
59B
330
1E
100
AcDbEntity
  8
0
100
AcDbLine
 10
19.6333900806315
 20
2.851639498169888
 30
0.0
 11
19.8233743085683
 21
2.741952053028786
 31
0.0
  0
LINE
  5
59C
330
1E
100
AcDbEntity
  8
0
100
AcDbLine
 10
20.04274919885051
 20
4.743236031901101
 30
0.0
 11
19.93306175370941
 21
4.933220259837913
 31
0.0
  0
LINE
  5
59D
330
1E
100
AcDbEntity
  8
0
100
AcDbLine
 10
19.93306175370941
 20
4.933220259837913
 30
0.0
 11
19.71368686342721
 21
4.933220259837913
 31
0.0
  0
LINE
  5
59E
330
1E
100
AcDbEntity
  8
0
100
AcDbLine
 10
19.71368686342721
 20
4.933220259837913
 30
0.0
 11
19.6039994182861
 21
4.743236031901101
 31
0.0
  0
LINE
  5
59F
330
1E
100
AcDbEntity
  8
0
100
AcDbLine
 10
19.6039994182861
 20
4.743236031901101
 30
0.0
 11
19.71368686342721
 21
4.553251803964293
 31
0.0
  0
LINE
  5
5A0
330
1E
100
AcDbEntity
  8
0
100
AcDbLine
 10
19.71368686342721
 20
4.553251803964293
 30
0.0
 11
19.93306175370941
 21
4.553251803964293
 31
0.0
  0
LINE
  5
5A1
330
1E
100
AcDbEntity
  8
0
100
AcDbLine
 10
19.93306175370941
 20
4.553251803964293
 30
0.0
 11
20.04274919885051
 21
4.743236031901101
 31
0.0
  0
ENDSEC
  0
SECTION
  2
OBJECTS
  0
DICTIONARY
  5
C
330
0
100
AcDbDictionary
281
     1
  3
ACAD_GROUP
350
D
  3
ACAD_LAYOUT
350
19
  3
ACAD_MLINESTYLE
350
16
  3
ACAD_PLOTSETTINGS
350
18
  3
ACAD_PLOTSTYLENAME
350
E
  3
AcDbVariableDictionary
350
5BF
  3
AcmDictionary
350
5CE
  3
ACME_BOM_MANAGER_NAME
350
5C5
  3
ACME_COMMAND_HISTORY
350
5BE
  3
ACME_SCOPE_NAME
350
5BD
  3
ACMESTATEMGR
350
5CA
  3
AcmeSysVarManager
350
5C1
  3
AMG
350
5A8
  3
AMGSNAPSETTINGS
350
5D3
  3
DWGPROPS
350
5D1
  0
DICTIONARY
  5
5D9
330
1E
100
AcDbDictionary
280
     1
281
     1
  3
ACAD_INDEX
360
5DA
  0
DICTIONARY
  5
D
102
{ACAD_REACTORS
330
C
102
}
330
C
100
AcDbDictionary
281
     1
  0
DICTIONARY
  5
19
102
{ACAD_REACTORS
330
C
102
}
330
C
100
AcDbDictionary
281
     1
  3
Layout1
350
1D
  3
Model
350
21
  0
DICTIONARY
  5
16
102
{ACAD_REACTORS
330
C
102
}
330
C
100
AcDbDictionary
281
     1
  3
Standard
350
17
  0
DICTIONARY
  5
18
102
{ACAD_REACTORS
330
C
102
}
330
C
100
AcDbDictionary
281
     1
  0
ACDBDICTIONARYWDFLT
  5
E
102
{ACAD_REACTORS
330
C
102
}
330
C
100
AcDbDictionary
281
     1
  3
Normal
350
F
100
AcDbDictionaryWithDefault
340
F
  0
DICTIONARY
  5
5BF
102
{ACAD_REACTORS
330
C
102
}
330
C
100
AcDbDictionary
281
     1
  3
INDEXCTL
350
5C0
  0
DICTIONARY
  5
5CE
102
{ACAD_REACTORS
330
C
102
}
330
C
100
AcDbDictionary
281
     1
  3
AcmBOMDATA
350
5CF
  0
ACAD_PROXY_OBJECT
  5
5C5
102
{ACAD_REACTORS
330
C
102
}
330
C
100
AcDbProxyObject
 90
      499
 91
      512
 95
   393239
 70
     0
 93
       52
310
00000040400063
330
0
330
0
330
5C6
 94
        0
  0
ACAD_PROXY_OBJECT
  5
5BE
102
{ACAD_REACTORS
330
C
102
}
330
C
100
AcDbProxyObject
 90
      499
 91
      507
 95
   393239
 70
     0
 93
      832
310
42C0504554E444F80504554E444F80504554E444F80504554E444F80504554E444F805045A4F4F4D805045A4F4F4D8050444495354805044449535480506494E5345525440405184D5347202D20436F6D6D616E642043414E43454C4C45442E014194D055915054E00
 94
        0
  0
ACAD_PROXY_OBJECT
  5
5BD
102
{ACAD_REACTORS
330
C
102
}
330
C
100
AcDbProxyObject
 90
      499
 91
      506
 95
   393239
 70
     0
 93
      194
310
04000043C000000000000000000010442200000000AAAAAAA8
360
5C2
360
5C3
360
5C4
360
5C6
 94
        0
  0
ACAD_PROXY_OBJECT
  5
5CA
102
{ACAD_REACTORS
330
C
102
}
330
C
100
AcDbProxyObject
 90
      499
 91
      517
 95
   393239
 70
     0
 93
       50
310
04000040E41293
 94
        0
  0
ACAD_PROXY_OBJECT
  5
5C1
102
{ACAD_REACTORS
330
C
102
}
330
C
100
AcDbProxyObject
 90
      499
 91
      509
 95
   393239
 70
     0
 93
       48
310
90342200000005
330
5C2
330
5C3
330
5C4
 94
        0
  0
DICTIONARY
  5
5A8
102
{ACAD_REACTORS
330
C
102
}
330
C
100
AcDbDictionary
281
     1
  3
AcMgSettings
350
5A9
  3
AMGLAYCFG
350
5AB
  0
DICTIONARY
  5
5D3
102
{ACAD_REACTORS
330
C
102
}
330
C
100
AcDbDictionary
281
     1
  3
DIMENSION
350
5D8
  3
FEA
350
5D7
  3
HATCH (1)
350
5D4
  3
HATCH (2)
350
5D5
  3
SYMBOLS
350
5D6
  0
XRECORD
  5
5D1
102
{ACAD_REACTORS
330
C
102
}
330
C
100
AcDbXrecord
280
     1
  1
DWGPROPS COOKIE
  2

  3

  4

  6

  7

  8

  9

300
AmdtFileType=82
301
=
302
=
303
=
304
=
305
=
306
=
307
=
308
=
309
=
 40
0.037441875
 41
2451400.479835995
 42
2452668.646336331
  1

 90
        1
  0
DICTIONARY
  5
5DA
102
{ACAD_REACTORS
330
5D9
102
}
330
5D9
100
AcDbDictionary
281
     1
  3
*A1
350
5DB
  0
LAYOUT
  5
1D
102
{ACAD_REACTORS
330
19
102
}
330
19
100
AcDbPlotSettings
  1

  2
HP LaserJet 6P
  4

  6

 40
0.0
 41
0.0
 42
0.0
 43
0.0
 44
0.0
 45
0.0
 46
0.0
 47
0.0
 48
0.0
 49
0.0
140
0.0
141
0.0
142
1.0
143
1.0
 70
   688
 72
     0
 73
     0
 74
     5
  7

 75
    16
147
1.0
148
0.0
149
0.0
100
AcDbLayout
  1
Layout1
 70
     1
 71
     1
 10
0.0
 20
0.0
 11
12.0
 21
9.0
 12
0.0
 22
0.0
 32
1.076194117306884E+26
 14
1.000000000000000E+20
 24
1.000000000000000E+20
 34
1.000000000000000E+20
 15
-1.000000000000000E+20
 25
-1.000000000000000E+20
 35
-1.000000000000000E+20
146
0.0
 13
0.0
 23
0.0
 33
0.0
 16
1.0
 26
0.0
 36
0.0
 17
0.0
 27
1.0
 37
0.0
 76
     0
330
1A
  0
LAYOUT
  5
21
102
{ACAD_REACTORS
330
19
102
}
330
19
100
AcDbPlotSettings
  1

  2
HP LaserJet 6P
  4

  6

 40
0.0
 41
0.0
 42
0.0
 43
0.0
 44
0.0
 45
0.0
 46
0.0
 47
0.0
 48
0.0
 49
0.0
140
0.0
141
0.0
142
1.0
143
1.0
 70
  1712
 72
     0
 73
     0
 74
     0
  7

 75
     0
147
1.0
148
0.0
149
0.0
100
AcDbLayout
  1
Model
 70
     1
 71
     0
 10
0.0
 20
0.0
 11
12.0
 21
9.0
 12
0.0
 22
0.0
 32
0.0
 14
0.0
 24
0.0
 34
0.0
 15
0.0
 25
0.0
 35
0.0
146
0.0
 13
0.0
 23
0.0
 33
0.0
 16
1.0
 26
0.0
 36
0.0
 17
0.0
 27
1.0
 37
0.0
 76
     0
330
1E
  0
MLINESTYLE
  5
17
102
{ACAD_REACTORS
330
16
102
}
330
16
100
AcDbMlineStyle
  2
STANDARD
 70
     0
  3

 62
   256
 51
90.0
 52
90.0
 71
     2
 49
0.5
 62
   256
  6
BYLAYER
 49
-0.5
 62
   256
  6
BYLAYER
  0
ACDBPLACEHOLDER
  5
F
102
{ACAD_REACTORS
330
E
102
}
330
E
  0
DICTIONARYVAR
  5
5C0
102
{ACAD_REACTORS
330
5BF
102
}
330
5BF
100
DictionaryVariables
280
     0
  1
1
  0
ACAD_PROXY_OBJECT
  5
5CF
102
{ACAD_REACTORS
330
5CE
102
}
330
5CE
100
AcDbProxyObject
 90
      499
 91
      520
 95
   393239
 70
     0
 93
      118
310
405010040CA904C415CD5B074D5028
350
5D0
 94
        0
  0
ACAD_PROXY_OBJECT
  5
5C2
330
0
100
AcDbProxyObject
 90
      499
 91
      510
 95
   393239
 70
     0
 93
      156
310
00010143D050D351505391D5531054925390D494
330
5BD
 94
        0
  0
ACAD_PROXY_OBJECT
  5
5C3
330
0
100
AcDbProxyObject
 90
      499
 91
      510
 95
   393239
 70
     0
 93
      148
310
000101439050D351531253915054925390D494
330
5BD
 94
        0
  0
ACAD_PROXY_OBJECT
  5
5C4
330
0
100
AcDbProxyObject
 90
      499
 91
      511
 95
   393239
 70
     0
 93
      156
310
000101439050D35154D6535093D314D256915084
330
5BD
 94
        0
  0
ACAD_PROXY_OBJECT
  5
5C6
330
0
100
AcDbProxyObject
 90
      499
 91
      513
 95
   393239
 70
     0
 93
       88
310
000101411093D34C402B0000
330
5BD
330
0
330
0
 94
        0
  0
DICTIONARY
  5
5A9
102
{ACAD_REACTORS
330
5A8
102
}
330
5A8
100
AcDbDictionary
281
     1
  3
DWGSETTINGS
350
5AA
  3
TRANSSETTINGS
350
5B9
  0
ACAD_PROXY_OBJECT
  5
5AB
102
{ACAD_REACTORS
330
5A8
102
}
330
5A8
100
AcDbProxyObject
 90
      499
 91
      505
 95
   393239
 70
     0
 93
    16352
310
40903491013041105357CC10747A404C504414D5F314391E9013241105357CC90547A404CD04414D5F334190F9013441105357CD10343E404D504414D5F3540D0F9013641105357CD90247A404DD04414D5F374110F9013841105357CE10143E404E504414D5F397F641102324141505357CC4C10747A408D10505414D5F31
310
3140D0F902495041505357CC4C90747902408C13905414D5F304E41D1E902314E41505357CC5390E47A408C93905414D5F324E4151E902334E41505357CCD390643E408D13905414D5F344E40D0F902354E41505357CD5390343E408D93905414D5F364E4091E902374E41505357CDD390443E408E13905414D5F384E4050F
310
902394E41505357CE539FD90440CC9053906414D5F31304E41D1E90334414E41905357CC4C5390343E40D25413906414D5F31324E41D1E409044B4C494E41505357D0D310143D094112539193D08414D5F50415245464110F42D055241484D3541905357D093D4907479094115925155D08414D5F56494557534050F42D064
310
24548494E4441905357D253959FD90D415514905253105414D5F545240D0F4250348494441905357D2125110743D0940D59254D06414D5F56495341D1E4250650415244494D42505357D4105491125350343D0941949151911253509414D5F52454644494D4110F4257641105315149013441D1E411091531250134CFFFFFF
310
FF411092139590139CFFFFFFFF415092139594D06424548494E44CFFFFFFFF41109312511023441CFFFFFFFF411093D0541023441CFFFFFFFF411093D48C9055241484D354050F411093D48CD055241484D354091E411093D48D5055241484D35CFFFFFFFF411093D48DD055241484D354793C41109410541023441CFFFFFF
310
FF41109411561023441CFFFFFFFF411095111250135CFFFFFFFF4110D0530C90134CFFFFFFFF4110D0530CD01344091E4110D0530D5013441D1E4110D0530DD01344793C4110D1539390137CFFFFFFFF4110D15395D0137CFFFFFFFF4110D312539044B4C494ECFFFFFFFF4110D3D38C50130CFFFFFFFF4110D3D38C90131C
310
FFFFFFFF4110D3D38CD0132CFFFFFFFF4110D3D38D10132CFFFFFFFF411111549410134CFFFFFFFF411111551050134CFFFFFFFF4111125051D0135CFFFFFFFF411112531250135CFFFFFFFF411112535410650415244494DCFFFFFFFF411112535490652454644494DCFFFFFFFF41115613541023441CFFFFFFFF41119153
310
5390138CFFFFFFFF4151915354139013840CFFFFFFFF4151915354D41023441CFFFFFFFF4151915354D5102344140D0F41519153559390132CFFFFFFFF4151915355951013240D0F411193105510130CFFFFFFFF41119490549023441CFFFFFFFF4111D4931250135CFFFFFFFF4111D593125023441CFFFFFFFF4112105510
310
D0138CFFFFFFFF411212511390133CFFFFFFFF4112125115D0133CFFFFFFFF411213125390134CFFFFFFFF411213D0D390137CFFFFFFFF411213D0D5D0137CFFFFFFFF4112539193D04494E464FCFFFFFFFF411310511250134CFFFFFFFF411311505110135CFFFFFFFF419397D0921395902394ECFFFFFFFF419397D0D3D3
310
8C502304ECFFFFFFFF419397D0D3D38C902314ECFFFFFFFF419397D0D3D38CD02324ECFFFFFFFF419397D0D3D38D102324ECFFFFFFFF419397D0D15393902374ECFFFFFFFF419397D0D15395D02374ECFFFFFFFF419397D1125312502354ECFFFFFFFF419397D2105510D02384ECFFFFFFFF419397D2125113902334ECFFFF
310
FFFF419397D2125115D02334ECFFFFFFFF419397D3115051102354ECFFFFFFFF419397D391D25410349504ECFFFFFFFF419397D412105390334414ECFFFFFFFF419397D510D3D3902304ECFFFFFFFF419397D5121312502344ECFFFFFFFF419397D5131153902304ECFFFFFFFF419397D516150CD02364ECFFFFFFFF419397
310
D594131250332414ECFFFFFFFF411391D2541024950CFFFFFFFF411410530C9055241484D354050F411410530CD055241484D354091E411410530D5055241484D35CFFFFFFFF411410530DD055241484D354793C41141210539023441CFFFFFFFF411413D4D39013641D1E419413D4D49151901364151E411413D4D610136C
310
FFFFFFFF411414D150D023441CFFFFFFFF411490D1D390137CFFFFFFFF411490D1D5D0137CFFFFFFFF411491911250134CFFFFFFFF41149455149013441D1E411494D093D0130CFFFFFFFF4114D09492D013441D1E4114D0D15390137CFFFFFFFF4114D150D510134CFFFFFFFF4114D1531390137CFFFFFFFF4114D15315D0
310
137CFFFFFFFF4114D4D654D0130CFFFFFFFF4114D513125013441D1E4114D6508C50135CFFFFFFFF4114D6508C90135CFFFFFFFF4114D6508CD01354091E4114D6508D5013541D1E4114D6535390137CFFFFFFFF4114D65355D0137CFFFFFFFF411510D3D390130CFFFFFFFF411512131250134CFFFFFFFF411512550C9055
310
241484D354050F411512550CD055241484D354091E411512550D5055241484D35CFFFFFFFF411512550DD055241484D354793C411513115390130CFFFFFFFF415514905253105545241494CCFFFFFFFF41151492D390137CFFFFFFFF41151492D5D0137CFFFFFFFF411514931250134CFFFFFFFF411516150C5013640D0F41
310
1516150C9013640D0F411516150CD0136CFFFFFFFF411516150D5013641D1E411516150DD01364793C4115925155D0456494557CFFFFFFFF4115915112103484944CFFFFFFFF4115915115903564953CFFFFFFFF41159413125023241CFFFFFFFF411692569050134CFFFFFFFFAA7F5013F90A4391E41D1E4190F4151E4110
310
F40D0F4091E4050F4793C7F600
340
15
340
15
340
15
340
5B5
340
15
340
15
340
15
340
5B6
340
15
340
15
340
5B6
340
5B7
340
15
340
15
340
15
340
15
340
5B5
340
15
340
15
340
15
340
5B6
340
15
340
15
340
5B6
340
5B7
340
15
340
5AF
340
15
340
15
340
15
340
15
340
15
340
5B5
340
15
340
15
340
15
340
25
340
14
340
14
340
14
340
14
340
14
340
14
340
14
340
14
340
14
340
14
340
14
340
14
340
14
340
14
340
14
340
14
340
24
340
14
340
14
340
14
340
14
340
14
340
14
340
5B7
340
14
340
14
340
14
340
14
340
14
340
14
340
14
340
14
340
15
340
14
340
14
340
14
340
14
340
14
340
14
340
14
340
14
340
25
340
14
340
14
340
24
340
14
340
14
340
14
340
14
340
14
340
14
340
14
340
14
340
14
340
24
340
14
340
14
340
14
340
25
340
14
340
14
340
14
340
14
340
14
340
25
340
14
340
14
340
5B7
340
14
340
14
340
14
340
14
340
14
340
14
340
14
340
14
340
14
340
14
340
24
340
14
340
14
340
24
340
14
340
14
340
15
340
14
340
24
340
14
340
14
340
25
340
14
340
14
340
15
340
14
340
24
340
14
340
14
340
25
340
14
340
14
340
14
340
14
340
14
340
14
340
24
340
14
340
14
340
14
340
14
340
14
340
14
340
14
340
14
340
14
340
14
340
5B7
340
5B8
 94
        0
  0
ACAD_PROXY_OBJECT
  5
5D8
102
{ACAD_REACTORS
330
5D3
102
}
330
5D3
100
AcDbProxyObject
 90
      499
 91
      522
 95
   393239
 70
     0
 93
      253
310
43D1444494D454E53494F4E2C414D44545F2A5F44494D404A9012A404A9012AC
 94
        0
  0
ACAD_PROXY_OBJECT
  5
5D7
102
{ACAD_REACTORS
330
5D3
102
}
330
5D3
100
AcDbProxyObject
 90
      499
 91
      522
 95
   393239
 70
     0
 93
      181
310
43D012A42D05357D191504B505357CA9012A404A9012AC
 94
        0
  0
ACAD_PROXY_OBJECT
  5
5D4
102
{ACAD_REACTORS
330
5D3
102
}
330
5D3
100
AcDbProxyObject
 90
      499
 91
      522
 95
   393239
 70
     0
 93
      133
310
43D054841544348404A9012A404A9012A8
 94
        0
  0
ACAD_PROXY_OBJECT
  5
5D5
102
{ACAD_REACTORS
330
5D3
102
}
330
5D3
100
AcDbProxyObject
 90
      499
 91
      522
 95
   393239
 70
     0
 93
      549
310
43D044C494E4549CE0B0E138B0A8B4E0B0A8B4E138B105357CE0B105357CE138B0A8B505357CE0B0A8B505357CE139012A404A910494E534552542C5354445041525432448
 94
        0
  0
ACAD_PROXY_OBJECT
  5
5D6
102
{ACAD_REACTORS
330
5D3
102
}
330
5D3
100
AcDbProxyObject
 90
      499
 91
      522
 95
   393239
 70
     0
 93
      909
310
43D6641434D46434652414D452C41434D444154554D5441524745542C41434D444154554D49442C41434D57454C4453594D2C41434D5355524653594D2C41434D4645415449442C41434D504152545245462C41434D42414C4C4F4F4E2C414D44544544474553594D404A9012A404A9012AC
 94
        0
  0
LAYER_INDEX
  5
5DB
102
{ACAD_REACTORS
330
5DA
102
}
330
5DA
100
AcDbIndex
 40
2454410.422008403
100
AcDbLayerIndex
  8
0
360
5DC
 90
      494
  8
OBJ
360
5DD
 90
      577
  8
DEFPOINTS
360
5DE
 90
       65
  0
ACAD_PROXY_OBJECT
  5
5D0
102
{ACAD_REACTORS
330
5CF
102
}
330
5CF
100
AcDbProxyObject
 90
      499
 91
      521
 95
   393239
 70
     0
 93
      139
310
057356C1D35406406AA8FFFFFFFF09AA4051
330
1E
330
0
330
0
 94
        0
  0
ACAD_PROXY_OBJECT
  5
5AA
102
{ACAD_REACTORS
330
5A9
102
}
330
5A9
100
AcDbProxyObject
 90
      499
 91
      504
 95
   393239
 70
     0
 93
     2619
310
4050B44574753455454494E4753A0E8482A68AA6A88882A08829CA69284A1A0A723A0A92920ACA0A8419983E1A1ABE1B1820C868A9C829C8E82A12686AF87260F862666A8321A2A72224A0A50000000000000701FA0E868A9C889282A682A16605C6AF8625C60F8625C6A83A1A2A72224A9AA250000000000000601FA0C868
310
A9C988A9C940000000000001C07E8321A2A727A323250000000000000701FA128698929C82A4A482B282A1C605C62646AF8605C646AF8605C6A8421A624A722AA2CA820A82AC2624A722A1288AE8EAAA68682988A94283A620A9AA27A12520A80982109A82968AAC928AAE9FA04832922AB24A9A4A0A809820AA68682988A8
310
2A066474628429AA20A72220A92220A8220A729A4A12A8929A8AA6A8829AA0940DCE78B227A34E68283AB22A929A4A7A720A82989A971818220F688AE8EA68AA8A8929C8EA68A9C88FA0
 94
        0
  0
ACAD_PROXY_OBJECT
  5
5B9
102
{ACAD_REACTORS
330
5A9
102
}
330
5A9
100
AcDbProxyObject
 90
      499
 91
      504
 95
   393239
 70
     0
 93
      852
310
4050D5452414E5353455454494E4753A2488A482AE929C8EA8A4829CA69882A8929E9C0C00800050D4F524947494E414C4C595F4F4E0600400008529A7AAA921A2A620A723A0A81A2A72AA12AAA0A48AA68AA4AC8A0C0080001107B44574753455454494E4753454E447D0
 94
        0
  0
IDBUFFER
  5
5DC
330
0
100
AcDbIdBuffer
330
53
330
54
330
5D
330
61
330
64
330
66
330
68
330
75
330
76
330
77
330
78
330
83
330
84
330
86
330
87
330
88
330
8F
330
90
330
91
330
92
330
9D
330
9E
330
9F
330
A3
330
A4
330
A5
330
A9
330
AA
330
AB
330
AC
330
AD
330
AE
330
AF
330
B0
330
BB
330
C2
330
C3
330
C4
330
C6
330
D0
330
D1
330
D2
330
D3
330
D4
330
D5
330
D6
330
D7
330
D8
330
D9
330
DA
330
DB
330
DC
330
E1
330
E2
330
E6
330
E7
330
E9
330
EA
330
EB
330
EC
330
ED
330
F4
330
F5
330
FA
330
FB
330
10B
330
115
330
116
330
117
330
11E
330
11F
330
120
330
122
330
123
330
124
330
125
330
126
330
127
330
128
330
129
330
12A
330
12D
330
12F
330
130
330
142
330
143
330
144
330
145
330
146
330
147
330
14A
330
14B
330
14C
330
14D
330
14E
330
14F
330
151
330
152
330
153
330
154
330
157
330
158
330
159
330
15A
330
172
330
175
330
177
330
180
330
189
330
18A
330
18B
330
18C
330
18D
330
19E
330
19F
330
1A0
330
1A1
330
1A2
330
1A4
330
1A5
330
1A6
330
1A7
330
1A8
330
1AF
330
1B0
330
1B1
330
1B2
330
1B3
330
1B4
330
1B7
330
1B8
330
1B9
330
1BA
330
1CE
330
1CF
330
1D0
330
1D1
330
1D2
330
1D3
330
1DA
330
1DB
330
1DC
330
1DF
330
1E0
330
1E6
330
1E7
330
1E8
330
1EA
330
1EB
330
1FE
330
1FF
330
200
330
201
330
202
330
203
330
204
330
205
330
206
330
209
330
20F
330
213
330
21A
330
21E
330
21F
330
220
330
227
330
228
330
234
330
239
330
254
330
255
330
256
330
257
330
258
330
259
330
25A
330
25D
330
25E
330
25F
330
260
330
261
330
262
330
263
330
26A
330
26C
330
270
330
271
330
274
330
275
330
276
330
277
330
278
330
279
330
27A
330
27F
330
280
330
282
330
283
330
284
330
285
330
286
330
287
330
288
330
28D
330
2A6
330
2A7
330
2A8
330
2BC
330
2BE
330
2BF
330
2C0
330
2C1
330
2C4
330
2C5
330
2C6
330
2C7
330
2C8
330
2C9
330
2CA
330
2CB
330
2CC
330
2CD
330
2D0
330
2D1
330
2D2
330
2D3
330
2D4
330
2D5
330
2DE
330
2DF
330
2E0
330
2E7
330
2E8
330
2E9
330
2EA
330
2EC
330
2ED
330
2EE
330
2EF
330
2F0
330
2F1
330
2F2
330
2F3
330
2F8
330
2F9
330
2FA
330
2FB
330
2FC
330
2FD
330
2FE
330
300
330
301
330
30A
330
30E
330
30F
330
310
330
311
330
312
330
313
330
314
330
315
330
318
330
31E
330
31F
330
320
330
321
330
322
330
323
330
324
330
325
330
326
330
328
330
329
330
32A
330
32B
330
32C
330
332
330
33A
330
33B
330
33C
330
33D
330
33E
330
33F
330
340
330
341
330
342
330
343
330
344
330
34D
330
34F
330
350
330
351
330
352
330
353
330
356
330
358
330
35C
330
35D
330
364
330
365
330
369
330
36D
330
36E
330
372
330
373
330
374
330
376
330
37D
330
37E
330
37F
330
389
330
38A
330
38B
330
38C
330
391
330
393
330
394
330
395
330
396
330
398
330
39A
330
39B
330
39C
330
39D
330
39E
330
39F
330
3A0
330
3A1
330
3A2
330
3A3
330
3A4
330
3A5
330
3A6
330
3A7
330
3A8
330
3A9
330
3AA
330
3AB
330
3AC
330
3AD
330
3AE
330
3B3
330
3B4
330
3B5
330
3B6
330
3BA
330
3C8
330
3C9
330
3D2
330
3D3
330
3D7
330
3DC
330
3DD
330
3DE
330
3E0
330
3E1
330
3E2
330
3E3
330
3E4
330
3F2
330
3F6
330
3F7
330
3F8
330
3F9
330
3FA
330
3FB
330
3FC
330
3FD
330
3FE
330
3FF
330
400
330
401
330
402
330
408
330
409
330
40B
330
40E
330
40F
330
412
330
413
330
419
330
41C
330
41D
330
41E
330
41F
330
420
330
421
330
432
330
436
330
43D
330
43E
330
43F
330
442
330
443
330
445
330
446
330
447
330
448
330
45C
330
45D
330
45E
330
45F
330
463
330
464
330
466
330
467
330
475
330
476
330
477
330
478
330
479
330
47E
330
47F
330
480
330
489
330
48A
330
48B
330
48F
330
49E
330
4A2
330
4A3
330
4AA
330
4AB
330
4AD
330
4AE
330
4B4
330
4B5
330
4B6
330
4B7
330
4B8
330
4BF
330
4D0
330
4D1
330
4D4
330
4DD
330
4DF
330
4E1
330
4E2
330
4E3
330
54E
330
550
330
551
330
552
330
553
330
554
330
555
330
556
330
557
330
558
330
559
330
55A
330
55B
330
55C
330
55D
330
55E
330
55F
330
560
330
561
330
562
330
563
330
564
330
565
330
566
330
567
330
569
330
56B
330
571
330
572
330
57A
330
57B
330
57C
330
57D
330
57E
330
580
330
582
330
588
330
589
330
591
330
592
330
593
330
594
330
595
330
596
330
597
330
598
330
599
330
59A
330
59B
330
59C
330
59D
330
59E
330
59F
330
5A0
330
5A1
  0
IDBUFFER
  5
5DD
330
0
100
AcDbIdBuffer
330
50
330
52
330
55
330
56
330
58
330
59
330
5A
330
5E
330
5F
330
60
330
62
330
63
330
65
330
67
330
6A
330
6D
330
6E
330
6F
330
71
330
72
330
74
330
79
330
7A
330
85
330
89
330
8A
330
8B
330
8C
330
8D
330
8E
330
93
330
94
330
95
330
96
330
97
330
98
330
99
330
9A
330
9B
330
9C
330
A0
330
A1
330
A2
330
A6
330
A7
330
A8
330
B1
330
B2
330
B3
330
B4
330
B5
330
B6
330
B7
330
B8
330
B9
330
BA
330
BC
330
BD
330
BE
330
BF
330
C0
330
C1
330
C5
330
C7
330
DD
330
DE
330
DF
330
E0
330
E3
330
E4
330
EE
330
EF
330
100
330
101
330
102
330
103
330
104
330
105
330
106
330
107
330
108
330
109
330
10A
330
10C
330
10D
330
10E
330
10F
330
110
330
111
330
112
330
113
330
114
330
118
330
119
330
11A
330
11B
330
11C
330
11D
330
121
330
12B
330
12C
330
12E
330
13D
330
13E
330
13F
330
140
330
141
330
148
330
149
330
155
330
15B
330
15C
330
15D
330
15E
330
15F
330
160
330
161
330
162
330
163
330
164
330
165
330
166
330
168
330
169
330
16A
330
170
330
171
330
173
330
174
330
176
330
183
330
184
330
185
330
186
330
187
330
188
330
18E
330
18F
330
190
330
191
330
192
330
193
330
194
330
195
330
196
330
197
330
198
330
199
330
19A
330
19B
330
19C
330
19D
330
1A3
330
1B5
330
1B6
330
1BB
330
1BC
330
1BD
330
1BE
330
1BF
330
1C0
330
1C4
330
1C5
330
1C6
330
1C7
330
1C8
330
1C9
330
1CA
330
1CB
330
1CC
330
1CD
330
1D4
330
1D5
330
1D6
330
1D7
330
1D8
330
1D9
330
1DD
330
1E1
330
1E2
330
1E3
330
1E5
330
1E9
330
1EC
330
1ED
330
1EE
330
207
330
208
330
20A
330
20B
330
20C
330
20D
330
20E
330
210
330
211
330
212
330
214
330
215
330
216
330
217
330
218
330
219
330
21B
330
21C
330
21D
330
221
330
222
330
223
330
224
330
225
330
226
330
229
330
22C
330
230
330
231
330
235
330
238
330
23C
330
243
330
244
330
245
330
246
330
247
330
248
330
249
330
24A
330
24B
330
24C
330
24D
330
24E
330
24F
330
250
330
251
330
252
330
253
330
25B
330
25C
330
264
330
265
330
266
330
267
330
268
330
269
330
26B
330
26D
330
26E
330
26F
330
272
330
273
330
27B
330
27C
330
27E
330
289
330
28A
330
28B
330
28C
330
28E
330
28F
330
290
330
291
330
292
330
293
330
294
330
295
330
296
330
297
330
299
330
29A
330
29C
330
29D
330
29E
330
29F
330
2A0
330
2A1
330
2A2
330
2A3
330
2A4
330
2A5
330
2A9
330
2AA
330
2AB
330
2AC
330
2AD
330
2AE
330
2AF
330
2B3
330
2B4
330
2B5
330
2B9
330
2BA
330
2BD
330
2C2
330
2C3
330
2CE
330
2CF
330
2D6
330
2D7
330
2D8
330
2D9
330
2DA
330
2DB
330
2DC
330
2DD
330
2E1
330
2E2
330
2E4
330
2E5
330
2E6
330
30B
330
30C
330
30D
330
316
330
317
330
327
330
32D
330
32E
330
32F
330
330
330
331
330
335
330
337
330
338
330
339
330
34E
330
354
330
355
330
357
330
359
330
35A
330
35B
330
35E
330
35F
330
360
330
361
330
362
330
363
330
366
330
367
330
368
330
36A
330
36B
330
36C
330
36F
330
370
330
371
330
375
330
377
330
378
330
379
330
37B
330
37C
330
380
330
381
330
382
330
383
330
384
330
385
330
386
330
387
330
388
330
38D
330
38E
330
38F
330
390
330
3AF
330
3B0
330
3B1
330
3B2
330
3B7
330
3B8
330
3B9
330
3BB
330
3BC
330
3BD
330
3BE
330
3BF
330
3C0
330
3C1
330
3C2
330
3C3
330
3C4
330
3C5
330
3C6
330
3C7
330
3CA
330
3CB
330
3CC
330
3CD
330
3CE
330
3CF
330
3D0
330
3D1
330
3D4
330
3D5
330
3D6
330
3D8
330
3DA
330
3DB
330
3DF
330
3E5
330
3E6
330
3E7
330
3E8
330
3E9
330
3EA
330
3EB
330
3EC
330
3ED
330
3EE
330
3EF
330
3F0
330
3F1
330
3F3
330
3F4
330
3F5
330
403
330
404
330
405
330
406
330
407
330
40C
330
40D
330
410
330
411
330
422
330
423
330
424
330
425
330
426
330
427
330
428
330
429
330
42A
330
42B
330
42C
330
42D
330
42E
330
42F
330
430
330
431
330
434
330
435
330
43C
330
440
330
441
330
444
330
449
330
44A
330
44B
330
44C
330
44D
330
44E
330
44F
330
450
330
451
330
452
330
453
330
454
330
455
330
456
330
457
330
458
330
459
330
45A
330
45B
330
460
330
461
330
462
330
465
330
468
330
469
330
46A
330
46B
330
46C
330
46D
330
46E
330
46F
330
470
330
471
330
472
330
473
330
474
330
481
330
482
330
483
330
484
330
485
330
486
330
487
330
488
330
48C
330
48D
330
48E
330
490
330
491
330
492
330
493
330
494
330
495
330
496
330
497
330
498
330
499
330
49A
330
49B
330
49C
330
49D
330
4A5
330
4A6
330
4A7
330
4A8
330
4A9
330
4AC
330
4AF
330
4B0
330
4B1
330
4B2
330
4B3
330
4B9
330
4BA
330
4BB
330
4BC
330
4BD
330
4BE
330
4C0
330
4C1
330
4C2
330
4C3
330
4C4
330
4C5
330
4C6
330
4C7
330
4C9
330
4CA
330
4CB
330
4CC
330
4CD
330
4CE
330
4CF
330
4D2
330
4D3
330
4D5
330
4D6
330
4D7
330
4D8
330
4D9
330
4DA
330
4DB
330
4DC
330
4DE
330
4E0
330
56A
330
56C
330
56D
330
56E
330
56F
330
570
330
573
330
574
330
575
330
576
330
577
330
578
330
579
330
581
330
583
330
584
330
585
330
586
330
587
330
58A
330
58B
330
58C
330
58D
330
58E
330
58F
330
590
  0
IDBUFFER
  5
5DE
330
0
100
AcDbIdBuffer
330
131
330
156
330
167
330
16B
330
16C
330
16D
330
16E
330
16F
330
181
330
182
330
1DE
330
1E4
330
1F8
330
22A
330
22B
330
22D
330
22E
330
22F
330
232
330
233
330
236
330
237
330
23A
330
23B
330
27D
330
281
330
298
330
29B
330
2B0
330
2B1
330
2B2
330
2B6
330
2B7
330
2B8
330
2BB
330
2E3
330
2EB
330
31B
330
31C
330
333
330
334
330
336
330
3D9
330
416
330
417
330
41A
330
41B
330
439
330
43A
330
4C8
330
4EB
330
4EC
330
4F5
330
4FF
330
500
330
509
330
50A
330
514
330
527
330
530
330
531
330
53A
330
53B
330
544
330
545
  0
ENDSEC
  0
EOF
