  0
SECTION
  2
HEADER
  9
$ACADVER
  1
AC1009
  9
$INSBASE
 10
0.0
 20
0.0
 30
0.0
  9
$EXTMIN
 10
0.756081
 20
-0.004804
 30
0.0
  9
$EXTMAX
 10
194.489449
 20
132.713471
 30
0.0
  9
$LIMMIN
 10
0.0
 20
0.0
  9
$LIMMAX
 10
48.0
 20
36.0
  9
$ORTHOMODE
 70
     1
  9
$REGENMODE
 70
     1
  9
$FILLMODE
 70
     1
  9
$QTEXTMODE
 70
     0
  9
$MIRRTEXT
 70
     1
  9
$DRAGMODE
 70
     2
  9
$LTSCALE
 40
1.0
  9
$OSMODE
 70
     0
  9
$ATTMODE
 70
     1
  9
$TEXTSIZE
 40
0.5
  9
$TRACEWID
 40
0.05
  9
$TEXTSTYLE
  7
ROMAND
  9
$CLAYER
  8
0
  9
$CELTYPE
  6
BYLAYER
  9
$CECOLOR
 62
   256
  9
$DIMSCALE
 40
1.0
  9
$DIMASZ
 40
1.0
  9
$DIMEXO
 40
0.38
  9
$DIMDLI
 40
2.0
  9
$DIMRND
 40
0.0
  9
$DIMDLE
 40
0.0
  9
$DIMEXE
 40
1.0
  9
$DIMTP
 40
0.0
  9
$DIMTM
 40
0.0
  9
$DIMTXT
 40
1.0
  9
$DIMCEN
 40
0.5
  9
$DIMTSZ
 40
0.0
  9
$DIMTOL
 70
     0
  9
$DIMLIM
 70
     0
  9
$DIMTIH
 70
     1
  9
$DIMTOH
 70
     1
  9
$DIMSE1
 70
     0
  9
$DIMSE2
 70
     0
  9
$DIMTAD
 70
     0
  9
$DIMZIN
 70
     0
  9
$DIMBLK
  1

  9
$DIMASO
 70
     1
  9
$DIMSHO
 70
     1
  9
$DIMPOST
  1

  9
$DIMAPOST
  1

  9
$DIMALT
 70
     0
  9
$DIMALTD
 70
     2
  9
$DIMALTF
 40
25.4
  9
$DIMLFAC
 40
1.0
  9
$DIMTOFL
 70
     0
  9
$DIMTVP
 40
0.0
  9
$DIMTIX
 70
     0
  9
$DIMSOXD
 70
     0
  9
$DIMSAH
 70
     0
  9
$DIMBLK1
  1

  9
$DIMBLK2
  1

  9
$DIMSTYLE
  2
*UNNAMED
  9
$DIMCLRD
 70
     0
  9
$DIMCLRE
 70
     0
  9
$DIMCLRT
 70
     0
  9
$DIMTFAC
 40
1.0
  9
$DIMGAP
 40
0.5
  9
$LUNITS
 70
     2
  9
$LUPREC
 70
     3
  9
$SKETCHINC
 40
0.1
  9
$FILLETRAD
 40
0.06
  9
$AUNITS
 70
     0
  9
$AUPREC
 70
     0
  9
$MENU
  1
C:\ACADWIN\SUPPORT\ACAD
  9
$ELEVATION
 40
0.0
  9
$PELEVATION
 40
0.0
  9
$THICKNESS
 40
0.0
  9
$LIMCHECK
 70
     0
  9
$BLIPMODE
 70
     1
  9
$CHAMFERA
 40
0.0
  9
$CHAMFERB
 40
0.0
  9
$SKPOLY
 70
     0
  9
$TDCREATE
 40
2451017.438889004
  9
$TDUPDATE
 40
2451439.337072685
  9
$TDINDWG
 40
0.0016343750
  9
$TDUSRTIMER
 40
0.0016343750
  9
$USRTIMER
 70
     1
  9
$ANGBASE
 50
0.0
  9
$ANGDIR
 70
     0
  9
$PDMODE
 70
     0
  9
$PDSIZE
 40
0.0
  9
$PLINEWID
 40
0.0
  9
$COORDS
 70
     1
  9
$SPLFRAME
 70
     0
  9
$SPLINETYPE
 70
     6
  9
$SPLINESEGS
 70
     8
  9
$ATTDIA
 70
     0
  9
$ATTREQ
 70
     1
  9
$HANDLING
 70
     0
  9
$HANDSEED
  5
0
  9
$SURFTAB1
 70
     6
  9
$SURFTAB2
 70
     6
  9
$SURFTYPE
 70
     6
  9
$SURFU
 70
     6
  9
$SURFV
 70
     6
  9
$UCSNAME
  2

  9
$UCSORG
 10
0.0
 20
0.0
 30
0.0
  9
$UCSXDIR
 10
1.0
 20
0.0
 30
0.0
  9
$UCSYDIR
 10
0.0
 20
1.0
 30
0.0
  9
$PUCSNAME
  2

  9
$PUCSORG
 10
0.0
 20
0.0
 30
0.0
  9
$PUCSXDIR
 10
1.0
 20
0.0
 30
0.0
  9
$PUCSYDIR
 10
0.0
 20
1.0
 30
0.0
  9
$USERI1
 70
     0
  9
$USERI2
 70
     0
  9
$USERI3
 70
     0
  9
$USERI4
 70
     0
  9
$USERI5
 70
     0
  9
$USERR1
 40
0.0
  9
$USERR2
 40
0.0
  9
$USERR3
 40
0.0
  9
$USERR4
 40
0.0
  9
$USERR5
 40
0.0
  9
$WORLDVIEW
 70
     1
  9
$SHADEDGE
 70
     3
  9
$SHADEDIF
 70
    70
  9
$TILEMODE
 70
     1
  9
$MAXACTVP
 70
    16
  9
$PINSBASE
 10
0.0
 20
0.0
 30
0.0
  9
$PLIMCHECK
 70
     0
  9
$PEXTMIN
 10
1.000000E+20
 20
1.000000E+20
 30
1.000000E+20
  9
$PEXTMAX
 10
-1.000000E+20
 20
-1.000000E+20
 30
-1.000000E+20
  9
$PLIMMIN
 10
0.0
 20
0.0
  9
$PLIMMAX
 10
12.0
 20
9.0
  9
$UNITMODE
 70
     0
  9
$VISRETAIN
 70
     0
  9
$PLINEGEN
 70
     0
  9
$PSLTSCALE
 70
     1
  9
$TREEDEPTH
 70
  3020
  9
$DWGCODEPAGE
  3
iso8859-1
  0
ENDSEC
  0
SECTION
  2
TABLES
  0
TABLE
  2
VPORT
 70
     2
  0
VPORT
  2
*ACTIVE
 70
     0
 10
0.0
 20
0.0
 11
1.0
 21
1.0
 12
11.73067
 22
8.656453
 13
0.0
 23
0.0
 14
1.0
 24
1.0
 15
0.0
 25
0.0
 16
0.0
 26
0.0
 36
1.0
 17
0.0
 27
0.0
 37
0.0
 40
18.337303
 41
1.379728
 42
50.0
 43
0.0
 44
0.0
 50
0.0
 51
0.0
 71
     0
 72
   100
 73
     1
 74
     0
 75
     0
 76
     0
 77
     0
 78
     0
  0
ENDTAB
  0
TABLE
  2
LTYPE
 70
     3
  0
LTYPE
  2
CONTINUOUS
 70
    64
  3
Solid line
 72
    65
 73
     0
 40
0.0
  0
LTYPE
  2
CENTER2
 70
    64
  3
CENTER2 _._._._._
 72
    65
 73
     4
 40
0.15
 49
0.1
 49
-0.025
 49
0.0
 49
-0.025
  0
LTYPE
  2
HIDDEN2
 70
    64
  3
_ _ _ _ _ _ _ _ _ _ _ _ _ _ _ _ _ _ _ _ _ _ _ _
 72
    65
 73
     2
 40
0.1875
 49
0.125
 49
-0.0625
  0
ENDTAB
  0
TABLE
  2
LAYER
 70
     3
  0
LAYER
  2
0
 70
    64
 62
     7
  6
CONTINUOUS
  0
LAYER
  2
OBJ
 70
    64
 62
     7
  6
CONTINUOUS
  0
LAYER
  2
DEFPOINTS
 70
    64
 62
     7
  6
CONTINUOUS
  0
ENDTAB
  0
TABLE
  2
STYLE
 70
     2
  0
STYLE
  2
STANDARD
 70
     0
 40
0.0
 41
1.0
 50
0.0
 71
     0
 42
0.2
  3
txt
  4

  0
STYLE
  2
ROMAND
 70
    64
 40
0.5
 41
1.0
 50
0.0
 71
     0
 42
0.5
  3
romand
  4

  0
ENDTAB
  0
TABLE
  2
VIEW
 70
     0
  0
ENDTAB
  0
TABLE
  2
UCS
 70
     0
  0
ENDTAB
  0
TABLE
  2
APPID
 70
     1
  0
APPID
  2
ACAD
 70
    64
  0
ENDTAB
  0
TABLE
  2
DIMSTYLE
 70
     0
  0
ENDTAB
  0
ENDSEC
  0
SECTION
  2
BLOCKS
  0
BLOCK
  8
0
  2
100HST
 70
    64
 10
0.0
 20
0.0
 30
0.0
  3
100HST
  0
CIRCLE
  8
0
 10
0.0
 20
0.0
 30
0.0
 40
8.0
  0
CIRCLE
  8
0
 10
0.0
 20
0.0
 30
0.0
 40
7.0
  0
LINE
  8
0
 10
4.0
 20
-2.3094
 30
0.0
 11
4.0
 21
2.3094
 31
0.0
  0
LINE
  8
0
 10
4.0
 20
2.3094
 30
0.0
 11
0.0
 21
4.6188
 31
0.0
  0
LINE
  8
0
 10
0.0
 20
4.6188
 30
0.0
 11
-4.0
 21
2.3094
 31
0.0
  0
LINE
  8
0
 10
-4.0
 20
2.3094
 30
0.0
 11
-4.0
 21
-2.3094
 31
0.0
  0
LINE
  8
0
 10
-4.0
 20
-2.3094
 30
0.0
 11
0.0
 21
-4.6188
 31
0.0
  0
LINE
  8
0
 10
0.0
 20
-4.6188
 30
0.0
 11
4.0
 21
-2.3094
 31
0.0
  0
ENDBLK
  8
0
  0
BLOCK
  8
0
  2
CVRSCR
 70
    64
 10
0.0
 20
0.0
 30
0.0
  3
CVRSCR
  0
POLYLINE
  8
0
 66
     1
 10
0.0
 20
0.0
 30
0.0
 70
     1
  0
VERTEX
  8
0
 10
-0.219375
 20
0.0
 30
0.0
  0
VERTEX
  8
0
 10
-0.109687
 20
0.189984
 30
0.0
  0
VERTEX
  8
0
 10
0.109687
 20
0.189984
 30
0.0
  0
VERTEX
  8
0
 10
0.219375
 20
0.0
 30
0.0
  0
VERTEX
  8
0
 10
0.109687
 20
-0.189984
 30
0.0
  0
VERTEX
  8
0
 10
-0.109687
 20
-0.189984
 30
0.0
  0
SEQEND
  8
0
  0
CIRCLE
  8
0
 10
0.0
 20
0.0
 30
0.0
 40
0.186787
  0
CIRCLE
  8
OBJ
 10
0.0
 20
0.0
 30
0.0
 40
0.16065
  0
ARC
  8
0
 10
0.0
 20
0.0
 30
0.0
 40
0.193285
 50
79.395522
 51
100.604478
  0
LINE
  8
OBJ
 10
0.1071
 20
0.0357
 30
0.0
 11
0.0357
 21
0.0357
 31
0.0
  0
LINE
  8
OBJ
 10
0.1071
 20
-0.0357
 30
0.0
 11
0.0357
 21
-0.0357
 31
0.0
  0
LINE
  8
OBJ
 10
0.1071
 20
-0.0357
 30
0.0
 11
0.1071
 21
0.0357
 31
0.0
  0
LINE
  8
OBJ
 10
0.0357
 20
0.0357
 30
0.0
 11
0.0357
 21
0.1071
 31
0.0
  0
LINE
  8
OBJ
 10
-0.0357
 20
0.0357
 30
0.0
 11
-0.0357
 21
0.1071
 31
0.0
  0
LINE
  8
0
 10
0.0357
 20
-0.0357
 30
0.0
 11
-0.0357
 21
0.0357
 31
0.0
  0
LINE
  8
0
 10
0.0357
 20
0.0357
 30
0.0
 11
-0.0357
 21
-0.0357
 31
0.0
  0
LINE
  8
OBJ
 10
-0.0357
 20
0.0357
 30
0.0
 11
-0.1071
 21
0.0357
 31
0.0
  0
LINE
  8
OBJ
 10
-0.1071
 20
0.0357
 30
0.0
 11
-0.1071
 21
-0.0357
 31
0.0
  0
LINE
  8
OBJ
 10
-0.0357
 20
-0.0357
 30
0.0
 11
-0.1071
 21
-0.0357
 31
0.0
  0
LINE
  8
OBJ
 10
-0.0357
 20
-0.1071
 30
0.0
 11
-0.0357
 21
-0.0357
 31
0.0
  0
LINE
  8
OBJ
 10
-0.0357
 20
-0.1071
 30
0.0
 11
0.0357
 21
-0.1071
 31
0.0
  0
LINE
  8
OBJ
 10
0.0357
 20
-0.1071
 30
0.0
 11
0.0357
 21
-0.0357
 31
0.0
  0
LINE
  8
OBJ
 10
0.0357
 20
0.1071
 30
0.0
 11
-0.0357
 21
0.1071
 31
0.0
  0
ARC
  8
0
 10
0.0
 20
0.0
 30
0.0
 40
0.193285
 50
139.395522
 51
160.604478
  0
ARC
  8
0
 10
0.0
 20
0.0
 30
0.0
 40
0.193285
 50
199.395522
 51
220.604478
  0
ARC
  8
0
 10
0.0
 20
0.0
 30
0.0
 40
0.193285
 50
259.395522
 51
280.604478
  0
ARC
  8
0
 10
0.0
 20
0.0
 30
0.0
 40
0.193285
 50
319.395522
 51
340.604478
  0
ARC
  8
0
 10
0.0
 20
0.0
 30
0.0
 40
0.193285
 50
19.395522
 51
40.604478
  0
ENDBLK
  8
0
  0
BLOCK
  8
0
  2
RAIL
 70
    64
 10
0.0
 20
0.0
 30
0.0
  3
RAIL
  0
LINE
  8
0
 10
-7.663995
 20
0.69
 30
0.0
 11
-5.517
 21
0.69
 31
0.0
  0
LINE
  8
OBJ
 10
-5.337
 20
0.91
 30
0.0
 11
-7.837
 21
0.91
 31
0.0
  0
LINE
  8
OBJ
 10
-5.337
 20
0.47
 30
0.0
 11
-7.837
 21
0.47
 31
0.0
  0
LINE
  8
OBJ
 10
-7.912
 20
1.2
 30
0.0
 11
0.038
 21
1.2
 31
0.0
  0
LINE
  8
OBJ
 10
0.788
 20
0.0
 30
0.0
 11
-8.662
 21
0.0
 31
0.0
  0
LINE
  8
OBJ
  6
HIDDEN2
 10
0.788
 20
0.12
 30
0.0
 11
-8.662
 21
0.12
 31
0.0
  0
ARC
  8
OBJ
 10
-7.912
 20
0.45
 30
0.0
 40
0.75
 50
90.0
 51
180.0
  0
LINE
  8
OBJ
 10
-8.662
 20
0.0
 30
0.0
 11
-8.662
 21
0.45
 31
0.0
  0
LINE
  8
OBJ
  6
CENTER2
 10
-8.084937
 20
0.0
 30
0.0
 11
-8.084937
 21
0.12
 31
0.0
  0
LINE
  8
OBJ
  6
CENTER2
 10
-7.663062
 20
0.0
 30
0.0
 11
-7.663062
 21
0.12
 31
0.0
  0
LINE
  8
OBJ
  6
CENTER2
 10
-7.874
 20
-0.125
 30
0.0
 11
-7.874
 21
0.245
 31
0.0
  0
LINE
  8
OBJ
  6
CENTER2
 10
-6.398
 20
-0.125
 30
0.0
 11
-6.398
 21
0.245
 31
0.0
  0
LINE
  8
OBJ
  6
CENTER2
 10
-6.608937
 20
0.0
 30
0.0
 11
-6.608937
 21
0.12
 31
0.0
  0
LINE
  8
OBJ
 10
-7.837
 20
0.6
 30
0.0
 11
-7.837
 21
0.78
 31
0.0
  0
LINE
  8
OBJ
 10
-7.837
 20
0.863005
 30
0.0
 11
-7.837
 21
0.993005
 31
0.0
  0
LINE
  8
OBJ
 10
-7.747
 20
0.69
 30
0.0
 11
-7.927
 21
0.69
 31
0.0
  0
LINE
  8
OBJ
 10
-8.017
 20
0.69
 30
0.0
 11
-8.147
 21
0.69
 31
0.0
  0
LINE
  8
OBJ
 10
-7.837
 20
0.51
 30
0.0
 11
-7.837
 21
0.38
 31
0.0
  0
ARC
  8
OBJ
 10
-7.837
 20
0.69
 30
0.0
 40
0.22
 50
90.0
 51
270.0
  0
ARC
  8
OBJ
 10
0.038
 20
0.45
 30
0.0
 40
0.75
 50
0.0
 51
90.0
  0
LINE
  8
OBJ
 10
-2.627
 20
0.69
 30
0.0
 11
-2.447
 21
0.69
 31
0.0
  0
LINE
  8
OBJ
 10
-2.537
 20
0.91
 30
0.0
 11
-0.037
 21
0.91
 31
0.0
  0
LINE
  8
OBJ
 10
-2.537
 20
0.47
 30
0.0
 11
-0.037
 21
0.47
 31
0.0
  0
LINE
  8
OBJ
  6
CENTER2
 10
-6.187062
 20
0.0
 30
0.0
 11
-6.187062
 21
0.12
 31
0.0
  0
LINE
  8
OBJ
  6
CENTER2
 10
-5.624938
 20
0.0
 30
0.0
 11
-5.624938
 21
0.12
 31
0.0
  0
LINE
  8
OBJ
  6
CENTER2
 10
-5.414
 20
-0.125
 30
0.0
 11
-5.414
 21
0.245
 31
0.0
  0
LINE
  8
OBJ
  6
CENTER2
 10
-4.711062
 20
0.0
 30
0.0
 11
-4.711062
 21
0.12
 31
0.0
  0
LINE
  8
OBJ
  6
CENTER2
 10
-4.922
 20
-0.125
 30
0.0
 11
-4.922
 21
0.245
 31
0.0
  0
ARC
  8
OBJ
 10
-5.337
 20
0.69
 30
0.0
 40
0.22
 50
270.0
 51
90.0
  0
LINE
  8
OBJ
 10
-5.337
 20
0.6
 30
0.0
 11
-5.337
 21
0.78
 31
0.0
  0
LINE
  8
OBJ
 10
-5.337
 20
0.87
 30
0.0
 11
-5.337
 21
1.0
 31
0.0
  0
LINE
  8
OBJ
 10
-5.247
 20
0.69
 30
0.0
 11
-5.427
 21
0.69
 31
0.0
  0
LINE
  8
OBJ
 10
-5.157
 20
0.69
 30
0.0
 11
-5.027
 21
0.69
 31
0.0
  0
LINE
  8
OBJ
 10
-5.337
 20
0.51
 30
0.0
 11
-5.337
 21
0.38
 31
0.0
  0
ARC
  8
OBJ
 10
-2.537
 20
0.69
 30
0.0
 40
0.22
 50
90.0
 51
270.0
  0
LINE
  8
OBJ
 10
-2.537
 20
0.6
 30
0.0
 11
-2.537
 21
0.78
 31
0.0
  0
LINE
  8
OBJ
 10
-2.537
 20
0.87
 30
0.0
 11
-2.537
 21
1.0
 31
0.0
  0
LINE
  8
OBJ
 10
-2.717
 20
0.69
 30
0.0
 11
-2.847
 21
0.69
 31
0.0
  0
LINE
  8
OBJ
 10
-2.537
 20
0.51
 30
0.0
 11
-2.537
 21
0.38
 31
0.0
  0
LINE
  8
OBJ
  6
CENTER2
 10
-2.952
 20
-0.125
 30
0.0
 11
-2.952
 21
0.245
 31
0.0
  0
LINE
  8
OBJ
  6
CENTER2
 10
-3.162937
 20
0.0
 30
0.0
 11
-3.162937
 21
0.12
 31
0.0
  0
LINE
  8
OBJ
  6
CENTER2
 10
-3.937
 20
-0.125
 30
0.0
 11
-3.937
 21
0.245
 31
0.0
  0
LINE
  8
OBJ
  6
CENTER2
 10
-4.147937
 20
0.0
 30
0.0
 11
-4.147937
 21
0.12
 31
0.0
  0
LINE
  8
OBJ
  6
CENTER2
 10
-3.726062
 20
0.0
 30
0.0
 11
-3.726062
 21
0.12
 31
0.0
  0
LINE
  8
0
 10
-0.210005
 20
0.69
 30
0.0
 11
-2.357
 21
0.69
 31
0.0
  0
LINE
  8
OBJ
  6
CENTER2
 10
-2.46
 20
-0.125
 30
0.0
 11
-2.46
 21
0.245
 31
0.0
  0
LINE
  8
OBJ
  6
CENTER2
 10
-2.249062
 20
0.0
 30
0.0
 11
-2.249062
 21
0.12
 31
0.0
  0
LINE
  8
OBJ
  6
CENTER2
 10
-1.265063
 20
0.0
 30
0.0
 11
-1.265063
 21
0.12
 31
0.0
  0
LINE
  8
OBJ
  6
CENTER2
 10
-1.686938
 20
0.0
 30
0.0
 11
-1.686938
 21
0.12
 31
0.0
  0
LINE
  8
OBJ
  6
CENTER2
 10
-1.476
 20
-0.125
 30
0.0
 11
-1.476
 21
0.245
 31
0.0
  0
ARC
  8
OBJ
 10
-0.037
 20
0.69
 30
0.0
 40
0.22
 50
270.0
 51
90.0
  0
LINE
  8
OBJ
 10
-0.037
 20
0.51
 30
0.0
 11
-0.037
 21
0.38
 31
0.0
  0
LINE
  8
OBJ
 10
0.143
 20
0.69
 30
0.0
 11
0.273
 21
0.69
 31
0.0
  0
LINE
  8
OBJ
 10
-0.127
 20
0.69
 30
0.0
 11
0.053
 21
0.69
 31
0.0
  0
LINE
  8
OBJ
 10
-0.037
 20
0.863005
 30
0.0
 11
-0.037
 21
0.993005
 31
0.0
  0
LINE
  8
OBJ
 10
-0.037
 20
0.6
 30
0.0
 11
-0.037
 21
0.78
 31
0.0
  0
LINE
  8
OBJ
  6
CENTER2
 10
0.0
 20
-0.125
 30
0.0
 11
0.0
 21
0.245
 31
0.0
  0
LINE
  8
OBJ
  6
CENTER2
 10
-0.210938
 20
0.0
 30
0.0
 11
-0.210938
 21
0.12
 31
0.0
  0
LINE
  8
OBJ
  6
CENTER2
 10
0.210938
 20
0.0
 30
0.0
 11
0.210938
 21
0.12
 31
0.0
  0
LINE
  8
OBJ
 10
0.788
 20
0.45
 30
0.0
 11
0.788
 21
0.0
 31
0.0
  0
ENDBLK
  8
0
  0
BLOCK
  8
0
  2
MRAIL
 70
    64
 10
0.0
 20
0.0
 30
0.0
  3
MRAIL
  0
LINE
  8
0
 10
-0.210005
 20
-0.69
 30
0.0
 11
-2.357
 21
-0.69
 31
0.0
  0
LINE
  8
OBJ
 10
-2.537
 20
-0.91
 30
0.0
 11
-0.037
 21
-0.91
 31
0.0
  0
LINE
  8
OBJ
 10
-2.537
 20
-0.47
 30
0.0
 11
-0.037
 21
-0.47
 31
0.0
  0
LINE
  8
OBJ
 10
0.038
 20
-1.2
 30
0.0
 11
-7.912
 21
-1.2
 31
0.0
  0
LINE
  8
OBJ
 10
-8.662
 20
0.0
 30
0.0
 11
0.788
 21
0.0
 31
0.0
  0
LINE
  8
OBJ
  6
HIDDEN2
 10
-8.662
 20
-0.12
 30
0.0
 11
0.788
 21
-0.12
 31
0.0
  0
LINE
  8
OBJ
 10
-5.337
 20
-0.91
 30
0.0
 11
-7.837
 21
-0.91
 31
0.0
  0
LINE
  8
OBJ
 10
-5.337
 20
-0.47
 30
0.0
 11
-7.837
 21
-0.47
 31
0.0
  0
LINE
  8
0
 10
-7.663995
 20
-0.69
 30
0.0
 11
-5.517
 21
-0.69
 31
0.0
  0
ARC
  8
OBJ
 10
-7.912
 20
-0.45
 30
0.0
 40
0.75
 50
180.0
 51
270.0
  0
LINE
  8
OBJ
 10
-8.017
 20
-0.69
 30
0.0
 11
-8.147
 21
-0.69
 31
0.0
  0
LINE
  8
OBJ
  6
CENTER2
 10
-8.084937
 20
0.0
 30
0.0
 11
-8.084937
 21
-0.12
 31
0.0
  0
LINE
  8
OBJ
 10
-8.662
 20
-0.45
 30
0.0
 11
-8.662
 21
0.0
 31
0.0
  0
LINE
  8
OBJ
 10
-7.837
 20
-0.51
 30
0.0
 11
-7.837
 21
-0.38
 31
0.0
  0
LINE
  8
OBJ
 10
-7.837
 20
-0.863005
 30
0.0
 11
-7.837
 21
-0.993005
 31
0.0
  0
LINE
  8
OBJ
 10
-7.837
 20
-0.6
 30
0.0
 11
-7.837
 21
-0.78
 31
0.0
  0
LINE
  8
OBJ
  6
CENTER2
 10
-7.874
 20
0.125
 30
0.0
 11
-7.874
 21
-0.245
 31
0.0
  0
LINE
  8
OBJ
  6
CENTER2
 10
-7.663062
 20
0.0
 30
0.0
 11
-7.663062
 21
-0.12
 31
0.0
  0
ARC
  8
OBJ
 10
-7.837
 20
-0.69
 30
0.0
 40
0.22
 50
90.0
 51
270.0
  0
LINE
  8
OBJ
 10
-7.747
 20
-0.69
 30
0.0
 11
-7.927
 21
-0.69
 31
0.0
  0
LINE
  8
OBJ
  6
CENTER2
 10
-6.608937
 20
0.0
 30
0.0
 11
-6.608937
 21
-0.12
 31
0.0
  0
LINE
  8
OBJ
  6
CENTER2
 10
-6.187062
 20
0.0
 30
0.0
 11
-6.187062
 21
-0.12
 31
0.0
  0
LINE
  8
OBJ
  6
CENTER2
 10
-6.398
 20
0.125
 30
0.0
 11
-6.398
 21
-0.245
 31
0.0
  0
LINE
  8
OBJ
  6
CENTER2
 10
-5.624938
 20
0.0
 30
0.0
 11
-5.624938
 21
-0.12
 31
0.0
  0
LINE
  8
OBJ
 10
-5.247
 20
-0.69
 30
0.0
 11
-5.427
 21
-0.69
 31
0.0
  0
ARC
  8
OBJ
 10
-5.337
 20
-0.69
 30
0.0
 40
0.22
 50
270.0
 51
90.0
  0
LINE
  8
OBJ
 10
-5.337
 20
-0.6
 30
0.0
 11
-5.337
 21
-0.78
 31
0.0
  0
LINE
  8
OBJ
 10
-5.337
 20
-0.87
 30
0.0
 11
-5.337
 21
-1.0
 31
0.0
  0
LINE
  8
OBJ
 10
-5.157
 20
-0.69
 30
0.0
 11
-5.027
 21
-0.69
 31
0.0
  0
LINE
  8
OBJ
 10
-5.337
 20
-0.51
 30
0.0
 11
-5.337
 21
-0.38
 31
0.0
  0
LINE
  8
OBJ
  6
CENTER2
 10
-4.922
 20
0.125
 30
0.0
 11
-4.922
 21
-0.245
 31
0.0
  0
LINE
  8
OBJ
  6
CENTER2
 10
-4.711062
 20
0.0
 30
0.0
 11
-4.711062
 21
-0.12
 31
0.0
  0
LINE
  8
OBJ
  6
CENTER2
 10
-4.147937
 20
0.0
 30
0.0
 11
-4.147937
 21
-0.12
 31
0.0
  0
LINE
  8
OBJ
  6
CENTER2
 10
-5.414
 20
0.125
 30
0.0
 11
-5.414
 21
-0.245
 31
0.0
  0
LINE
  8
OBJ
  6
CENTER2
 10
-3.937
 20
0.125
 30
0.0
 11
-3.937
 21
-0.245
 31
0.0
  0
LINE
  8
OBJ
  6
CENTER2
 10
-3.726062
 20
0.0
 30
0.0
 11
-3.726062
 21
-0.12
 31
0.0
  0
LINE
  8
OBJ
  6
CENTER2
 10
-2.249062
 20
0.0
 30
0.0
 11
-2.249062
 21
-0.12
 31
0.0
  0
LINE
  8
OBJ
  6
CENTER2
 10
-2.46
 20
0.125
 30
0.0
 11
-2.46
 21
-0.245
 31
0.0
  0
LINE
  8
OBJ
  6
CENTER2
 10
-3.162937
 20
0.0
 30
0.0
 11
-3.162937
 21
-0.12
 31
0.0
  0
LINE
  8
OBJ
  6
CENTER2
 10
-2.952
 20
0.125
 30
0.0
 11
-2.952
 21
-0.245
 31
0.0
  0
ARC
  8
OBJ
 10
-2.537
 20
-0.69
 30
0.0
 40
0.22
 50
90.0
 51
270.0
  0
LINE
  8
OBJ
 10
-2.537
 20
-0.6
 30
0.0
 11
-2.537
 21
-0.78
 31
0.0
  0
LINE
  8
OBJ
 10
-2.537
 20
-0.87
 30
0.0
 11
-2.537
 21
-1.0
 31
0.0
  0
LINE
  8
OBJ
 10
-2.627
 20
-0.69
 30
0.0
 11
-2.447
 21
-0.69
 31
0.0
  0
LINE
  8
OBJ
 10
-2.717
 20
-0.69
 30
0.0
 11
-2.847
 21
-0.69
 31
0.0
  0
LINE
  8
OBJ
 10
-2.537
 20
-0.51
 30
0.0
 11
-2.537
 21
-0.38
 31
0.0
  0
ARC
  8
OBJ
 10
0.038
 20
-0.45
 30
0.0
 40
0.75
 50
270.0
 51
0.0
  0
ARC
  8
OBJ
 10
-0.037
 20
-0.69
 30
0.0
 40
0.22
 50
270.0
 51
90.0
  0
LINE
  8
OBJ
  6
CENTER2
 10
-1.476
 20
0.125
 30
0.0
 11
-1.476
 21
-0.245
 31
0.0
  0
LINE
  8
OBJ
  6
CENTER2
 10
-1.265063
 20
0.0
 30
0.0
 11
-1.265063
 21
-0.12
 31
0.0
  0
LINE
  8
OBJ
  6
CENTER2
 10
-1.686938
 20
0.0
 30
0.0
 11
-1.686938
 21
-0.12
 31
0.0
  0
LINE
  8
OBJ
  6
CENTER2
 10
-0.210938
 20
0.0
 30
0.0
 11
-0.210938
 21
-0.12
 31
0.0
  0
LINE
  8
OBJ
  6
CENTER2
 10
0.0
 20
0.125
 30
0.0
 11
0.0
 21
-0.245
 31
0.0
  0
LINE
  8
OBJ
 10
-0.037
 20
-0.6
 30
0.0
 11
-0.037
 21
-0.78
 31
0.0
  0
LINE
  8
OBJ
 10
-0.037
 20
-0.863005
 30
0.0
 11
-0.037
 21
-0.993005
 31
0.0
  0
LINE
  8
OBJ
 10
-0.127
 20
-0.69
 30
0.0
 11
0.053
 21
-0.69
 31
0.0
  0
LINE
  8
OBJ
 10
-0.037
 20
-0.51
 30
0.0
 11
-0.037
 21
-0.38
 31
0.0
  0
LINE
  8
OBJ
 10
0.788
 20
0.0
 30
0.0
 11
0.788
 21
-0.45
 31
0.0
  0
LINE
  8
OBJ
  6
CENTER2
 10
0.210938
 20
0.0
 30
0.0
 11
0.210938
 21
-0.12
 31
0.0
  0
LINE
  8
OBJ
 10
0.143
 20
-0.69
 30
0.0
 11
0.273
 21
-0.69
 31
0.0
  0
ENDBLK
  8
0
  0
BLOCK
  8
0
  2
SRAIL
 70
    64
 10
0.0
 20
0.0
 30
0.0
  3
SRAIL
  0
LINE
  8
0
 10
-8.662
 20
-1.78
 30
0.0
 11
0.788
 21
-1.78
 31
0.0
  0
LINE
  8
OBJ
  6
HIDDEN2
 10
0.788
 20
-1.66
 30
0.0
 11
-8.662
 21
-1.66
 31
0.0
  0
LINE
  8
OBJ
 10
-7.912
 20
0.34
 30
0.0
 11
0.038
 21
0.34
 31
0.0
  0
LINE
  8
0
 10
-8.662
 20
-0.41
 30
0.0
 11
-8.662
 21
-1.78
 31
0.0
  0
LINE
  8
OBJ
 10
-7.837
 20
-1.911732
 30
0.0
 11
-7.837
 21
-2.041732
 31
0.0
  0
LINE
  8
OBJ
 10
-7.837
 20
-1.558727
 30
0.0
 11
-7.837
 21
-1.428727
 31
0.0
  0
LINE
  8
OBJ
 10
-7.837
 20
-1.821732
 30
0.0
 11
-7.837
 21
-1.641732
 31
0.0
  0
LINE
  8
0
 10
-8.057
 20
-1.78
 30
0.0
 11
-8.057
 21
-1.66
 31
0.0
  0
LINE
  8
OBJ
  6
CENTER2
 10
-7.874
 20
-0.185
 30
0.0
 11
-7.874
 21
0.185
 31
0.0
  0
CIRCLE
  8
0
 10
-7.874
 20
0.0
 30
0.0
 40
0.18
  0
ARC
  8
OBJ
 10
-7.912
 20
-0.41
 30
0.0
 40
0.75
 50
90.0
 51
180.0
  0
LINE
  8
OBJ
 10
-5.337
 20
-1.551732
 30
0.0
 11
-5.337
 21
-1.421732
 31
0.0
  0
LINE
  8
OBJ
 10
-5.337
 20
-1.911732
 30
0.0
 11
-5.337
 21
-2.041732
 31
0.0
  0
LINE
  8
OBJ
 10
-5.337
 20
-1.821732
 30
0.0
 11
-5.337
 21
-1.641732
 31
0.0
  0
LINE
  8
0
 10
-5.117
 20
-1.78
 30
0.0
 11
-5.117
 21
-1.66
 31
0.0
  0
LINE
  8
OBJ
  6
CENTER2
 10
-6.398
 20
-0.185
 30
0.0
 11
-6.398
 21
0.185
 31
0.0
  0
CIRCLE
  8
0
 10
-6.398
 20
0.0
 30
0.0
 40
0.18
  0
LINE
  8
OBJ
  6
CENTER2
 10
-3.937
 20
-0.185
 30
0.0
 11
-3.937
 21
0.185
 31
0.0
  0
CIRCLE
  8
0
 10
-3.937
 20
0.0
 30
0.0
 40
0.18
  0
ARC
  8
0
 10
-4.922
 20
0.0
 30
0.0
 40
0.18
 50
270.0
 51
90.0
  0
LINE
  8
OBJ
  6
CENTER2
 10
-4.922
 20
-0.185
 30
0.0
 11
-4.922
 21
0.185
 31
0.0
  0
LINE
  8
0
 10
-5.414
 20
-0.18
 30
0.0
 11
-4.922
 21
-0.18
 31
0.0
  0
LINE
  8
OBJ
  6
CENTER2
 10
-5.414
 20
-0.185
 30
0.0
 11
-5.414
 21
0.185
 31
0.0
  0
LINE
  8
0
 10
-5.414
 20
0.18
 30
0.0
 11
-4.922
 21
0.18
 31
0.0
  0
ARC
  8
0
 10
-5.414
 20
0.0
 30
0.0
 40
0.18
 50
90.0
 51
270.0
  0
CIRCLE
  8
0
 10
0.0
 20
0.0
 30
0.0
 40
0.18
  0
ARC
  8
OBJ
 10
0.038
 20
-0.41
 30
0.0
 40
0.75
 50
0.0
 51
90.0
  0
LINE
  8
OBJ
 10
-2.537
 20
-1.551732
 30
0.0
 11
-2.537
 21
-1.421732
 31
0.0
  0
LINE
  8
OBJ
 10
-2.537
 20
-1.911732
 30
0.0
 11
-2.537
 21
-2.041732
 31
0.0
  0
LINE
  8
OBJ
 10
-2.537
 20
-1.821732
 30
0.0
 11
-2.537
 21
-1.641732
 31
0.0
  0
LINE
  8
0
 10
-2.757
 20
-1.78
 30
0.0
 11
-2.757
 21
-1.66
 31
0.0
  0
LINE
  8
OBJ
 10
-0.037
 20
-1.911732
 30
0.0
 11
-0.037
 21
-2.041732
 31
0.0
  0
LINE
  8
OBJ
 10
-0.037
 20
-1.821732
 30
0.0
 11
-0.037
 21
-1.641732
 31
0.0
  0
LINE
  8
OBJ
 10
-0.037
 20
-1.558727
 30
0.0
 11
-0.037
 21
-1.428727
 31
0.0
  0
LINE
  8
0
 10
-2.46
 20
-0.18
 30
0.0
 11
-2.952
 21
-0.18
 31
0.0
  0
ARC
  8
0
 10
-2.46
 20
0.0
 30
0.0
 40
0.18
 50
270.0
 51
90.0
  0
LINE
  8
OBJ
  6
CENTER2
 10
-2.46
 20
-0.185
 30
0.0
 11
-2.46
 21
0.185
 31
0.0
  0
LINE
  8
0
 10
-2.46
 20
0.18
 30
0.0
 11
-2.952
 21
0.18
 31
0.0
  0
LINE
  8
OBJ
  6
CENTER2
 10
-2.952
 20
-0.185
 30
0.0
 11
-2.952
 21
0.185
 31
0.0
  0
ARC
  8
0
 10
-2.952
 20
0.0
 30
0.0
 40
0.18
 50
90.0
 51
270.0
  0
LINE
  8
OBJ
  6
CENTER2
 10
0.0
 20
-0.185
 30
0.0
 11
0.0
 21
0.185
 31
0.0
  0
LINE
  8
OBJ
  6
CENTER2
 10
-1.476
 20
-0.185
 30
0.0
 11
-1.476
 21
0.185
 31
0.0
  0
CIRCLE
  8
0
 10
-1.476
 20
0.0
 30
0.0
 40
0.18
  0
LINE
  8
0
 10
0.788
 20
-0.41
 30
0.0
 11
0.788
 21
-1.78
 31
0.0
  0
LINE
  8
0
 10
0.183
 20
-1.78
 30
0.0
 11
0.183
 21
-1.66
 31
0.0
  0
ENDBLK
  8
0
  0
BLOCK
  8
0
  2
FRAIL
 70
    64
 10
0.0
 20
0.0
 30
0.0
  3
FRAIL
  0
LINE
  8
OBJ
 10
-3.86
 20
0.34
 30
0.0
 11
-3.86
 21
-1.5725
 31
0.0
  0
LINE
  8
OBJ
 10
-3.74
 20
-1.5725
 30
0.0
 11
-3.74
 21
0.34
 31
0.0
  0
LINE
  8
OBJ
 10
-4.43
 20
-1.509701
 30
0.0
 11
-4.43
 21
-1.9303
 31
0.0
  0
ARC
  8
OBJ
 10
-3.96
 20
-1.56
 30
0.0
 40
0.1
 50
270.0
 51
0.0
  0
ARC
  8
OBJ
 10
-3.96
 20
-1.56
 30
0.0
 40
0.22
 50
270.0
 51
0.0
  0
POINT
  8
DEFPOINTS
  6
BYBLOCK
 62
     0
 10
-4.51
 20
-1.66
 30
0.0
  0
LINE
  8
OBJ
 10
-4.034197
 20
-1.78
 30
0.0
 11
-3.96
 21
-1.78
 31
0.0
  0
LINE
  8
OBJ
 10
-4.94
 20
-1.78
 30
0.0
 11
-4.94
 21
-1.66
 31
0.0
  0
LINE
  8
OBJ
 10
-4.94
 20
-1.78
 30
0.0
 11
-3.96
 21
-1.78
 31
0.0
  0
LINE
  8
OBJ
 10
-3.96
 20
-1.66
 30
0.0
 11
-4.94
 21
-1.66
 31
0.0
  0
LINE
  8
OBJ
 10
-4.023369
 20
0.0
 30
0.0
 11
-3.54462
 21
0.0
 31
0.0
  0
LINE
  8
OBJ
 10
-3.86
 20
0.34
 30
0.0
 11
-3.74
 21
0.34
 31
0.0
  0
POINT
  8
DEFPOINTS
  6
BYBLOCK
 62
     0
 10
-3.86
 20
-1.56
 30
0.0
  0
POINT
  8
DEFPOINTS
  6
BYBLOCK
 62
     0
 10
-3.86
 20
-1.46
 30
0.0
  0
LINE
  8
OBJ
 10
1.2
 20
-1.78
 30
0.0
 11
0.22
 21
-1.78
 31
0.0
  0
LINE
  8
OBJ
 10
0.22
 20
-1.66
 30
0.0
 11
1.2
 21
-1.66
 31
0.0
  0
LINE
  8
OBJ
 10
0.12
 20
0.34
 30
0.0
 11
0.12
 21
-1.5725
 31
0.0
  0
LINE
  8
OBJ
 10
0.0
 20
-1.5725
 30
0.0
 11
0.0
 21
0.34
 31
0.0
  0
ARC
  8
OBJ
 10
0.22
 20
-1.56
 30
0.0
 40
0.1
 50
180.0
 51
270.0
  0
ARC
  8
OBJ
 10
0.22
 20
-1.56
 30
0.0
 40
0.22
 50
180.0
 51
270.0
  0
LINE
  8
OBJ
 10
0.283369
 20
0.0
 30
0.0
 11
-0.19538
 21
0.0
 31
0.0
  0
LINE
  8
OBJ
 10
0.0
 20
0.34
 30
0.0
 11
0.12
 21
0.34
 31
0.0
  0
LINE
  8
OBJ
 10
0.69
 20
-1.509701
 30
0.0
 11
0.69
 21
-1.9303
 31
0.0
  0
LINE
  8
OBJ
 10
1.2
 20
-1.78
 30
0.0
 11
1.2
 21
-1.66
 31
0.0
  0
ENDBLK
  8
0
  0
ENDSEC
  0
SECTION
  2
ENTITIES
  0
INSERT
  8
0
  2
FRAIL
 10
6.167939
 20
2.168661
 30
0.0
  0
INSERT
  8
0
  2
SRAIL
 10
21.60513
 20
2.168661
 30
0.0
  0
LINE
  8
0
 10
4.297939
 20
8.435258
 30
0.0
 11
4.297939
 21
0.694276
 31
0.0
  0
LINE
  8
0
 10
4.297939
 20
8.435258
 30
0.0
 11
4.297939
 21
0.694276
 31
0.0
  0
TEXT
  8
0
 10
2.867204
 20
11.380815
 30
0.0
 40
0.5
  1
MODEL 30, 31
  7
ROMAND
  0
LINE
  8
0
 10
2.427939
 20
1.861161
 30
0.0
 11
3.116939
 21
1.861161
 31
0.0
  0
LINE
  8
0
 10
3.061946
 20
2.661161
 30
0.0
 11
2.699933
 21
2.661161
 31
0.0
  0
CIRCLE
  8
0
 10
2.880939
 20
3.520161
 30
0.0
 40
0.297
  0
CIRCLE
  8
0
 10
2.880939
 20
3.520161
 30
0.0
 40
0.205184
  0
LINE
  8
0
 10
2.517077
 20
5.279189
 30
0.0
 11
3.214439
 21
5.279189
 31
0.0
  0
ARC
  8
0
 10
2.880939
 20
6.929629
 30
0.0
 40
1.546613
 50
257.93258
 51
286.001404
  0
POLYLINE
  8
0
 66
     1
 10
0.0
 20
0.0
 30
0.0
 70
     1
  0
VERTEX
  8
0
 10
2.880939
 20
4.060161
 30
0.0
  0
VERTEX
  8
0
 10
2.413286
 20
3.790161
 30
0.0
  0
VERTEX
  8
0
 10
2.413286
 20
3.250161
 30
0.0
  0
VERTEX
  8
0
 10
2.880939
 20
2.980161
 30
0.0
  0
VERTEX
  8
0
 10
3.348593
 20
3.250161
 30
0.0
  0
VERTEX
  8
0
 10
3.348593
 20
3.790161
 30
0.0
  0
SEQEND
  8
0
  0
CIRCLE
  8
0
 10
2.880939
 20
3.520161
 30
0.0
 40
0.458452
  0
ARC
  8
0
 10
2.880939
 20
3.520161
 30
0.0
 40
0.808
 50
180.0
 51
317.047722
  0
CIRCLE
  8
0
 10
2.880939
 20
3.520161
 30
0.0
 40
0.6156
  0
ARC
  8
0
 10
2.880939
 20
3.520161
 30
0.0
 40
0.738862
 50
180.0
 51
325.581237
  0
ARC
  8
0
 10
2.880939
 20
6.632931
 30
0.0
 40
0.62923
 50
64.589813
 51
115.410187
  0
LINE
  8
0
 10
2.292339
 20
6.870661
 30
0.0
 11
3.496539
 21
6.870661
 31
0.0
  0
LINE
  8
0
 10
2.388529
 20
7.262161
 30
0.0
 11
3.373349
 21
7.262161
 31
0.0
  0
LINE
  8
0
 10
2.132939
 20
6.699661
 30
0.0
 11
4.297939
 21
6.699661
 31
0.0
  0
LINE
  8
0
 10
1.277939
 20
6.343637
 30
0.0
 11
1.277939
 21
4.93854
 31
0.0
  0
LINE
  8
0
 10
1.041939
 20
2.933637
 30
0.0
 11
1.041939
 21
6.283637
 31
0.0
  0
LINE
  8
0
 10
1.897939
 20
6.371395
 30
0.0
 11
1.897939
 21
4.276021
 31
0.0
  0
ARC
  8
0
 10
1.529242
 20
5.791862
 30
0.0
 40
0.800488
 50
359.86162
 51
45.977224
  0
LINE
  8
OBJ
 10
0.994131
 20
3.265948
 30
0.0
 11
0.994131
 21
3.701001
 31
0.0
  0
ARC
  8
OBJ
 10
0.854143
 20
3.647217
 30
0.0
 40
0.057219
 50
109.954678
 51
250.045322
  0
LINE
  8
OBJ
 10
0.796923
 20
3.593433
 30
0.0
 11
0.796923
 21
3.676086
 31
0.0
  0
LINE
  8
0
 10
1.277939
 20
4.278783
 30
0.0
 11
1.277939
 21
2.873637
 31
0.0
  0
LINE
  8
0
 10
2.142077
 20
3.520161
 30
0.0
 11
2.142077
 21
4.904189
 31
0.0
  0
LINE
  8
0
 10
2.072941
 20
3.520161
 30
0.0
 11
2.072977
 21
5.058294
 31
0.0
  0
LINE
  8
OBJ
 10
0.796923
 20
3.290863
 30
0.0
 11
0.820143
 21
3.273709
 31
0.0
  0
ARC
  8
OBJ
 10
0.854143
 20
3.319732
 30
0.0
 40
0.057219
 50
109.954678
 51
250.045322
  0
ARC
  8
OBJ
 10
0.976161
 20
3.483474
 30
0.0
 40
0.179237
 50
142.158498
 51
217.841502
  0
LINE
  8
OBJ
 10
0.796923
 20
3.373516
 30
0.0
 11
0.796923
 21
3.593433
 31
0.0
  0
LINE
  8
OBJ
 10
0.796923
 20
3.290863
 30
0.0
 11
0.796923
 21
3.373516
 31
0.0
  0
LINE
  8
0
 10
2.427939
 20
2.521161
 30
0.0
 11
2.427939
 21
1.861161
 31
0.0
  0
LINE
  8
OBJ
 10
2.133742
 20
2.168661
 30
0.0
 11
2.6349
 21
2.168661
 31
0.0
  0
LINE
  8
0
 10
2.267939
 20
2.521161
 30
0.0
 11
2.427939
 21
2.521161
 31
0.0
  0
POINT
  8
DEFPOINTS
  6
BYBLOCK
 62
     0
 10
2.427939
 20
2.521161
 30
0.0
  0
POINT
  8
DEFPOINTS
  6
BYBLOCK
 62
     0
 10
2.307939
 20
2.521161
 30
0.0
  0
LINE
  8
OBJ
 10
2.427939
 20
2.521161
 30
0.0
 11
2.307939
 21
2.521161
 31
0.0
  0
LINE
  8
0
 10
2.267939
 20
2.521161
 30
0.0
 11
2.403311
 21
2.521161
 31
0.0
  0
ARC
  8
0
 10
24.000713
 20
4.713105
 30
0.0
 40
22.28104
 50
184.735588
 51
184.861146
  0
ARC
  8
0
 10
2.073939
 20
2.84694
 30
0.0
 40
0.275
 50
184.579914
 51
264.547201
  0
ARC
  8
0
 10
3.781293
 20
16.318037
 30
0.0
 40
13.853734
 50
262.81187
 51
263.728611
  0
ARC
  8
0
 10
1.101939
 20
2.933637
 30
0.0
 40
0.06
 50
180.0
 51
270.0
  0
LINE
  8
0
 10
1.101939
 20
2.873637
 30
0.0
 11
1.277939
 21
2.873637
 31
0.0
  0
LINE
  8
OBJ
  6
CENTER2
 10
1.041939
 20
3.283278
 30
0.0
 11
0.994131
 21
3.283278
 31
0.0
  0
LINE
  8
OBJ
 10
1.041939
 20
3.435082
 30
0.0
 11
0.994131
 21
3.387274
 31
0.0
  0
LINE
  8
OBJ
  6
CONTINUOUS
 10
0.994131
 20
3.265948
 30
0.0
 11
0.834615
 21
3.265948
 31
0.0
  0
LINE
  8
OBJ
  6
CONTINUOUS
 10
0.994131
 20
3.593433
 30
0.0
 11
0.834615
 21
3.593433
 31
0.0
  0
LINE
  8
OBJ
  6
CONTINUOUS
 10
0.994131
 20
3.373516
 30
0.0
 11
0.834615
 21
3.373516
 31
0.0
  0
ARC
  8
0
 10
1.836278
 20
2.812925
 30
0.0
 40
0.060712
 50
17.347854
 51
90.0
  0
LINE
  8
0
 10
1.836278
 20
2.873637
 30
0.0
 11
1.277939
 21
2.873637
 31
0.0
  0
LINE
  8
0
 10
2.560828
 20
3.520161
 30
0.0
 11
1.615163
 21
3.520161
 31
0.0
  0
ARC
  8
0
 10
2.699933
 20
2.721161
 30
0.0
 40
0.06
 50
187.425504
 51
270.0
  0
ARC
  8
0
 10
2.580939
 20
2.705653
 30
0.0
 40
0.06
 50
7.425504
 51
69.780223
  0
ARC
  8
0
 10
2.227939
 20
2.960161
 30
0.0
 40
0.06
 50
180.0
 51
270.0
  0
LINE
  8
0
 10
2.227939
 20
2.900161
 30
0.0
 11
2.362804
 21
2.900161
 31
0.0
  0
LINE
  8
0
 10
2.267939
 20
2.900161
 30
0.0
 11
2.267939
 21
2.521161
 31
0.0
  0
LINE
  8
0
 10
2.167939
 20
3.140036
 30
0.0
 11
2.167939
 21
2.960161
 31
0.0
  0
LINE
  8
OBJ
 10
0.796923
 20
5.541447
 30
0.0
 11
0.820143
 21
5.524293
 31
0.0
  0
ARC
  8
OBJ
 10
0.854143
 20
5.570316
 30
0.0
 40
0.057219
 50
109.954678
 51
250.045322
  0
ARC
  8
OBJ
 10
0.854143
 20
5.897801
 30
0.0
 40
0.057219
 50
109.954678
 51
250.045322
  0
LINE
  8
OBJ
 10
0.796923
 20
5.92667
 30
0.0
 11
0.820143
 21
5.943824
 31
0.0
  0
ARC
  8
OBJ
 10
0.976161
 20
5.734058
 30
0.0
 40
0.179237
 50
142.158498
 51
217.841502
  0
LINE
  8
OBJ
 10
0.796923
 20
3.676086
 30
0.0
 11
0.820143
 21
3.693239
 31
0.0
  0
LINE
  8
OBJ
 10
0.796923
 20
5.92667
 30
0.0
 11
0.796923
 21
5.844017
 31
0.0
  0
LINE
  8
OBJ
 10
0.796923
 20
5.6241
 30
0.0
 11
0.796923
 21
5.541447
 31
0.0
  0
LINE
  8
OBJ
 10
0.796923
 20
5.844017
 30
0.0
 11
0.796923
 21
5.6241
 31
0.0
  0
LINE
  8
0
 10
1.133153
 20
5.792661
 30
0.0
 11
2.582726
 21
5.792661
 31
0.0
  0
ARC
  8
0
 10
0.993939
 20
5.541637
 30
0.0
 40
0.048
 50
270.0
 51
350.678318
  0
LINE
  8
0
 10
0.973939
 20
5.493637
 30
0.0
 11
0.993939
 21
5.493637
 31
0.0
  0
LINE
  8
OBJ
 10
0.994131
 20
5.951585
 30
0.0
 11
0.994131
 21
5.516532
 31
0.0
  0
LINE
  8
OBJ
  6
CENTER2
 10
1.041939
 20
5.533862
 30
0.0
 11
0.994131
 21
5.533862
 31
0.0
  0
LINE
  8
OBJ
  6
CONTINUOUS
 10
0.994131
 20
5.516532
 30
0.0
 11
0.834615
 21
5.516532
 31
0.0
  0
LINE
  8
OBJ
  6
CENTER2
 10
1.041939
 20
5.934254
 30
0.0
 11
0.994131
 21
5.934254
 31
0.0
  0
LINE
  8
OBJ
 10
1.041939
 20
5.782451
 30
0.0
 11
0.994131
 21
5.830259
 31
0.0
  0
LINE
  8
OBJ
  6
CONTINUOUS
 10
0.994131
 20
5.6241
 30
0.0
 11
0.834615
 21
5.6241
 31
0.0
  0
LINE
  8
OBJ
  6
CONTINUOUS
 10
0.994131
 20
5.844017
 30
0.0
 11
0.834615
 21
5.844017
 31
0.0
  0
LINE
  8
OBJ
  6
CONTINUOUS
 10
0.994131
 20
5.951585
 30
0.0
 11
0.834615
 21
5.951585
 31
0.0
  0
ARC
  8
0
 10
0.973939
 20
5.433637
 30
0.0
 40
0.06
 50
90.0
 51
180.0
  0
LINE
  8
0
 10
0.913939
 20
5.433637
 30
0.0
 11
0.913939
 21
3.783637
 31
0.0
  0
ARC
  8
0
 10
0.993939
 20
3.675637
 30
0.0
 40
0.048
 50
9.633795
 51
90.0
  0
LINE
  8
0
 10
0.973939
 20
3.723637
 30
0.0
 11
0.993939
 21
3.723637
 31
0.0
  0
LINE
  8
OBJ
  6
CENTER2
 10
1.041939
 20
3.68367
 30
0.0
 11
0.994131
 21
3.68367
 31
0.0
  0
LINE
  8
OBJ
  6
CONTINUOUS
 10
0.994131
 20
3.701001
 30
0.0
 11
0.834615
 21
3.701001
 31
0.0
  0
ARC
  8
0
 10
0.973939
 20
3.783637
 30
0.0
 40
0.06
 50
180.0
 51
270.0
  0
INSERT
  8
0
  2
100HST
 10
1.569109
 20
4.608661
 30
0.0
 41
0.03937
 42
0.03937
 43
0.03937
  0
LINE
  8
0
 10
1.464266
 20
4.181335
 30
0.0
 11
1.964266
 21
4.058661
 31
0.0
  0
LINE
  8
0
 10
1.431601
 20
5.026623
 30
0.0
 11
1.897939
 21
5.180046
 31
0.0
  0
ARC
  8
0
 10
1.569109
 20
4.608661
 30
0.0
 40
0.44
 50
108.211028
 51
256.214939
  0
ARC
  8
0
 10
2.272939
 20
4.276021
 30
0.0
 40
0.375
 50
180.0
 51
208.518159
  0
LINE
  8
0
 10
2.072939
 20
3.858661
 30
0.0
 11
1.942629
 21
4.098482
 31
0.0
  0
LINE
  8
0
 10
2.329728
 20
5.789929
 30
0.0
 11
2.329728
 21
5.653851
 31
0.0
  0
ARC
  8
0
 10
2.509168
 20
5.055596
 30
0.0
 40
0.364825
 50
82.371145
 51
120.467468
  0
ARC
  8
0
 10
1.954728
 20
5.653851
 30
0.0
 40
0.375
 50
313.357253
 51
0.0
  0
ARC
  8
0
 10
2.517077
 20
4.904189
 30
0.0
 40
0.375
 50
90.0
 51
180.0
  0
ARC
  8
0
 10
2.517077
 20
5.058294
 30
0.0
 40
0.4441
 50
133.357253
 51
180.0
  0
LINE
  8
0
 10
1.382939
 20
4.808661
 30
0.0
 11
1.384939
 21
4.808661
 31
0.0
  0
LINE
  8
0
 10
1.382939
 20
4.808661
 30
0.0
 11
1.384939
 21
4.808661
 31
0.0
  0
LINE
  8
0
 10
1.101939
 20
6.343637
 30
0.0
 11
1.277939
 21
6.343637
 31
0.0
  0
LINE
  8
0
 10
1.504656
 20
6.343686
 30
0.0
 11
1.877801
 21
6.343686
 31
0.0
  0
LINE
  8
0
 10
1.799924
 20
6.368559
 30
0.0
 11
1.799924
 21
6.343686
 31
0.0
  0
ARC
  8
0
 10
3.781293
 20
-7.125793
 30
0.0
 40
13.853734
 50
97.083378
 51
97.18813
  0
ARC
  8
0
 10
2.073939
 20
6.345304
 30
0.0
 40
0.275
 50
95.452799
 51
175.149038
  0
LINE
  8
0
 10
1.277939
 20
6.343637
 30
0.0
 11
1.651042
 21
6.343637
 31
0.0
  0
ARC
  8
0
 10
1.101939
 20
6.283637
 30
0.0
 40
0.06
 50
90.0
 51
180.0
  0
LINE
  8
0
 10
1.932939
 20
6.382661
 30
0.0
 11
2.012939
 21
6.382661
 31
0.0
  0
ARC
  8
0
 10
1.932939
 20
6.322661
 30
0.0
 40
0.06
 50
90.0
 51
125.685335
  0
ARC
  8
0
 10
2.012939
 20
6.442661
 30
0.0
 40
0.06
 50
270.0
 51
0.0
  0
ARC
  8
0
 10
2.331939
 20
6.879661
 30
0.0
 40
0.009
 50
270.0
 51
0.0
  0
ARC
  8
0
 10
2.619939
 20
6.879661
 30
0.0
 40
0.009
 50
180.0
 51
270.0
  0
ARC
  8
0
 10
2.601939
 20
6.879661
 30
0.0
 40
0.009
 50
270.0
 51
0.0
  0
LINE
  8
0
 10
2.340939
 20
6.879661
 30
0.0
 11
2.340939
 21
7.201289
 31
0.0
  0
LINE
  8
0
 10
2.610939
 20
6.879661
 30
0.0
 11
2.610939
 21
7.201289
 31
0.0
  0
LINE
  8
0
 10
2.072939
 20
6.639661
 30
0.0
 11
2.132939
 21
6.699661
 31
0.0
  0
ARC
  8
0
 10
2.292339
 20
6.843661
 30
0.0
 40
0.027
 50
90.0
 51
180.0
  0
LINE
  8
0
 10
2.265339
 20
6.699661
 30
0.0
 11
2.265339
 21
6.843661
 31
0.0
  0
LINE
  8
0
 10
2.072939
 20
6.442661
 30
0.0
 11
2.072939
 21
6.639661
 31
0.0
  0
ARC
  8
0
 10
2.475939
 20
7.082027
 30
0.0
 40
0.180135
 50
41.458173
 51
138.541827
  0
LINE
  8
0
 10
2.340939
 20
7.201289
 30
0.0
 11
2.388529
 21
7.262161
 31
0.0
  0
LINE
  8
0
 10
7.317939
 20
6.343637
 30
0.0
 11
7.317939
 21
4.93854
 31
0.0
  0
LINE
  8
0
 10
7.553939
 20
2.933637
 30
0.0
 11
7.553939
 21
6.283637
 31
0.0
  0
ARC
  8
0
 10
7.066636
 20
5.791862
 30
0.0
 40
0.800488
 50
134.022776
 51
180.13838
  0
LINE
  8
0
 10
5.006439
 20
5.717123
 30
0.0
 11
5.006439
 21
6.573651
 31
0.0
  0
LINE
  8
0
 10
6.697939
 20
6.371395
 30
0.0
 11
6.697939
 21
4.276021
 31
0.0
  0
LINE
  8
0
 10
3.589439
 20
5.717123
 30
0.0
 11
3.589439
 21
6.573651
 31
0.0
  0
ARC
  8
0
 10
6.078802
 20
5.058294
 30
0.0
 40
0.4441
 50
0.0
 51
46.642747
  0
LINE
  8
0
 10
7.462726
 20
5.792661
 30
0.0
 11
6.013153
 21
5.792661
 31
0.0
  0
ARC
  8
0
 10
6.078802
 20
4.904189
 30
0.0
 40
0.375
 50
0.0
 51
90.0
  0
LINE
  8
0
 10
6.926154
 20
3.520161
 30
0.0
 11
5.980488
 21
3.520161
 31
0.0
  0
ARC
  8
0
 10
4.814586
 20
16.318037
 30
0.0
 40
13.853734
 50
276.271389
 51
277.18813
  0
ARC
  8
0
 10
5.714939
 20
3.520161
 30
0.0
 40
0.738862
 50
214.418763
 51
360.0
  0
ARC
  8
0
 10
5.714939
 20
3.520161
 30
0.0
 40
0.808
 50
222.952278
 51
0.0
  0
ARC
  8
0
 10
4.297939
 20
3.520161
 30
0.0
 40
0.458452
 50
270.0
 51
90.0
  0
POLYLINE
  8
0
 66
     1
 10
0.0
 20
0.0
 30
0.0
  0
VERTEX
  8
0
 10
4.297939
 20
4.060161
 30
0.0
  0
VERTEX
  8
0
 10
4.765593
 20
3.790161
 30
0.0
  0
VERTEX
  8
0
 10
4.765593
 20
3.250161
 30
0.0
  0
VERTEX
  8
0
 10
4.297939
 20
2.980161
 30
0.0
  0
SEQEND
  8
0
  0
ARC
  8
0
 10
4.297939
 20
3.520161
 30
0.0
 40
0.297
 50
270.0
 51
90.0
  0
ARC
  8
0
 10
4.297939
 20
3.520161
 30
0.0
 40
0.205184
 50
270.0
 51
90.0
  0
ARC
  8
0
 10
4.297939
 20
3.520161
 30
0.0
 40
0.143629
 50
270.0
 51
90.0
  0
ARC
  8
0
 10
4.297939
 20
3.520161
 30
0.0
 40
0.6156
 50
270.0
 51
90.0
  0
CIRCLE
  8
0
 10
5.714939
 20
3.520161
 30
0.0
 40
0.458452
  0
POLYLINE
  8
0
 66
     1
 10
0.0
 20
0.0
 30
0.0
 70
     1
  0
VERTEX
  8
0
 10
5.714939
 20
4.060161
 30
0.0
  0
VERTEX
  8
0
 10
6.182593
 20
3.790161
 30
0.0
  0
VERTEX
  8
0
 10
6.182593
 20
3.250161
 30
0.0
  0
VERTEX
  8
0
 10
5.714939
 20
2.980161
 30
0.0
  0
VERTEX
  8
0
 10
5.247286
 20
3.250161
 30
0.0
  0
VERTEX
  8
0
 10
5.247286
 20
3.790161
 30
0.0
  0
SEQEND
  8
0
  0
CIRCLE
  8
0
 10
5.714939
 20
3.520161
 30
0.0
 40
0.143629
  0
CIRCLE
  8
0
 10
5.714939
 20
3.520161
 30
0.0
 40
0.205184
  0
CIRCLE
  8
0
 10
5.714939
 20
3.520161
 30
0.0
 40
0.297
  0
LINE
  8
0
 10
6.453802
 20
3.520161
 30
0.0
 11
6.453802
 21
4.904189
 31
0.0
  0
CIRCLE
  8
0
 10
5.714939
 20
3.520161
 30
0.0
 40
0.6156
  0
POLYLINE
  8
0
 66
     1
 10
0.0
 20
0.0
 30
0.0
  0
VERTEX
  8
0
 10
4.297939
 20
4.060161
 30
0.0
  0
VERTEX
  8
0
 10
3.830286
 20
3.790161
 30
0.0
  0
VERTEX
  8
0
 10
3.830286
 20
3.250161
 30
0.0
  0
VERTEX
  8
0
 10
4.297939
 20
2.980161
 30
0.0
  0
SEQEND
  8
0
  0
ARC
  8
0
 10
4.297939
 20
3.520161
 30
0.0
 40
0.143629
 50
90.0
 51
270.0
  0
ARC
  8
0
 10
4.297939
 20
3.520161
 30
0.0
 40
0.205184
 50
90.0
 51
270.0
  0
ARC
  8
0
 10
4.297939
 20
3.520161
 30
0.0
 40
0.297
 50
90.0
 51
270.0
  0
CIRCLE
  8
0
 10
2.880939
 20
3.520161
 30
0.0
 40
0.143629
  0
ARC
  8
0
 10
4.297939
 20
3.520161
 30
0.0
 40
0.458452
 50
90.0
 51
270.0
  0
ARC
  8
0
 10
4.297939
 20
3.520161
 30
0.0
 40
0.6156
 50
90.0
 51
270.0
  0
LINE
  8
0
 10
4.923869
 20
2.276161
 30
0.0
 11
4.297939
 21
2.276161
 31
0.0
  0
ARC
  8
0
 10
4.297939
 20
3.520161
 30
0.0
 40
0.808
 50
270.0
 51
317.047722
  0
ARC
  8
0
 10
4.297939
 20
3.520161
 30
0.0
 40
0.738862
 50
270.0
 51
325.581237
  0
LINE
  8
0
 10
4.507939
 20
2.668632
 30
0.0
 11
4.507939
 21
2.276161
 31
0.0
  0
ARC
  8
0
 10
3.216939
 20
1.913426
 30
0.0
 40
0.1
 50
120.0
 51
180.0
  0
LINE
  8
0
 10
3.166939
 20
2.000029
 30
0.0
 11
3.62201
 21
2.262764
 31
0.0
  0
ARC
  8
0
 10
4.597939
 20
2.705653
 30
0.0
 40
0.06
 50
110.219777
 51
172.574496
  0
ARC
  8
0
 10
4.478946
 20
2.721161
 30
0.0
 40
0.06
 50
270.0
 51
352.574496
  0
LINE
  8
0
 10
4.478946
 20
2.661161
 30
0.0
 11
4.297939
 21
2.661161
 31
0.0
  0
ARC
  8
0
 10
4.116933
 20
2.721161
 30
0.0
 40
0.06
 50
187.425504
 51
270.0
  0
ARC
  8
0
 10
3.997939
 20
2.705653
 30
0.0
 40
0.06
 50
7.425504
 51
69.780223
  0
LINE
  8
0
 10
4.116933
 20
2.661161
 30
0.0
 11
4.297939
 21
2.661161
 31
0.0
  0
LINE
  8
0
 10
4.087939
 20
2.668632
 30
0.0
 11
4.087939
 21
2.276161
 31
0.0
  0
ARC
  8
0
 10
3.67201
 20
2.176161
 30
0.0
 40
0.1
 50
90.0
 51
120.0
  0
ARC
  8
0
 10
3.589439
 20
2.860577
 30
0.0
 40
0.16
 50
42.952278
 51
137.047722
  0
ARC
  8
0
 10
3.061946
 20
2.721161
 30
0.0
 40
0.06
 50
270.0
 51
352.574496
  0
ARC
  8
0
 10
3.180939
 20
2.705653
 30
0.0
 40
0.06
 50
110.219777
 51
172.574496
  0
ARC
  8
0
 10
4.297939
 20
3.520161
 30
0.0
 40
0.808
 50
222.952278
 51
270.0
  0
LINE
  8
0
 10
3.116939
 20
2.697168
 30
0.0
 11
3.116939
 21
1.861161
 31
0.0
  0
ARC
  8
0
 10
3.589439
 20
3.0347
 30
0.0
 40
0.12
 50
34.418763
 51
145.581237
  0
LINE
  8
0
 10
3.67201
 20
2.276161
 30
0.0
 11
4.297939
 21
2.276161
 31
0.0
  0
ARC
  8
0
 10
4.297939
 20
3.520161
 30
0.0
 40
0.738862
 50
214.418763
 51
270.0
  0
LINE
  8
0
 10
6.327939
 20
2.521161
 30
0.0
 11
6.192567
 21
2.521161
 31
0.0
  0
ARC
  8
0
 10
4.923869
 20
2.176161
 30
0.0
 40
0.1
 50
60.0
 51
90.0
  0
LINE
  8
0
 10
6.427939
 20
3.140036
 30
0.0
 11
6.427939
 21
2.960161
 31
0.0
  0
LINE
  8
0
 10
5.533933
 20
2.661161
 30
0.0
 11
5.895946
 21
2.661161
 31
0.0
  0
LINE
  8
0
 10
6.167939
 20
1.861161
 30
0.0
 11
5.478939
 21
1.861161
 31
0.0
  0
LINE
  8
0
 10
6.167939
 20
2.521161
 30
0.0
 11
6.167939
 21
1.861161
 31
0.0
  0
LINE
  8
0
 10
6.327939
 20
2.900161
 30
0.0
 11
6.327939
 21
2.521161
 31
0.0
  0
ARC
  8
0
 10
6.014939
 20
2.705653
 30
0.0
 40
0.06
 50
110.219777
 51
172.574496
  0
ARC
  8
0
 10
5.895946
 20
2.721161
 30
0.0
 40
0.06
 50
270.0
 51
352.574496
  0
LINE
  8
0
 10
6.327939
 20
2.521161
 30
0.0
 11
6.167939
 21
2.521161
 31
0.0
  0
LINE
  8
0
 10
5.478939
 20
2.697168
 30
0.0
 11
5.478939
 21
1.861161
 31
0.0
  0
ARC
  8
0
 10
5.414939
 20
2.705653
 30
0.0
 40
0.06
 50
7.425504
 51
69.780223
  0
ARC
  8
0
 10
5.533933
 20
2.721161
 30
0.0
 40
0.06
 50
187.425504
 51
270.0
  0
ARC
  8
0
 10
5.378939
 20
1.913426
 30
0.0
 40
0.1
 50
0.0
 51
60.0
  0
POINT
  8
DEFPOINTS
  6
BYBLOCK
 62
     0
 10
6.167939
 20
2.521161
 30
0.0
  0
POINT
  8
DEFPOINTS
  6
BYBLOCK
 62
     0
 10
6.287939
 20
2.521161
 30
0.0
  0
LINE
  8
OBJ
 10
6.167939
 20
2.521161
 30
0.0
 11
6.287939
 21
2.521161
 31
0.0
  0
LINE
  8
0
 10
6.367939
 20
2.900161
 30
0.0
 11
6.233074
 21
2.900161
 31
0.0
  0
LINE
  8
OBJ
 10
6.462136
 20
2.168661
 30
0.0
 11
5.960979
 21
2.168661
 31
0.0
  0
ARC
  8
0
 10
6.367939
 20
2.960161
 30
0.0
 40
0.06
 50
270.0
 51
0.0
  0
ARC
  8
0
 10
5.006439
 20
3.0347
 30
0.0
 40
0.12
 50
34.418763
 51
145.581237
  0
LINE
  8
0
 10
5.428939
 20
2.000029
 30
0.0
 11
4.973869
 21
2.262764
 31
0.0
  0
ARC
  8
0
 10
5.006439
 20
2.860577
 30
0.0
 40
0.16
 50
42.952278
 51
137.047722
  0
ARC
  8
0
 10
4.297939
 20
6.929629
 30
0.0
 40
1.546613
 50
270.0
 51
286.001404
  0
LINE
  8
0
 10
4.631439
 20
5.279189
 30
0.0
 11
4.297939
 21
5.279189
 31
0.0
  0
LINE
  8
0
 10
3.964439
 20
5.279189
 30
0.0
 11
4.297939
 21
5.279189
 31
0.0
  0
ARC
  8
0
 10
4.297939
 20
6.929629
 30
0.0
 40
1.546613
 50
253.998596
 51
270.0
  0
ARC
  8
0
 10
3.589439
 20
5.475546
 30
0.0
 40
0.125
 50
41.409622
 51
138.590378
  0
ARC
  8
0
 10
3.214439
 20
4.904189
 30
0.0
 40
0.375
 50
41.409622
 51
90.0
  0
ARC
  8
0
 10
3.214439
 20
5.806265
 30
0.0
 40
0.375
 50
284.334098
 51
318.590378
  0
ARC
  8
0
 10
3.589439
 20
5.234908
 30
0.0
 40
0.125
 50
221.409622
 51
318.590378
  0
ARC
  8
0
 10
3.964439
 20
4.904189
 30
0.0
 40
0.375
 50
90.0
 51
138.590378
  0
ARC
  8
0
 10
3.964439
 20
5.806265
 30
0.0
 40
0.375
 50
221.409622
 51
255.665902
  0
ARC
  8
0
 10
4.631439
 20
5.806265
 30
0.0
 40
0.375
 50
284.334098
 51
318.590378
  0
ARC
  8
0
 10
4.631439
 20
4.904189
 30
0.0
 40
0.375
 50
41.409622
 51
90.0
  0
ARC
  8
0
 10
5.714939
 20
6.929629
 30
0.0
 40
1.546613
 50
253.998596
 51
282.06742
  0
LINE
  8
0
 10
6.078802
 20
5.279189
 30
0.0
 11
5.381439
 21
5.279189
 31
0.0
  0
ARC
  8
0
 10
6.086711
 20
5.055596
 30
0.0
 40
0.364825
 50
59.532532
 51
97.628855
  0
LINE
  8
0
 10
6.266151
 20
5.789929
 30
0.0
 11
6.266151
 21
5.653851
 31
0.0
  0
ARC
  8
0
 10
5.381439
 20
5.806265
 30
0.0
 40
0.375
 50
221.409622
 51
255.665902
  0
ARC
  8
0
 10
5.381439
 20
4.904189
 30
0.0
 40
0.375
 50
90.0
 51
138.590378
  0
ARC
  8
0
 10
6.641151
 20
5.653851
 30
0.0
 40
0.375
 50
180.0
 51
226.642747
  0
ARC
  8
0
 10
5.006439
 20
5.234908
 30
0.0
 40
0.125
 50
221.409622
 51
318.590378
  0
ARC
  8
0
 10
5.006439
 20
5.475546
 30
0.0
 40
0.125
 50
41.409622
 51
138.590378
  0
LINE
  8
0
 10
7.317939
 20
4.278783
 30
0.0
 11
7.317939
 21
2.873637
 31
0.0
  0
LINE
  8
OBJ
 10
7.798955
 20
3.593433
 30
0.0
 11
7.798955
 21
3.676086
 31
0.0
  0
ARC
  8
OBJ
 10
7.741736
 20
3.647217
 30
0.0
 40
0.057219
 50
289.954678
 51
70.045322
  0
LINE
  8
OBJ
 10
7.601747
 20
3.265948
 30
0.0
 11
7.601747
 21
3.701001
 31
0.0
  0
LINE
  8
0
 10
6.522938
 20
3.520161
 30
0.0
 11
6.522902
 21
5.058294
 31
0.0
  0
ARC
  8
0
 10
6.7596
 20
2.812925
 30
0.0
 40
0.060712
 50
90.0
 51
162.652146
  0
ARC
  8
0
 10
-15.404834
 20
4.713105
 30
0.0
 40
22.28104
 50
355.138854
 51
355.264412
  0
LINE
  8
OBJ
 10
7.798955
 20
3.290863
 30
0.0
 11
7.798955
 21
3.373516
 31
0.0
  0
ARC
  8
OBJ
 10
7.619718
 20
3.483474
 30
0.0
 40
0.179237
 50
322.158498
 51
37.841502
  0
LINE
  8
OBJ
 10
7.798955
 20
3.373516
 30
0.0
 11
7.798955
 21
3.593433
 31
0.0
  0
LINE
  8
OBJ
  6
CONTINUOUS
 10
7.601747
 20
3.373516
 30
0.0
 11
7.761264
 21
3.373516
 31
0.0
  0
LINE
  8
OBJ
  6
CONTINUOUS
 10
7.601747
 20
3.593433
 30
0.0
 11
7.761264
 21
3.593433
 31
0.0
  0
LINE
  8
OBJ
  6
CONTINUOUS
 10
7.601747
 20
3.265948
 30
0.0
 11
7.761264
 21
3.265948
 31
0.0
  0
ARC
  8
OBJ
 10
7.741736
 20
3.319732
 30
0.0
 40
0.057219
 50
289.954678
 51
70.045322
  0
LINE
  8
OBJ
 10
7.798955
 20
3.290863
 30
0.0
 11
7.775735
 21
3.273709
 31
0.0
  0
LINE
  8
OBJ
 10
7.553939
 20
3.435082
 30
0.0
 11
7.601747
 21
3.387274
 31
0.0
  0
LINE
  8
OBJ
  6
CENTER2
 10
7.553939
 20
3.283278
 30
0.0
 11
7.601747
 21
3.283278
 31
0.0
  0
LINE
  8
0
 10
7.493939
 20
2.873637
 30
0.0
 11
7.317939
 21
2.873637
 31
0.0
  0
ARC
  8
0
 10
7.493939
 20
2.933637
 30
0.0
 40
0.06
 50
270.0
 51
0.0
  0
LINE
  8
0
 10
6.7596
 20
2.873637
 30
0.0
 11
7.317939
 21
2.873637
 31
0.0
  0
ARC
  8
0
 10
6.521939
 20
2.84694
 30
0.0
 40
0.275
 50
275.452799
 51
355.420086
  0
LINE
  8
0
 10
7.844939
 20
4.215637
 30
0.0
 11
9.267939
 21
4.215637
 31
0.0
  0
LINE
  8
0
 10
7.844939
 20
5.001637
 30
0.0
 11
9.267939
 21
5.001637
 31
0.0
  0
LINE
  8
0
 10
7.900318
 20
4.608661
 30
0.0
 11
9.967874
 21
4.608661
 31
0.0
  0
ARC
  8
0
 10
7.621939
 20
5.433637
 30
0.0
 40
0.06
 50
0.0
 51
90.0
  0
LINE
  8
OBJ
 10
7.798955
 20
5.844017
 30
0.0
 11
7.798955
 21
5.6241
 31
0.0
  0
ARC
  8
OBJ
 10
7.619718
 20
5.734058
 30
0.0
 40
0.179237
 50
322.158498
 51
37.841502
  0
LINE
  8
OBJ
 10
7.798955
 20
5.6241
 30
0.0
 11
7.798955
 21
5.541447
 31
0.0
  0
LINE
  8
OBJ
 10
7.798955
 20
5.92667
 30
0.0
 11
7.775735
 21
5.943824
 31
0.0
  0
LINE
  8
OBJ
 10
7.798955
 20
5.92667
 30
0.0
 11
7.798955
 21
5.844017
 31
0.0
  0
ARC
  8
OBJ
 10
7.741736
 20
5.897801
 30
0.0
 40
0.057219
 50
289.954678
 51
70.045322
  0
LINE
  8
OBJ
  6
CONTINUOUS
 10
7.601747
 20
5.951585
 30
0.0
 11
7.761264
 21
5.951585
 31
0.0
  0
LINE
  8
OBJ
  6
CONTINUOUS
 10
7.601747
 20
5.844017
 30
0.0
 11
7.761264
 21
5.844017
 31
0.0
  0
LINE
  8
OBJ
  6
CONTINUOUS
 10
7.601747
 20
5.6241
 30
0.0
 11
7.761264
 21
5.6241
 31
0.0
  0
LINE
  8
OBJ
 10
7.553939
 20
5.782451
 30
0.0
 11
7.601747
 21
5.830259
 31
0.0
  0
LINE
  8
OBJ
  6
CENTER2
 10
7.553939
 20
5.934254
 30
0.0
 11
7.601747
 21
5.934254
 31
0.0
  0
LINE
  8
OBJ
  6
CONTINUOUS
 10
7.601747
 20
5.516532
 30
0.0
 11
7.761264
 21
5.516532
 31
0.0
  0
LINE
  8
OBJ
  6
CENTER2
 10
7.553939
 20
5.533862
 30
0.0
 11
7.601747
 21
5.533862
 31
0.0
  0
LINE
  8
OBJ
 10
7.601747
 20
5.951585
 30
0.0
 11
7.601747
 21
5.516532
 31
0.0
  0
ARC
  8
OBJ
 10
7.741736
 20
5.570316
 30
0.0
 40
0.057219
 50
289.954678
 51
70.045322
  0
LINE
  8
OBJ
 10
7.798955
 20
5.541447
 30
0.0
 11
7.775735
 21
5.524293
 31
0.0
  0
LINE
  8
0
 10
7.621939
 20
5.493637
 30
0.0
 11
7.601939
 21
5.493637
 31
0.0
  0
ARC
  8
0
 10
7.601939
 20
5.541637
 30
0.0
 40
0.048
 50
189.321682
 51
270.0
  0
LINE
  8
0
 10
7.681939
 20
5.120637
 30
0.0
 11
7.814939
 21
5.120637
 31
0.0
  0
LINE
  8
0
 10
7.844939
 20
5.090637
 30
0.0
 11
7.814939
 21
5.120637
 31
0.0
  0
ARC
  8
0
 10
7.621939
 20
3.783637
 30
0.0
 40
0.06
 50
270.0
 51
0.0
  0
LINE
  8
0
 10
7.681939
 20
4.096662
 30
0.0
 11
7.740935
 21
4.096662
 31
0.0
  0
LINE
  8
OBJ
 10
7.798955
 20
3.676086
 30
0.0
 11
7.775735
 21
3.693239
 31
0.0
  0
LINE
  8
OBJ
  6
CONTINUOUS
 10
7.601747
 20
3.701001
 30
0.0
 11
7.761264
 21
3.701001
 31
0.0
  0
LINE
  8
OBJ
  6
CENTER2
 10
7.553939
 20
3.68367
 30
0.0
 11
7.601747
 21
3.68367
 31
0.0
  0
LINE
  8
0
 10
7.621939
 20
3.723637
 30
0.0
 11
7.601939
 21
3.723637
 31
0.0
  0
ARC
  8
0
 10
7.601939
 20
3.675637
 30
0.0
 40
0.048
 50
90.0
 51
170.366205
  0
LINE
  8
0
 10
7.681939
 20
4.096637
 30
0.0
 11
7.814939
 21
4.096637
 31
0.0
  0
LINE
  8
0
 10
7.844939
 20
4.126637
 30
0.0
 11
7.814939
 21
4.096637
 31
0.0
  0
LINE
  8
0
 10
7.681939
 20
5.433637
 30
0.0
 11
7.681939
 21
3.783637
 31
0.0
  0
LINE
  8
0
 10
7.844939
 20
5.090637
 30
0.0
 11
7.844939
 21
4.126637
 31
0.0
  0
LINE
  8
0
 10
7.814939
 20
4.096637
 30
0.0
 11
7.814939
 21
5.120637
 31
0.0
  0
LINE
  8
0
 10
7.212939
 20
4.808661
 30
0.0
 11
7.210939
 21
4.808661
 31
0.0
  0
LINE
  8
0
 10
7.212939
 20
4.808661
 30
0.0
 11
7.210939
 21
4.808661
 31
0.0
  0
LINE
  8
0
 10
7.164277
 20
5.026623
 30
0.0
 11
6.697939
 21
5.180046
 31
0.0
  0
LINE
  8
0
 10
7.131612
 20
4.181335
 30
0.0
 11
6.631612
 21
4.058661
 31
0.0
  0
ARC
  8
0
 10
6.322939
 20
4.276021
 30
0.0
 40
0.375
 50
331.481841
 51
0.0
  0
LINE
  8
0
 10
6.522939
 20
3.858661
 30
0.0
 11
6.65325
 21
4.098482
 31
0.0
  0
ARC
  8
0
 10
7.026769
 20
4.608661
 30
0.0
 40
0.44
 50
283.785061
 51
71.788972
  0
INSERT
  8
0
  2
100HST
 10
7.026769
 20
4.608661
 30
0.0
 41
-0.03937
 42
0.03937
 43
0.03937
  0
LINE
  8
0
 10
9.267939
 20
5.001637
 30
0.0
 11
9.297939
 21
4.971637
 31
0.0
  0
LINE
  8
0
 10
9.297939
 20
4.971637
 30
0.0
 11
9.297939
 21
4.245637
 31
0.0
  0
LINE
  8
0
 10
9.267939
 20
4.215637
 30
0.0
 11
9.267939
 21
5.001637
 31
0.0
  0
TEXT
  8
0
 10
4.292463
 20
10.571292
 30
0.0
 40
0.5
  1
PUMPS
  7
ROMAND
  0
LINE
  8
0
 10
6.522939
 20
6.639661
 30
0.0
 11
6.462939
 21
6.699661
 31
0.0
  0
ARC
  8
0
 10
6.582939
 20
6.442661
 30
0.0
 40
0.06
 50
180.0
 51
270.0
  0
ARC
  8
0
 10
4.702939
 20
7.082027
 30
0.0
 40
0.180135
 50
41.458173
 51
138.541827
  0
LINE
  8
0
 10
4.790349
 20
7.262161
 30
0.0
 11
4.297939
 21
7.262161
 31
0.0
  0
LINE
  8
0
 10
4.913539
 20
6.870661
 30
0.0
 11
4.297939
 21
6.870661
 31
0.0
  0
LINE
  8
0
 10
6.462939
 20
6.699661
 30
0.0
 11
4.297939
 21
6.699661
 31
0.0
  0
LINE
  8
0
 10
3.517939
 20
7.040317
 30
0.0
 11
3.517939
 21
7.015661
 31
0.0
  0
LINE
  8
0
 10
4.567939
 20
6.879661
 30
0.0
 11
4.567939
 21
7.201289
 31
0.0
  0
ARC
  8
0
 10
4.558939
 20
6.879661
 30
0.0
 40
0.009
 50
270.0
 51
0.0
  0
ARC
  8
0
 10
4.576939
 20
6.879661
 30
0.0
 40
0.009
 50
180.0
 51
270.0
  0
ARC
  8
0
 10
4.297939
 20
6.632931
 30
0.0
 40
0.62923
 50
64.589813
 51
90.0
  0
ARC
  8
0
 10
4.018939
 20
6.879661
 30
0.0
 40
0.009
 50
270.0
 51
0.0
  0
ARC
  8
0
 10
4.036939
 20
6.879661
 30
0.0
 40
0.009
 50
180.0
 51
270.0
  0
LINE
  8
0
 10
4.027939
 20
6.879661
 30
0.0
 11
4.027939
 21
7.201289
 31
0.0
  0
ARC
  8
0
 10
3.429939
 20
6.879661
 30
0.0
 40
0.009
 50
180.0
 51
270.0
  0
LINE
  8
0
 10
3.496539
 20
6.699661
 30
0.0
 11
3.496539
 21
6.870661
 31
0.0
  0
LINE
  8
0
 10
3.682339
 20
6.699661
 30
0.0
 11
3.682339
 21
6.870661
 31
0.0
  0
ARC
  8
0
 10
3.748939
 20
6.879661
 30
0.0
 40
0.009
 50
270.0
 51
0.0
  0
ARC
  8
OBJ
 10
3.470322
 20
6.654556
 30
0.0
 40
0.361106
 50
37.579518
 51
97.860037
  0
LINE
  8
OBJ
  6
CONTINUOUS
 10
3.757939
 20
7.015661
 30
0.0
 11
3.420939
 21
7.015661
 31
0.0
  0
ARC
  8
OBJ
 10
3.577939
 20
7.040317
 30
0.0
 40
0.06
 50
100.213656
 51
180.0
  0
ARC
  8
OBJ
 10
4.297939
 20
3.04419
 30
0.0
 40
4.120471
 50
97.530443
 51
100.213656
  0
LINE
  8
0
 10
3.420939
 20
6.879661
 30
0.0
 11
3.420939
 21
7.201289
 31
0.0
  0
LINE
  8
0
 10
3.757939
 20
6.879661
 30
0.0
 11
3.757939
 21
7.201289
 31
0.0
  0
ARC
  8
0
 10
3.159939
 20
6.879661
 30
0.0
 40
0.009
 50
180.0
 51
270.0
  0
ARC
  8
0
 10
3.141939
 20
6.879661
 30
0.0
 40
0.009
 50
270.0
 51
0.0
  0
LINE
  8
0
 10
3.150939
 20
6.879661
 30
0.0
 11
3.150939
 21
7.201289
 31
0.0
  0
LINE
  8
0
 10
3.805529
 20
7.262161
 30
0.0
 11
4.297939
 21
7.262161
 31
0.0
  0
ARC
  8
0
 10
3.285939
 20
7.082027
 30
0.0
 40
0.180135
 50
41.458173
 51
138.541827
  0
LINE
  8
0
 10
3.420939
 20
7.201289
 30
0.0
 11
3.373349
 21
7.262161
 31
0.0
  0
ARC
  8
0
 10
3.892939
 20
7.082027
 30
0.0
 40
0.180135
 50
41.458173
 51
138.541827
  0
LINE
  8
0
 10
3.757939
 20
7.201289
 30
0.0
 11
3.805529
 21
7.262161
 31
0.0
  0
ARC
  8
0
 10
4.297939
 20
6.632931
 30
0.0
 40
0.62923
 50
90.0
 51
115.410187
  0
LINE
  8
0
 10
3.682339
 20
6.870661
 30
0.0
 11
4.297939
 21
6.870661
 31
0.0
  0
LINE
  8
0
 10
4.837939
 20
7.201289
 30
0.0
 11
4.790349
 21
7.262161
 31
0.0
  0
LINE
  8
0
 10
4.837939
 20
6.879661
 30
0.0
 11
4.837939
 21
7.201289
 31
0.0
  0
ARC
  8
OBJ
 10
4.297939
 20
3.04419
 30
0.0
 40
4.120471
 50
79.786344
 51
82.469557
  0
ARC
  8
0
 10
4.846939
 20
6.879661
 30
0.0
 40
0.009
 50
180.0
 51
270.0
  0
LINE
  8
0
 10
4.913539
 20
6.699661
 30
0.0
 11
4.913539
 21
6.870661
 31
0.0
  0
LINE
  8
0
 10
5.099339
 20
6.699661
 30
0.0
 11
5.099339
 21
6.870661
 31
0.0
  0
LINE
  8
0
 10
6.207349
 20
7.262161
 30
0.0
 11
5.222529
 21
7.262161
 31
0.0
  0
ARC
  8
0
 10
5.714939
 20
6.632931
 30
0.0
 40
0.62923
 50
64.589813
 51
115.410187
  0
LINE
  8
0
 10
6.254939
 20
7.201289
 30
0.0
 11
6.207349
 21
7.262161
 31
0.0
  0
ARC
  8
0
 10
6.119939
 20
7.082027
 30
0.0
 40
0.180135
 50
41.458173
 51
138.541827
  0
LINE
  8
0
 10
5.984939
 20
6.879661
 30
0.0
 11
5.984939
 21
7.201289
 31
0.0
  0
LINE
  8
0
 10
6.254939
 20
6.879661
 30
0.0
 11
6.254939
 21
7.201289
 31
0.0
  0
ARC
  8
0
 10
5.993939
 20
6.879661
 30
0.0
 40
0.009
 50
180.0
 51
270.0
  0
ARC
  8
0
 10
5.975939
 20
6.879661
 30
0.0
 40
0.009
 50
270.0
 51
0.0
  0
ARC
  8
0
 10
6.263939
 20
6.879661
 30
0.0
 40
0.009
 50
180.0
 51
270.0
  0
LINE
  8
0
 10
5.174939
 20
7.201289
 30
0.0
 11
5.222529
 21
7.262161
 31
0.0
  0
ARC
  8
0
 10
5.309939
 20
7.082027
 30
0.0
 40
0.180135
 50
41.458173
 51
138.541827
  0
LINE
  8
0
 10
5.444939
 20
6.879661
 30
0.0
 11
5.444939
 21
7.201289
 31
0.0
  0
ARC
  8
0
 10
5.453939
 20
6.879661
 30
0.0
 40
0.009
 50
180.0
 51
270.0
  0
ARC
  8
0
 10
5.435939
 20
6.879661
 30
0.0
 40
0.009
 50
270.0
 51
0.0
  0
LINE
  8
0
 10
5.174939
 20
6.879661
 30
0.0
 11
5.174939
 21
7.201289
 31
0.0
  0
LINE
  8
OBJ
 10
5.077939
 20
7.015661
 30
0.0
 11
5.077939
 21
7.040317
 31
0.0
  0
ARC
  8
0
 10
5.165939
 20
6.879661
 30
0.0
 40
0.009
 50
270.0
 51
0.0
  0
LINE
  8
0
 10
6.330539
 20
6.699661
 30
0.0
 11
6.330539
 21
6.843661
 31
0.0
  0
ARC
  8
0
 10
6.303539
 20
6.843661
 30
0.0
 40
0.027
 50
0.0
 51
90.0
  0
LINE
  8
0
 10
6.303539
 20
6.870661
 30
0.0
 11
5.099339
 21
6.870661
 31
0.0
  0
ARC
  8
OBJ
 10
5.017939
 20
7.040317
 30
0.0
 40
0.06
 50
0.0
 51
79.786344
  0
LINE
  8
OBJ
  6
CONTINUOUS
 10
4.837939
 20
7.015661
 30
0.0
 11
5.174939
 21
7.015661
 31
0.0
  0
ARC
  8
OBJ
 10
5.125557
 20
6.654556
 30
0.0
 40
0.361106
 50
82.139963
 51
142.420482
  0
ARC
  8
0
 10
7.493939
 20
6.283637
 30
0.0
 40
0.06
 50
0.0
 51
90.0
  0
LINE
  8
0
 10
7.493939
 20
6.343637
 30
0.0
 11
7.317939
 21
6.343637
 31
0.0
  0
LINE
  8
0
 10
7.317939
 20
6.343637
 30
0.0
 11
6.944836
 21
6.343637
 31
0.0
  0
LINE
  8
0
 10
6.795954
 20
6.368559
 30
0.0
 11
6.795954
 21
6.343686
 31
0.0
  0
LINE
  8
0
 10
7.091222
 20
6.343686
 30
0.0
 11
6.718078
 21
6.343686
 31
0.0
  0
LINE
  8
0
 10
7.268939
 20
6.343686
 30
0.0
 11
7.091222
 21
6.343686
 31
0.0
  0
LINE
  8
0
 10
6.522939
 20
6.442661
 30
0.0
 11
6.522939
 21
6.639661
 31
0.0
  0
ARC
  8
0
 10
6.521939
 20
6.345304
 30
0.0
 40
0.275
 50
4.850962
 51
84.547201
  0
ARC
  8
0
 10
6.724029
 20
6.443436
 30
0.0
 40
0.099928
 50
254.865235
 51
266.585396
  0
ARC
  8
0
 10
6.662939
 20
6.322661
 30
0.0
 40
0.06
 50
54.314665
 51
90.0
  0
LINE
  8
0
 10
6.662939
 20
6.382661
 30
0.0
 11
6.582939
 21
6.382661
 31
0.0
  0
ARC
  8
0
 10
4.814586
 20
-7.125793
 30
0.0
 40
13.853734
 50
82.81187
 51
82.916622
  0
LINE
  8
0
 10
21.60513
 20
11.466066
 30
0.0
 11
21.60513
 21
11.308477
 31
0.0
  0
INSERT
  8
0
  2
MRAIL
 10
21.60513
 20
11.387272
 30
0.0
  0
ARC
  8
0
 10
14.244435
 20
11.395248
 30
0.0
 40
0.05072
 50
270.0
 51
0.0
  0
LINE
  8
0
 10
14.295155
 20
11.085739
 30
0.0
 11
14.295155
 21
11.817272
 31
0.0
  0
ARC
  8
0
 10
11.344329
 20
11.435272
 30
0.0
 40
0.180135
 50
131.458173
 51
228.541827
  0
LINE
  8
0
 10
11.555694
 20
12.428872
 30
0.0
 11
11.555694
 21
11.251672
 31
0.0
  0
LINE
  8
0
 10
11.164194
 20
12.332681
 30
0.0
 11
11.164194
 21
11.347862
 31
0.0
  0
ARC
  8
0
 10
18.635151
 20
12.494221
 30
0.0
 40
4.270792
 50
342.866494
 51
1.100831
  0
ARC
  8
0
 10
12.575155
 20
11.840272
 30
0.0
 40
0.808
 50
270.0
 51
47.047722
  0
ARC
  8
0
 10
12.575155
 20
11.840272
 30
0.0
 40
0.738862
 50
270.0
 51
55.581237
  0
ARC
  8
0
 10
12.575155
 20
11.840272
 30
0.0
 40
0.738862
 50
124.418763
 51
270.0
  0
POLYLINE
  8
0
 66
     1
 10
0.0
 20
0.0
 30
0.0
 70
     1
  0
VERTEX
  8
0
 10
13.115155
 20
11.840272
 30
0.0
  0
VERTEX
  8
0
 10
12.845155
 20
12.307925
 30
0.0
  0
VERTEX
  8
0
 10
12.305155
 20
12.307925
 30
0.0
  0
VERTEX
  8
0
 10
12.035155
 20
11.840272
 30
0.0
  0
VERTEX
  8
0
 10
12.305155
 20
11.372618
 30
0.0
  0
VERTEX
  8
0
 10
12.845155
 20
11.372618
 30
0.0
  0
SEQEND
  8
0
  0
CIRCLE
  8
0
 10
12.575155
 20
11.840272
 30
0.0
 40
0.6156
  0
ARC
  8
0
 10
12.575155
 20
11.840272
 30
0.0
 40
0.808
 50
132.952278
 51
270.0
  0
LINE
  8
0
 10
11.726694
 20
15.482272
 30
0.0
 11
11.726694
 21
11.032272
 31
0.0
  0
LINE
  8
0
 10
22.388404
 20
11.121792
 30
0.0
 11
22.388404
 21
15.392751
 31
0.0
  0
LINE
  8
0
 10
22.485155
 20
15.776272
 30
0.0
 11
22.485155
 21
10.738272
 31
0.0
  0
LINE
  8
0
 10
22.170155
 20
15.856272
 30
0.0
 11
22.170155
 21
10.658272
 31
0.0
  0
LINE
  8
0
 10
14.585155
 20
10.007272
 30
0.0
 11
14.585155
 21
16.507272
 31
0.0
  0
LINE
  8
0
 10
18.53197
 20
10.51176
 30
0.0
 11
16.113702
 21
10.51176
 31
0.0
  0
LINE
  8
0
 10
16.328798
 20
4.518661
 30
0.0
 11
18.614873
 21
4.518661
 31
0.0
  0
LINE
  8
0
 10
16.328798
 20
4.698661
 30
0.0
 11
18.614873
 21
4.698661
 31
0.0
  0
ARC
  8
0
 10
22.577653
 20
34.394706
 30
0.0
 40
31.820442
 50
257.716839
 51
268.80702
  0
LINE
  8
0
 10
15.855155
 20
2.521161
 30
0.0
 11
21.855155
 21
2.521161
 31
0.0
  0
ARC
  8
0
 10
22.577653
 20
-25.111672
 30
0.0
 40
31.820442
 50
90.733761
 51
98.898158
  0
LINE
  8
0
 10
14.585155
 20
11.039955
 30
0.0
 11
22.170155
 21
10.658272
 31
0.0
  0
LINE
  8
0
 10
13.353615
 20
6.639661
 30
0.0
 11
13.353615
 21
5.698661
 31
0.0
  0
LINE
  8
0
 10
11.796694
 20
6.639661
 30
0.0
 11
11.796694
 21
5.401352
 31
0.0
  0
ARC
  8
0
 10
12.575155
 20
5.792661
 30
0.0
 40
0.5
 50
0.0
 51
180.0
  0
LINE
  8
0
 10
15.76913
 20
6.608661
 30
0.0
 11
15.76913
 21
6.052189
 31
0.0
  0
ARC
  8
0
 10
16.025594
 20
9.519799
 30
0.0
 40
3.584737
 50
266.66035
 51
294.839996
  0
LINE
  8
0
 10
14.393238
 20
4.050471
 30
0.0
 11
13.975155
 21
4.050471
 31
0.0
  0
LINE
  8
0
 10
13.975155
 20
5.298661
 30
0.0
 11
14.245155
 21
5.298661
 31
0.0
  0
LINE
  8
0
 10
13.603615
 20
5.448661
 30
0.0
 11
14.246833
 21
5.448661
 31
0.0
  0
CIRCLE
  8
0
 10
13.675155
 20
3.533661
 30
0.0
 40
0.59
  0
LINE
  8
0
 10
13.085155
 20
3.533661
 30
0.0
 11
13.044047
 21
3.791161
 31
0.0
  0
LINE
  8
0
 10
11.555694
 20
4.135761
 30
0.0
 11
11.555694
 21
2.931561
 31
0.0
  0
LINE
  8
0
 10
13.075155
 20
4.027351
 30
0.0
 11
13.085155
 21
3.533661
 31
0.0
  0
LINE
  8
0
 10
12.406694
 20
3.818158
 30
0.0
 11
12.406694
 21
2.88219
 31
0.0
  0
CIRCLE
  8
0
 10
13.675155
 20
3.533661
 30
0.0
 40
0.415
  0
CIRCLE
  8
0
 10
13.675155
 20
3.533661
 30
0.0
 40
0.355
  0
LINE
  8
0
 10
11.726694
 20
5.279189
 30
0.0
 11
11.726694
 21
2.918661
 31
0.0
  0
ARC
  8
0
 10
11.793424
 20
3.520161
 30
0.0
 40
0.62923
 50
154.589813
 51
205.410187
  0
LINE
  8
0
 10
11.164194
 20
3.027752
 30
0.0
 11
11.164194
 21
4.012571
 31
0.0
  0
ARC
  8
0
 10
12.089883
 20
1.251843
 30
0.0
 40
1.60645
 50
80.784694
 51
99.215306
  0
LINE
  8
0
 10
11.846694
 20
2.796093
 30
0.0
 11
12.325411
 21
2.796093
 31
0.0
  0
ARC
  8
0
 10
11.792097
 20
2.801209
 30
0.0
 40
0.03
 50
24.502587
 51
78.172183
  0
ARC
  8
0
 10
11.846694
 20
2.826093
 30
0.0
 40
0.03
 50
204.502587
 51
270.0
  0
ARC
  8
0
 10
11.816694
 20
2.918661
 30
0.0
 40
0.09
 50
180.0
 51
258.172183
  0
ARC
  8
0
 10
11.546694
 20
2.971161
 30
0.0
 40
0.009
 50
0.0
 51
90.0
  0
ARC
  8
0
 10
11.546694
 20
3.259161
 30
0.0
 40
0.009
 50
270.0
 51
0.0
  0
ARC
  8
0
 10
11.546694
 20
3.241161
 30
0.0
 40
0.009
 50
0.0
 51
90.0
  0
LINE
  8
0
 10
11.555694
 20
2.931561
 30
0.0
 11
11.726694
 21
2.931561
 31
0.0
  0
LINE
  8
0
 10
11.225066
 20
2.980161
 30
0.0
 11
11.164194
 21
3.027752
 31
0.0
  0
ARC
  8
0
 10
11.344329
 20
3.115161
 30
0.0
 40
0.180135
 50
131.458173
 51
228.541827
  0
LINE
  8
0
 10
11.546694
 20
3.250161
 30
0.0
 11
11.225066
 21
3.250161
 31
0.0
  0
LINE
  8
0
 10
11.546694
 20
2.980161
 30
0.0
 11
11.225066
 21
2.980161
 31
0.0
  0
ARC
  8
0
 10
13.320155
 20
2.989166
 30
0.0
 40
0.06
 50
0.0
 51
56.896451
  0
ARC
  8
0
 10
14.030155
 20
2.989166
 30
0.0
 40
0.06
 50
123.103549
 51
180.0
  0
ARC
  8
0
 10
13.910155
 20
2.856093
 30
0.0
 40
0.06
 50
270.0
 51
0.0
  0
ARC
  8
0
 10
13.440155
 20
2.856093
 30
0.0
 40
0.06
 50
180.0
 51
270.0
  0
LINE
  8
0
 10
13.970155
 20
2.989166
 30
0.0
 11
13.970155
 21
2.856093
 31
0.0
  0
LINE
  8
0
 10
13.380155
 20
2.989166
 30
0.0
 11
13.380155
 21
2.856093
 31
0.0
  0
LINE
  8
0
 10
13.440155
 20
2.796093
 30
0.0
 11
13.910155
 21
2.796093
 31
0.0
  0
ARC
  8
0
 10
12.380456
 20
2.802216
 30
0.0
 40
0.03
 50
106.157023
 51
156.549766
  0
ARC
  8
0
 10
12.325411
 20
2.826093
 30
0.0
 40
0.03
 50
270.0
 51
336.549766
  0
ARC
  8
0
 10
13.217594
 20
3.030632
 30
0.0
 40
0.09
 50
47.710055
 51
181.87539
  0
ARC
  8
0
 10
12.355411
 20
2.888661
 30
0.0
 40
0.06
 50
286.157023
 51
338.026211
  0
ARC
  8
0
 10
13.187707
 20
3.103668
 30
0.0
 40
0.06
 50
41.416584
 51
180.0
  0
LINE
  8
0
 10
13.127707
 20
3.02376
 30
0.0
 11
13.127707
 21
3.103668
 31
0.0
  0
ARC
  8
0
 10
13.007707
 20
3.02376
 30
0.0
 40
0.12
 50
270.0
 51
1.87539
  0
ARC
  8
0
 10
12.466694
 20
2.84376
 30
0.0
 40
0.06
 50
90.0
 51
158.026211
  0
LINE
  8
0
 10
12.466694
 20
2.90376
 30
0.0
 11
13.007707
 21
2.90376
 31
0.0
  0
LINE
  8
0
 10
12.174585
 20
3.878158
 30
0.0
 11
12.346694
 21
3.878158
 31
0.0
  0
ARC
  8
0
 10
12.575155
 20
5.792661
 30
0.0
 40
0.568196
 50
208.360313
 51
331.639687
  0
ARC
  8
0
 10
12.174585
 20
3.938158
 30
0.0
 40
0.06
 50
213.760229
 51
270.0
  0
ARC
  8
0
 10
11.546694
 20
4.069161
 30
0.0
 40
0.009
 50
270.0
 51
0.0
  0
ARC
  8
0
 10
12.369146
 20
4.06821
 30
0.0
 40
0.294024
 50
180.858173
 51
213.760229
  0
ARC
  8
0
 10
11.720045
 20
5.032152
 30
0.0
 40
0.358292
 50
21.83808
 51
72.561373
  0
ARC
  8
0
 10
11.736694
 20
5.401352
 30
0.0
 40
0.06
 50
326.011951
 51
0.0
  0
LINE
  8
0
 10
11.726694
 20
5.279189
 30
0.0
 11
11.786443
 21
5.367811
 31
0.0
  0
LINE
  8
0
 10
12.075155
 20
5.792661
 30
0.0
 11
12.075155
 21
4.027351
 31
0.0
  0
LINE
  8
0
 10
11.726694
 20
4.135761
 30
0.0
 11
11.555694
 21
4.135761
 31
0.0
  0
LINE
  8
0
 10
11.546694
 20
3.790161
 30
0.0
 11
11.225066
 21
3.790161
 31
0.0
  0
ARC
  8
0
 10
11.546694
 20
3.781161
 30
0.0
 40
0.009
 50
0.0
 51
90.0
  0
ARC
  8
0
 10
11.546694
 20
3.799161
 30
0.0
 40
0.009
 50
270.0
 51
0.0
  0
LINE
  8
0
 10
11.225066
 20
4.060161
 30
0.0
 11
11.164194
 21
4.012571
 31
0.0
  0
LINE
  8
0
 10
11.546694
 20
4.060161
 30
0.0
 11
11.225066
 21
4.060161
 31
0.0
  0
ARC
  8
0
 10
11.344329
 20
3.925161
 30
0.0
 40
0.180135
 50
131.458173
 51
228.541827
  0
ARC
  8
0
 10
12.466694
 20
3.781703
 30
0.0
 40
0.06
 50
90.0
 51
180.0
  0
ARC
  8
0
 10
12.346694
 20
3.818158
 30
0.0
 40
0.06
 50
0.0
 51
90.0
  0
LINE
  8
0
 10
12.466694
 20
3.841703
 30
0.0
 11
12.984798
 21
3.841703
 31
0.0
  0
ARC
  8
0
 10
12.984798
 20
3.781703
 30
0.0
 40
0.06
 50
9.07011
 51
90.0
  0
ARC
  8
0
 10
12.975724
 20
3.901703
 30
0.0
 40
0.06
 50
270.0
 51
326.239771
  0
CIRCLE
  8
0
 10
12.575155
 20
5.792661
 30
0.0
 40
0.335
  0
CIRCLE
  8
0
 10
12.575155
 20
5.792661
 30
0.0
 40
0.28
  0
ARC
  8
0
 10
13.975155
 20
5.238661
 30
0.0
 40
0.06
 50
90.0
 51
180.0
  0
ARC
  8
0
 10
13.975155
 20
4.110471
 30
0.0
 40
0.06
 50
180.0
 51
270.0
  0
LINE
  8
0
 10
13.915155
 20
5.238661
 30
0.0
 11
13.915155
 21
4.095216
 31
0.0
  0
ARC
  8
0
 10
13.603615
 20
5.698661
 30
0.0
 40
0.25
 50
180.0
 51
270.0
  0
LINE
  8
0
 10
13.460825
 20
4.923621
 30
0.0
 11
13.815155
 21
4.923621
 31
0.0
  0
LINE
  8
0
 10
13.460825
 20
4.923621
 30
0.0
 11
13.421455
 21
4.884251
 31
0.0
  0
LINE
  8
0
 10
13.815155
 20
5.023621
 30
0.0
 11
13.915155
 21
5.023621
 31
0.0
  0
LINE
  8
0
 10
13.915155
 20
4.742602
 30
0.0
 11
13.815155
 21
4.579593
 31
0.0
  0
LINE
  8
0
 10
13.421455
 20
4.333071
 30
0.0
 11
13.460825
 21
4.293701
 31
0.0
  0
LINE
  8
0
 10
13.460825
 20
4.293701
 30
0.0
 11
13.815154
 21
4.293701
 31
0.0
  0
LINE
  8
0
 10
13.815155
 20
4.193701
 30
0.0
 11
13.915155
 21
4.193701
 31
0.0
  0
LINE
  8
0
 10
13.460825
 20
4.293701
 30
0.0
 11
13.460825
 21
4.923621
 31
0.0
  0
LINE
  8
0
 10
13.915155
 20
4.193701
 30
0.0
 11
13.915155
 21
5.023621
 31
0.0
  0
LINE
  8
0
 10
13.815155
 20
4.193701
 30
0.0
 11
13.815155
 21
5.023621
 31
0.0
  0
LINE
  8
0
 10
13.421455
 20
4.333071
 30
0.0
 11
13.421455
 21
4.884251
 31
0.0
  0
ARC
  8
0
 10
12.781163
 20
4.031754
 30
0.0
 40
0.294024
 50
326.239771
 51
359.141827
  0
LINE
  8
0
 10
13.075155
 20
5.792661
 30
0.0
 11
13.075155
 21
4.027351
 31
0.0
  0
ARC
  8
0
 10
14.590036
 20
3.58093
 30
0.0
 40
0.04
 50
0.0
 51
63.960806
  0
LINE
  8
0
 10
14.630036
 20
3.58093
 30
0.0
 11
14.630036
 21
4.083661
 31
0.0
  0
ARC
  8
0
 10
14.386915
 20
3.548661
 30
0.0
 40
0.12
 50
90.0
 51
179.01171
  0
LINE
  8
0
 10
14.265155
 20
3.447661
 30
0.0
 11
14.273519
 21
3.932541
 31
0.0
  0
LINE
  8
0
 10
15.855155
 20
1.873161
 30
0.0
 11
16.935155
 21
1.873161
 31
0.0
  0
LINE
  8
0
 10
14.630036
 20
3.58093
 30
0.0
 11
14.630036
 21
3.548057
 31
0.0
  0
ARC
  8
0
 10
14.670036
 20
3.548057
 30
0.0
 40
0.04
 50
180.0
 51
255.592288
  0
ARC
  8
0
 10
15.815155
 20
3.194506
 30
0.0
 40
0.04
 50
0.0
 51
77.745538
  0
LINE
  8
0
 10
15.855155
 20
2.521161
 30
0.0
 11
15.855155
 21
1.873161
 31
0.0
  0
ARC
  8
0
 10
15.795155
 20
3.2441
 30
0.0
 40
0.06
 50
0.0
 51
77.569375
  0
LINE
  8
0
 10
15.855155
 20
3.2441
 30
0.0
 11
15.855155
 21
1.873161
 31
0.0
  0
ARC
  8
0
 10
22.577653
 20
34.328994
 30
0.0
 40
31.820442
 50
255.592288
 51
257.745538
  0
CIRCLE
  8
0
 10
16.69313
 20
2.168661
 30
0.0
 40
0.175
  0
LINE
  8
0
 10
16.935155
 20
1.953161
 30
0.0
 11
16.935155
 21
1.873161
 31
0.0
  0
LINE
  8
0
 10
16.935155
 20
1.953161
 30
0.0
 11
17.503155
 21
2.521161
 31
0.0
  0
POLYLINE
  8
0
 66
     1
 10
0.0
 20
0.0
 30
0.0
  0
VERTEX
  8
0
 10
16.504346
 20
4.72383
 30
0.0
 42
0.053685
  0
VERTEX
  8
0
 10
16.471281
 20
4.80056
 30
0.0
 42
0.106369
  0
VERTEX
  8
0
 10
16.312052
 20
4.979892
 30
0.0
 42
0.084666
 70
     2
 50
143.745109
  0
VERTEX
  8
0
 10
16.088625
 20
5.09166
 30
0.0
 42
0.073861
 50
143.745109
  0
VERTEX
  8
0
 10
15.805848
 20
5.133661
 30
0.0
 42
0.073861
  0
SEQEND
  8
0
  0
POLYLINE
  8
0
 66
     1
 10
0.0
 20
0.0
 30
0.0
  0
VERTEX
  8
0
 10
15.805848
 20
4.083661
 30
0.0
 42
0.073861
  0
VERTEX
  8
0
 10
16.088625
 20
4.125663
 30
0.0
 42
0.084666
  0
VERTEX
  8
0
 10
16.312052
 20
4.23743
 30
0.0
 42
0.106369
 70
     2
 50
36.254891
  0
VERTEX
  8
0
 10
16.471281
 20
4.416763
 30
0.0
 42
0.053685
 50
36.254891
  0
VERTEX
  8
0
 10
16.504346
 20
4.493493
 30
0.0
 42
0.129249
  0
SEQEND
  8
0
  0
ARC
  8
0
 10
14.625155
 20
3.65281
 30
0.0
 40
0.04
 50
180.0
 51
243.960806
  0
LINE
  8
0
 10
14.630036
 20
5.636392
 30
0.0
 11
14.630036
 21
5.133661
 31
0.0
  0
LINE
  8
0
 10
14.585155
 20
4.083661
 30
0.0
 11
15.805848
 21
4.083661
 31
0.0
  0
LINE
  8
0
 10
14.585155
 20
5.133661
 30
0.0
 11
15.805848
 21
5.133661
 31
0.0
  0
ARC
  8
0
 10
14.670036
 20
5.669266
 30
0.0
 40
0.04
 50
104.407712
 51
180.0
  0
ARC
  8
0
 10
14.590036
 20
5.636392
 30
0.0
 40
0.04
 50
296.039194
 51
0.0
  0
ARC
  8
0
 10
14.625155
 20
5.564513
 30
0.0
 40
0.04
 50
116.039194
 51
180.0
  0
LINE
  8
0
 10
14.630036
 20
5.636392
 30
0.0
 11
14.630036
 21
5.669266
 31
0.0
  0
ARC
  8
0
 10
14.365155
 20
5.290008
 30
0.0
 40
0.06
 50
180.0
 51
270.0
  0
ARC
  8
0
 10
14.246833
 20
5.508661
 30
0.0
 40
0.06
 50
270.0
 51
350.405932
  0
ARC
  8
0
 10
14.365155
 20
5.488661
 30
0.0
 40
0.06
 50
90.0
 51
170.405932
  0
LINE
  8
0
 10
14.305155
 20
5.290008
 30
0.0
 11
14.305155
 21
5.494569
 31
0.0
  0
ARC
  8
0
 10
14.245155
 20
5.358661
 30
0.0
 40
0.06
 50
270.0
 51
0.0
  0
LINE
  8
0
 10
14.365155
 20
5.230008
 30
0.0
 11
14.585155
 21
5.230008
 31
0.0
  0
LINE
  8
0
 10
14.386915
 20
3.668661
 30
0.0
 11
14.585155
 21
3.668661
 31
0.0
  0
LINE
  8
0
 10
14.365155
 20
5.548661
 30
0.0
 11
14.585155
 21
5.548661
 31
0.0
  0
ARC
  8
0
 10
14.393501
 20
3.930471
 30
0.0
 40
0.12
 50
90.0
 51
179.01171
  0
ARC
  8
0
 10
22.577653
 20
-25.111672
 30
0.0
 40
31.820442
 50
102.496643
 51
104.407712
  0
LINE
  8
0
 10
14.585155
 20
5.564513
 30
0.0
 11
14.585155
 21
3.65281
 31
0.0
  0
ARC
  8
0
 10
15.66913
 20
6.052189
 30
0.0
 40
0.1
 50
281.619765
 51
0.0
  0
POLYLINE
  8
0
 66
     1
 10
0.0
 20
0.0
 30
0.0
  0
VERTEX
  8
0
 10
16.328798
 20
4.698661
 30
0.0
 42
0.057659
  0
VERTEX
  8
0
 10
16.264909
 20
4.691269
 30
0.0
 42
0.071332
  0
VERTEX
  8
0
 10
16.216408
 20
4.672301
 30
0.0
 42
0.1064
 70
     2
 50
209.52021
  0
VERTEX
  8
0
 10
16.180085
 20
4.639976
 30
0.0
 42
0.159217
 50
209.52021
  0
VERTEX
  8
0
 10
16.169854
 20
4.608661
 30
0.0
 42
0.159217
  0
VERTEX
  8
0
 10
16.180085
 20
4.577346
 30
0.0
 42
0.1064
  0
VERTEX
  8
0
 10
16.216408
 20
4.545022
 30
0.0
 42
0.071332
 70
     2
 50
330.47979
  0
VERTEX
  8
0
 10
16.264909
 20
4.526054
 30
0.0
 42
0.057659
 50
330.47979
  0
VERTEX
  8
0
 10
16.328798
 20
4.518661
 30
0.0
 42
0.057659
  0
SEQEND
  8
0
  0
ARC
  8
0
 10
16.541495
 20
4.738661
 30
0.0
 40
0.04
 50
201.763963
 51
270.0
  0
ARC
  8
0
 10
16.541495
 20
4.478661
 30
0.0
 40
0.04
 50
90.0
 51
158.236037
  0
LINE
  8
0
 10
13.965874
 20
11.344528
 30
0.0
 11
14.244435
 21
11.344528
 31
0.0
  0
LINE
  8
0
 10
15.34235
 20
10.007272
 30
0.0
 11
13.915155
 21
10.007272
 31
0.0
  0
LINE
  8
0
 10
11.856694
 20
6.699661
 30
0.0
 11
13.293615
 21
6.699661
 31
0.0
  0
LINE
  8
0
 10
11.796694
 20
6.639661
 30
0.0
 11
13.353615
 21
6.639661
 31
0.0
  0
ARC
  8
0
 10
12.170155
 20
7.082677
 30
0.0
 40
0.180135
 50
41.458173
 51
138.541827
  0
LINE
  8
0
 10
13.190755
 20
6.871311
 30
0.0
 11
11.959555
 21
6.871311
 31
0.0
  0
LINE
  8
0
 10
13.067564
 20
7.262811
 30
0.0
 11
12.082745
 21
7.262811
 31
0.0
  0
LINE
  8
0
 10
11.796694
 20
6.639661
 30
0.0
 11
11.856694
 21
6.699661
 31
0.0
  0
ARC
  8
0
 10
12.026155
 20
6.880311
 30
0.0
 40
0.009
 50
270.0
 51
0.0
  0
LINE
  8
0
 10
12.035155
 20
6.880311
 30
0.0
 11
12.035155
 21
7.201939
 31
0.0
  0
LINE
  8
0
 10
12.035155
 20
7.201939
 30
0.0
 11
12.082745
 21
7.262811
 31
0.0
  0
LINE
  8
0
 10
11.959555
 20
6.700311
 30
0.0
 11
11.959555
 21
6.871311
 31
0.0
  0
LINE
  8
0
 10
13.353615
 20
6.639661
 30
0.0
 11
13.293615
 21
6.699661
 31
0.0
  0
LINE
  8
0
 10
13.190755
 20
6.700311
 30
0.0
 11
13.190755
 21
6.871311
 31
0.0
  0
ARC
  8
0
 10
13.124155
 20
6.880311
 30
0.0
 40
0.009
 50
180.0
 51
270.0
  0
ARC
  8
0
 10
12.836155
 20
6.880311
 30
0.0
 40
0.009
 50
270.0
 51
0.0
  0
ARC
  8
0
 10
12.854155
 20
6.880311
 30
0.0
 40
0.009
 50
180.0
 51
270.0
  0
LINE
  8
0
 10
13.115155
 20
6.880311
 30
0.0
 11
13.115155
 21
7.201939
 31
0.0
  0
LINE
  8
0
 10
12.845155
 20
6.880311
 30
0.0
 11
12.845155
 21
7.201939
 31
0.0
  0
ARC
  8
0
 10
12.980155
 20
7.082677
 30
0.0
 40
0.180135
 50
41.458173
 51
138.541827
  0
LINE
  8
0
 10
13.115155
 20
7.201939
 30
0.0
 11
13.067564
 21
7.262811
 31
0.0
  0
ARC
  8
0
 10
12.296155
 20
6.880311
 30
0.0
 40
0.009
 50
270.0
 51
0.0
  0
ARC
  8
0
 10
12.314155
 20
6.880311
 30
0.0
 40
0.009
 50
180.0
 51
270.0
  0
LINE
  8
0
 10
12.305155
 20
6.880311
 30
0.0
 11
12.305155
 21
7.201939
 31
0.0
  0
ARC
  8
0
 10
12.575155
 20
6.633581
 30
0.0
 40
0.62923
 50
64.589813
 51
115.410187
  0
LINE
  8
0
 10
12.045155
 20
10.827272
 30
0.0
 11
13.105155
 21
10.827272
 31
0.0
  0
LINE
  8
0
 10
12.053274
 20
10.887272
 30
0.0
 11
13.097035
 21
10.887272
 31
0.0
  0
ARC
  8
0
 10
12.113274
 20
10.887272
 30
0.0
 40
0.06
 50
180.0
 51
270.0
  0
LINE
  8
0
 10
11.555694
 20
11.300272
 30
0.0
 11
11.225066
 21
11.300272
 31
0.0
  0
LINE
  8
0
 10
11.225066
 20
11.300272
 30
0.0
 11
11.164194
 21
11.347862
 31
0.0
  0
LINE
  8
0
 10
11.555694
 20
11.251672
 30
0.0
 11
11.726694
 21
11.251672
 31
0.0
  0
LINE
  8
0
 10
11.726694
 20
11.032272
 30
0.0
 11
11.985155
 21
11.032272
 31
0.0
  0
ARC
  8
0
 10
12.045155
 20
10.887272
 30
0.0
 40
0.06
 50
180.0
 51
270.0
  0
LINE
  8
0
 10
11.985155
 20
10.887272
 30
0.0
 11
11.985155
 21
11.288217
 31
0.0
  0
ARC
  8
0
 10
13.965874
 20
11.293808
 30
0.0
 40
0.05072
 50
90.0
 51
180.0
  0
ARC
  8
0
 10
13.861254
 20
10.923371
 30
0.0
 40
0.053901
 50
0.0
 51
90.0
  0
LINE
  8
OBJ
 10
13.861254
 20
10.977272
 30
0.0
 11
13.165155
 21
10.977272
 31
0.0
  0
LINE
  8
0
 10
13.915155
 20
10.007272
 30
0.0
 11
13.915155
 21
11.293808
 31
0.0
  0
ARC
  8
0
 10
13.037035
 20
10.887272
 30
0.0
 40
0.06
 50
270.0
 51
360.0
  0
ARC
  8
0
 10
13.105155
 20
10.887272
 30
0.0
 40
0.06
 50
270.0
 51
0.0
  0
POINT
  8
DEFPOINTS
  6
BYBLOCK
 62
     0
 10
13.810155
 20
10.127272
 30
0.0
  0
LINE
  8
0
 10
13.815155
 20
10.086412
 30
0.0
 11
13.915155
 21
10.086412
 31
0.0
  0
LINE
  8
0
 10
13.460825
 20
10.186412
 30
0.0
 11
13.815154
 21
10.186412
 31
0.0
  0
LINE
  8
0
 10
13.915155
 20
10.635312
 30
0.0
 11
13.815155
 21
10.472303
 31
0.0
  0
LINE
  8
0
 10
13.421455
 20
10.225782
 30
0.0
 11
13.421455
 21
10.776962
 31
0.0
  0
LINE
  8
0
 10
13.815155
 20
10.916332
 30
0.0
 11
13.915155
 21
10.916332
 31
0.0
  0
LINE
  8
0
 10
13.460825
 20
10.816332
 30
0.0
 11
13.421455
 21
10.776962
 31
0.0
  0
LINE
  8
0
 10
13.460825
 20
10.816332
 30
0.0
 11
13.815155
 21
10.816332
 31
0.0
  0
LINE
  8
0
 10
13.165155
 20
10.887272
 30
0.0
 11
13.165155
 21
11.288217
 31
0.0
  0
LINE
  8
0
 10
13.815155
 20
10.086412
 30
0.0
 11
13.815155
 21
10.916332
 31
0.0
  0
LINE
  8
0
 10
13.915155
 20
10.086412
 30
0.0
 11
13.915155
 21
10.916332
 31
0.0
  0
LINE
  8
0
 10
13.460825
 20
10.186412
 30
0.0
 11
13.460825
 21
10.816332
 31
0.0
  0
LINE
  8
0
 10
13.421455
 20
10.225782
 30
0.0
 11
13.460825
 21
10.186412
 31
0.0
  0
ARC
  8
OBJ
 10
15.827513
 20
6.607556
 30
0.0
 40
0.361106
 50
40.184879
 51
139.815121
  0
LINE
  8
OBJ
  6
CONTINUOUS
 10
15.675132
 20
6.968661
 30
0.0
 11
16.103385
 21
6.968661
 31
0.0
  0
LINE
  8
OBJ
  6
CONTINUOUS
 10
15.55164
 20
6.608661
 30
0.0
 11
17.75862
 21
6.608661
 31
0.0
  0
LINE
  8
0
 10
15.76913
 20
6.608661
 30
0.0
 11
17.54113
 21
6.608661
 31
0.0
  0
ARC
  8
OBJ
 10
16.65513
 20
2.99719
 30
0.0
 40
4.120471
 50
79.786344
 51
100.213656
  0
LINE
  8
OBJ
 10
15.55164
 20
6.840561
 30
0.0
 11
15.55164
 21
6.608661
 31
0.0
  0
LINE
  8
OBJ
 10
15.55164
 20
6.840561
 30
0.0
 11
15.675132
 21
6.968661
 31
0.0
  0
LINE
  8
OBJ
 10
15.83313
 20
6.608661
 30
0.0
 11
15.83313
 21
6.607661
 31
0.0
  0
ARC
  8
OBJ
 10
15.93513
 20
6.993317
 30
0.0
 40
0.06
 50
100.213656
 51
180.0
  0
LINE
  8
OBJ
 10
15.87513
 20
6.968661
 30
0.0
 11
15.87513
 21
6.993317
 31
0.0
  0
LINE
  8
OBJ
 10
16.103385
 20
6.840561
 30
0.0
 11
16.103385
 21
6.608661
 31
0.0
  0
LINE
  8
OBJ
 10
17.206875
 20
6.840561
 30
0.0
 11
17.206875
 21
6.608661
 31
0.0
  0
LINE
  8
OBJ
 10
17.47713
 20
6.608661
 30
0.0
 11
17.47713
 21
6.607661
 31
0.0
  0
LINE
  8
OBJ
 10
17.43513
 20
6.968661
 30
0.0
 11
17.43513
 21
6.993317
 31
0.0
  0
ARC
  8
OBJ
 10
17.37513
 20
6.993317
 30
0.0
 40
0.06
 50
0.0
 51
79.786344
  0
LINE
  8
OBJ
 10
17.75862
 20
6.840561
 30
0.0
 11
17.75862
 21
6.608661
 31
0.0
  0
LINE
  8
OBJ
 10
17.75862
 20
6.840561
 30
0.0
 11
17.635129
 21
6.968661
 31
0.0
  0
LINE
  8
OBJ
  6
CONTINUOUS
 10
17.206875
 20
6.968661
 30
0.0
 11
17.635129
 21
6.968661
 31
0.0
  0
ARC
  8
OBJ
 10
17.482748
 20
6.607556
 30
0.0
 40
0.361106
 50
40.184879
 51
139.815121
  0
ARC
  8
0
 10
17.64113
 20
6.424738
 30
0.0
 40
0.1
 50
180.0
 51
279.408996
  0
LINE
  8
0
 10
17.54113
 20
6.608661
 30
0.0
 11
17.54113
 21
6.424738
 31
0.0
  0
LINE
  8
OBJ
  6
CONTINUOUS
 10
16.103385
 20
6.968661
 30
0.0
 11
17.206875
 21
6.968661
 31
0.0
  0
ARC
  8
OBJ
 10
16.65513
 20
5.716389
 30
0.0
 40
1.252272
 50
63.858144
 51
116.141856
  0
LINE
  8
0
 10
16.485074
 20
10.87054
 30
0.0
 11
15.678726
 21
10.137338
 31
0.0
  0
ARC
  8
0
 10
14.244435
 20
11.085739
 30
0.0
 40
0.05072
 50
270.0
 51
0.0
  0
ARC
  8
0
 10
14.244435
 20
11.085739
 30
0.0
 40
0.05072
 50
270.0
 51
0.0
  0
ARC
  8
0
 10
15.34235
 20
10.507272
 30
0.0
 40
0.5
 50
270.0
 51
312.279853
  0
ARC
  8
0
 10
16.113702
 20
10.45176
 30
0.0
 40
0.06
 50
90.0
 51
132.279853
  0
ARC
  8
0
 10
16.653262
 20
10.685573
 30
0.0
 40
0.25
 50
86.852343
 51
132.279853
  0
LINE
  8
0
 10
22.475155
 20
2.591161
 30
0.0
 11
22.475155
 21
6.626161
 31
0.0
  0
ARC
  8
0
 10
11.112985
 20
3.91881
 30
0.0
 40
11.844124
 50
358.959164
 51
11.479697
  0
LINE
  8
0
 10
22.378404
 20
6.242641
 30
0.0
 11
22.378404
 21
2.974682
 31
0.0
  0
ARC
  8
OBJ
 10
22.662951
 20
6.167419
 30
0.0
 40
0.057219
 50
289.954678
 51
70.045322
  0
LINE
  8
OBJ
 10
22.720171
 20
6.13855
 30
0.0
 11
22.720171
 21
6.221203
 31
0.0
  0
LINE
  8
0
 10
22.475155
 20
6.130965
 30
0.0
 11
22.475155
 21
6.531357
 31
0.0
  0
LINE
  8
OBJ
 10
22.522963
 20
6.113635
 30
0.0
 11
22.522963
 21
6.548688
 31
0.0
  0
LINE
  8
0
 10
22.170155
 20
6.706161
 30
0.0
 11
22.170155
 21
2.511161
 31
0.0
  0
CIRCLE
  8
0
 10
20.38513
 20
4.608661
 30
0.0
 40
1.735024
  0
CIRCLE
  8
0
 10
21.60513
 20
2.168661
 30
0.0
 40
0.175
  0
LINE
  8
0
 10
20.775155
 20
1.873161
 30
0.0
 11
21.855155
 21
1.873161
 31
0.0
  0
CIRCLE
  8
0
 10
21.42882
 20
3.564972
 30
0.0
 40
0.225167
  0
INSERT
  8
0
  2
CVRSCR
 10
21.42882
 20
3.564972
 30
0.0
 50
180.0
  0
CIRCLE
  8
0
 10
19.341441
 20
3.564972
 30
0.0
 40
0.225167
  0
INSERT
  8
0
  2
CVRSCR
 10
19.341441
 20
3.564972
 30
0.0
 50
90.0
  0
LINE
  8
0
 10
20.775155
 20
1.953161
 30
0.0
 11
20.207155
 21
2.521161
 31
0.0
  0
LINE
  8
0
 10
20.775155
 20
1.953161
 30
0.0
 11
20.775155
 21
1.873161
 31
0.0
  0
CIRCLE
  8
0
 10
20.38513
 20
4.608661
 30
0.0
 40
0.885024
  0
ARC
  8
0
 10
18.614873
 20
4.478661
 30
0.0
 40
0.04
 50
4.200014
 51
90.0
  0
ARC
  8
0
 10
18.614873
 20
4.738661
 30
0.0
 40
0.04
 50
270.0
 51
355.799986
  0
INSERT
  8
0
  2
CVRSCR
 10
19.341441
 20
5.652351
 30
0.0
  0
CIRCLE
  8
0
 10
19.341441
 20
5.652351
 30
0.0
 40
0.225167
  0
LINE
  8
0
 10
20.542106
 20
4.844686
 30
0.0
 11
20.228106
 21
4.844686
 31
0.0
  0
LINE
  8
0
 10
20.542106
 20
4.968976
 30
0.0
 11
20.542106
 21
4.844686
 31
0.0
  0
LINE
  8
0
 10
20.228106
 20
4.968955
 30
0.0
 11
20.228106
 21
4.844686
 31
0.0
  0
CIRCLE
  8
0
 10
21.42882
 20
5.652351
 30
0.0
 40
0.225167
  0
INSERT
  8
0
  2
CVRSCR
 10
21.42882
 20
5.652351
 30
0.0
 50
270.0
  0
CIRCLE
  8
0
 10
20.38513
 20
4.608661
 30
0.0
 40
0.512024
  0
CIRCLE
  8
0
 10
20.38513
 20
4.608661
 30
0.0
 40
0.393024
  0
LINE
  8
0
 10
22.735155
 20
3.633661
 30
0.0
 11
22.735155
 21
2.664514
 31
0.0
  0
ARC
  8
0
 10
22.577653
 20
34.328994
 30
0.0
 40
31.820442
 50
268.698959
 51
269.266239
  0
ARC
  8
0
 10
21.915155
 20
2.521161
 30
0.0
 40
0.06
 50
90.0
 51
180.0
  0
LINE
  8
0
 10
21.855155
 20
2.521161
 30
0.0
 11
21.855155
 21
1.873161
 31
0.0
  0
LINE
  8
OBJ
 10
22.964337
 20
3.423407
 30
0.0
 11
22.920695
 21
3.455648
 31
0.0
  0
ARC
  8
OBJ
 10
22.856792
 20
3.369147
 30
0.0
 40
0.107545
 50
289.954678
 51
70.045322
  0
ARC
  8
OBJ
 10
22.627457
 20
3.06139
 30
0.0
 40
0.33688
 50
322.158498
 51
37.841502
  0
LINE
  8
OBJ
  6
CONTINUOUS
 10
22.735155
 20
3.470235
 30
0.0
 11
22.893495
 21
3.470235
 31
0.0
  0
LINE
  8
OBJ
  6
CONTINUOUS
 10
22.735155
 20
3.268059
 30
0.0
 11
22.893495
 21
3.268059
 31
0.0
  0
LINE
  8
OBJ
  6
CONTINUOUS
 10
22.735155
 20
2.854721
 30
0.0
 11
22.893495
 21
2.854721
 31
0.0
  0
LINE
  8
OBJ
 10
22.964337
 20
2.699374
 30
0.0
 11
22.920695
 21
2.667133
 31
0.0
  0
LINE
  8
OBJ
  6
CONTINUOUS
 10
22.735155
 20
2.652545
 30
0.0
 11
22.893495
 21
2.652545
 31
0.0
  0
ARC
  8
OBJ
 10
22.856792
 20
2.753633
 30
0.0
 40
0.107545
 50
289.954678
 51
70.045322
  0
LINE
  8
OBJ
 10
22.964337
 20
2.699374
 30
0.0
 11
22.964337
 21
3.423407
 31
0.0
  0
LINE
  8
0
 10
22.735155
 20
3.470235
 30
0.0
 11
22.735155
 21
2.652545
 31
0.0
  0
ARC
  8
0
 10
22.705155
 20
2.664514
 30
0.0
 40
0.03
 50
270.0
 51
0.0
  0
ARC
  8
0
 10
22.485155
 20
2.624514
 30
0.0
 40
0.01
 50
90.0
 51
180.0
  0
LINE
  8
0
 10
22.485155
 20
2.634514
 30
0.0
 11
22.705155
 21
2.634514
 31
0.0
  0
LINE
  8
0
 10
22.170155
 20
2.511161
 30
0.0
 11
22.395155
 21
2.511161
 31
0.0
  0
LINE
  8
OBJ
 10
22.720171
 20
2.99612
 30
0.0
 11
22.720171
 21
2.776203
 31
0.0
  0
ARC
  8
OBJ
 10
22.540933
 20
2.886161
 30
0.0
 40
0.179237
 50
322.158498
 51
37.841502
  0
LINE
  8
OBJ
 10
22.522963
 20
3.103688
 30
0.0
 11
22.522963
 21
2.668635
 31
0.0
  0
LINE
  8
0
 10
22.475155
 20
3.086357
 30
0.0
 11
22.475155
 21
2.685965
 31
0.0
  0
LINE
  8
OBJ
  6
CONTINUOUS
 10
22.522963
 20
3.103688
 30
0.0
 11
22.682479
 21
3.103688
 31
0.0
  0
LINE
  8
OBJ
  6
CONTINUOUS
 10
22.522963
 20
2.99612
 30
0.0
 11
22.682479
 21
2.99612
 31
0.0
  0
LINE
  8
OBJ
 10
22.720171
 20
3.078773
 30
0.0
 11
22.696951
 21
3.095927
 31
0.0
  0
LINE
  8
OBJ
 10
22.720171
 20
3.078773
 30
0.0
 11
22.720171
 21
2.99612
 31
0.0
  0
ARC
  8
OBJ
 10
22.662951
 20
3.049904
 30
0.0
 40
0.057219
 50
289.954678
 51
70.045322
  0
LINE
  8
OBJ
  6
CENTER2
 10
22.475155
 20
3.084357
 30
0.0
 11
22.522963
 21
3.084357
 31
0.0
  0
LINE
  8
0
 10
22.285155
 20
2.511161
 30
0.0
 11
22.281155
 21
2.511161
 31
0.0
  0
ARC
  8
0
 10
22.395155
 20
2.591161
 30
0.0
 40
0.08
 50
270.0
 51
0.0
  0
LINE
  8
OBJ
  6
CONTINUOUS
 10
22.522963
 20
2.776203
 30
0.0
 11
22.682479
 21
2.776203
 31
0.0
  0
LINE
  8
OBJ
  6
CONTINUOUS
 10
22.522963
 20
2.668635
 30
0.0
 11
22.682479
 21
2.668635
 31
0.0
  0
LINE
  8
OBJ
 10
22.720171
 20
2.776203
 30
0.0
 11
22.720171
 21
2.69355
 31
0.0
  0
ARC
  8
OBJ
 10
22.662951
 20
2.722419
 30
0.0
 40
0.057219
 50
289.954678
 51
70.045322
  0
LINE
  8
OBJ
 10
22.720171
 20
2.69355
 30
0.0
 11
22.696951
 21
2.676396
 31
0.0
  0
LINE
  8
OBJ
  6
CENTER2
 10
22.475155
 20
2.685965
 30
0.0
 11
22.522963
 21
2.685965
 31
0.0
  0
LINE
  8
OBJ
 10
22.475155
 20
2.934554
 30
0.0
 11
22.522963
 21
2.982362
 31
0.0
  0
ARC
  8
0
 10
22.438404
 20
2.974682
 30
0.0
 40
0.06
 50
180.0
 51
258.828647
  0
ARC
  8
0
 10
22.415155
 20
2.856956
 30
0.0
 40
0.06
 50
0.0
 51
78.828647
  0
ARC
  8
0
 10
22.745155
 20
3.633661
 30
0.0
 40
0.01
 50
90.0
 51
180.0
  0
LINE
  8
0
 10
22.895155
 20
5.289661
 30
0.0
 11
22.877509
 21
5.289661
 31
0.0
  0
ARC
  8
OBJ
 10
22.895155
 20
3.703661
 30
0.0
 40
0.06
 50
270.0
 51
0.0
  0
LINE
  8
0
 10
22.745155
 20
3.643661
 30
0.0
 11
22.895155
 21
3.643661
 31
0.0
  0
LINE
  8
OBJ
  6
CENTER2
 10
22.475155
 20
6.132965
 30
0.0
 11
22.522963
 21
6.132965
 31
0.0
  0
LINE
  8
OBJ
 10
22.720171
 20
6.13855
 30
0.0
 11
22.696951
 21
6.121396
 31
0.0
  0
LINE
  8
OBJ
  6
CONTINUOUS
 10
22.522963
 20
6.113635
 30
0.0
 11
22.682479
 21
6.113635
 31
0.0
  0
LINE
  8
OBJ
 10
22.955155
 20
5.229661
 30
0.0
 11
22.955155
 21
3.987661
 31
0.0
  0
ARC
  8
OBJ
 10
22.895155
 20
5.229661
 30
0.0
 40
0.06
 50
360.0
 51
90.0
  0
LINE
  8
OBJ
 10
23.155155
 20
4.956661
 30
0.0
 11
23.155155
 21
4.260661
 31
0.0
  0
POINT
  8
DEFPOINTS
  6
BYBLOCK
 62
     0
 10
23.155155
 20
4.608661
 30
0.0
  0
LINE
  8
OBJ
  6
CONTINUOUS
 10
22.955155
 20
5.036661
 30
0.0
 11
23.075155
 21
5.036661
 31
0.0
  0
ARC
  8
OBJ
 10
23.075155
 20
4.956661
 30
0.0
 40
0.08
 50
0.0
 51
90.0
  0
ARC
  8
OBJ
 10
23.075155
 20
4.260661
 30
0.0
 40
0.08
 50
270.0
 51
0.0
  0
LINE
  8
OBJ
  6
CONTINUOUS
 10
22.955155
 20
4.180661
 30
0.0
 11
23.075155
 21
4.180661
 31
0.0
  0
LINE
  8
0
 10
18.710106
 20
10.001272
 30
0.0
 11
22.060106
 21
10.001272
 31
0.0
  0
LINE
  8
OBJ
 10
21.728053
 20
9.953464
 30
0.0
 11
21.293001
 21
9.953464
 31
0.0
  0
LINE
  8
OBJ
 10
21.703138
 20
9.756256
 30
0.0
 11
21.720292
 21
9.779475
 31
0.0
  0
ARC
  8
OBJ
 10
21.674269
 20
9.813475
 30
0.0
 40
0.057219
 50
199.954678
 51
340.045322
  0
LINE
  8
0
 10
22.120106
 20
10.237272
 30
0.0
 11
18.650106
 21
10.237272
 31
0.0
  0
LINE
  8
0
 10
20.50313
 20
9.500074
 30
0.0
 11
20.50313
 21
8.257272
 31
0.0
  0
LINE
  8
0
 10
20.26713
 20
9.500074
 30
0.0
 11
20.26713
 21
8.257272
 31
0.0
  0
LINE
  8
0
 10
20.38513
 20
9.614158
 30
0.0
 11
20.38513
 21
7.546602
 31
0.0
  0
LINE
  8
0
 10
20.778106
 20
9.710272
 30
0.0
 11
20.778106
 21
8.287272
 31
0.0
  0
LINE
  8
0
 10
19.992106
 20
9.710272
 30
0.0
 11
19.992106
 21
8.287272
 31
0.0
  0
LINE
  8
0
 10
19.992106
 20
8.287272
 30
0.0
 11
20.022106
 21
8.257272
 31
0.0
  0
LINE
  8
0
 10
20.748106
 20
8.257272
 30
0.0
 11
20.022106
 21
8.257272
 31
0.0
  0
LINE
  8
0
 10
20.778106
 20
8.287272
 30
0.0
 11
20.748106
 21
8.257272
 31
0.0
  0
LINE
  8
0
 10
19.992106
 20
8.287272
 30
0.0
 11
20.26713
 21
8.287272
 31
0.0
  0
LINE
  8
0
 10
20.778106
 20
8.287272
 30
0.0
 11
20.50313
 21
8.287272
 31
0.0
  0
LINE
  8
0
 10
21.210106
 20
9.873272
 30
0.0
 11
19.560106
 21
9.873272
 31
0.0
  0
ARC
  8
0
 10
18.525106
 20
10.386949
 30
0.0
 40
0.125
 50
0.0
 51
86.852343
  0
ARC
  8
0
 10
19.452106
 20
9.953272
 30
0.0
 40
0.048
 50
0.0
 51
80.366205
  0
ARC
  8
0
 10
18.710106
 20
10.061272
 30
0.0
 40
0.06
 50
180.0
 51
270.0
  0
LINE
  8
0
 10
18.650106
 20
10.061272
 30
0.0
 11
18.650106
 21
10.237272
 31
0.0
  0
LINE
  8
0
 10
18.650106
 20
10.716537
 30
0.0
 11
18.650106
 21
10.237272
 31
0.0
  0
LINE
  8
OBJ
 10
19.452554
 20
9.756256
 30
0.0
 11
19.469708
 21
9.779475
 31
0.0
  0
LINE
  8
OBJ
 10
19.369901
 20
9.756256
 30
0.0
 11
19.452554
 21
9.756256
 31
0.0
  0
ARC
  8
OBJ
 10
19.423685
 20
9.813475
 30
0.0
 40
0.057219
 50
199.954678
 51
340.045322
  0
LINE
  8
OBJ
 10
19.067331
 20
9.756256
 30
0.0
 11
19.149984
 21
9.756256
 31
0.0
  0
ARC
  8
OBJ
 10
19.259943
 20
9.935493
 30
0.0
 40
0.179237
 50
232.158498
 51
307.841502
  0
LINE
  8
OBJ
 10
19.149984
 20
9.756256
 30
0.0
 11
19.369901
 21
9.756256
 31
0.0
  0
LINE
  8
OBJ
  6
CONTINUOUS
 10
19.149984
 20
9.953464
 30
0.0
 11
19.149984
 21
9.793947
 31
0.0
  0
LINE
  8
OBJ
  6
CONTINUOUS
 10
19.477469
 20
9.953464
 30
0.0
 11
19.477469
 21
9.793947
 31
0.0
  0
LINE
  8
OBJ
  6
CONTINUOUS
 10
19.369901
 20
9.953464
 30
0.0
 11
19.369901
 21
9.793947
 31
0.0
  0
LINE
  8
OBJ
  6
CONTINUOUS
 10
19.042416
 20
9.953464
 30
0.0
 11
19.042416
 21
9.793947
 31
0.0
  0
LINE
  8
OBJ
 10
19.042416
 20
9.953464
 30
0.0
 11
19.477469
 21
9.953464
 31
0.0
  0
ARC
  8
OBJ
 10
19.0962
 20
9.813475
 30
0.0
 40
0.057219
 50
199.954678
 51
340.045322
  0
LINE
  8
OBJ
 10
19.067331
 20
9.756256
 30
0.0
 11
19.050178
 21
9.779475
 31
0.0
  0
ARC
  8
0
 10
19.560106
 20
9.933272
 30
0.0
 40
0.06
 50
180.0
 51
270.0
  0
LINE
  8
0
 10
19.500106
 20
9.933272
 30
0.0
 11
19.500106
 21
9.953272
 31
0.0
  0
ARC
  8
0
 10
18.525106
 20
10.716537
 30
0.0
 40
0.125
 50
0.0
 51
86.852343
  0
LINE
  8
OBJ
  6
CENTER2
 10
19.460139
 20
10.001272
 30
0.0
 11
19.460139
 21
9.953464
 31
0.0
  0
LINE
  8
OBJ
 10
19.21155
 20
10.001272
 30
0.0
 11
19.163742
 21
9.953464
 31
0.0
  0
LINE
  8
OBJ
  6
CENTER2
 10
19.059747
 20
10.001272
 30
0.0
 11
19.059747
 21
9.953464
 31
0.0
  0
LINE
  8
0
 10
19.873106
 20
9.740272
 30
0.0
 11
20.897106
 21
9.740272
 31
0.0
  0
LINE
  8
0
 10
20.867106
 20
9.710272
 30
0.0
 11
20.897106
 21
9.740272
 31
0.0
  0
LINE
  8
0
 10
19.903106
 20
9.710272
 30
0.0
 11
19.873106
 21
9.740272
 31
0.0
  0
ARC
  8
0
 10
20.38513
 20
9.500074
 30
0.0
 40
0.118
 50
0.0
 51
180.0
  0
ARC
  8
0
 10
21.318106
 20
9.953272
 30
0.0
 40
0.048
 50
99.321682
 51
180.0
  0
LINE
  8
OBJ
 10
21.620485
 20
9.756256
 30
0.0
 11
21.400569
 21
9.756256
 31
0.0
  0
ARC
  8
OBJ
 10
21.510527
 20
9.935493
 30
0.0
 40
0.179237
 50
232.158498
 51
307.841502
  0
LINE
  8
OBJ
 10
21.400569
 20
9.756256
 30
0.0
 11
21.317916
 21
9.756256
 31
0.0
  0
ARC
  8
OBJ
 10
21.346785
 20
9.813475
 30
0.0
 40
0.057219
 50
199.954678
 51
340.045322
  0
LINE
  8
OBJ
 10
21.317916
 20
9.756256
 30
0.0
 11
21.300762
 21
9.779475
 31
0.0
  0
LINE
  8
OBJ
 10
21.703138
 20
9.756256
 30
0.0
 11
21.620485
 21
9.756256
 31
0.0
  0
LINE
  8
OBJ
  6
CONTINUOUS
 10
21.620485
 20
9.953464
 30
0.0
 11
21.620485
 21
9.793947
 31
0.0
  0
LINE
  8
OBJ
  6
CONTINUOUS
 10
21.400569
 20
9.953464
 30
0.0
 11
21.400569
 21
9.793947
 31
0.0
  0
LINE
  8
OBJ
  6
CONTINUOUS
 10
21.293001
 20
9.953464
 30
0.0
 11
21.293001
 21
9.793947
 31
0.0
  0
LINE
  8
0
 10
21.270106
 20
9.933272
 30
0.0
 11
21.270106
 21
9.953272
 31
0.0
  0
ARC
  8
0
 10
21.210106
 20
9.933272
 30
0.0
 40
0.06
 50
270.0
 51
0.0
  0
LINE
  8
0
 10
19.873106
 20
9.873272
 30
0.0
 11
19.873106
 21
9.740272
 31
0.0
  0
LINE
  8
0
 10
20.897106
 20
9.873272
 30
0.0
 11
20.897106
 21
9.740272
 31
0.0
  0
LINE
  8
0
 10
20.867106
 20
9.710272
 30
0.0
 11
19.903106
 21
9.710272
 31
0.0
  0
LINE
  8
0
 10
19.87313
 20
9.873272
 30
0.0
 11
19.87313
 21
9.814276
 31
0.0
  0
LINE
  8
OBJ
 10
21.55892
 20
10.001272
 30
0.0
 11
21.606728
 21
9.953464
 31
0.0
  0
LINE
  8
OBJ
  6
CENTER2
 10
21.310331
 20
10.001272
 30
0.0
 11
21.310331
 21
9.953464
 31
0.0
  0
ARC
  8
0
 10
22.415155
 20
6.360367
 30
0.0
 40
0.06
 50
281.171353
 51
0.0
  0
ARC
  8
0
 10
22.438404
 20
6.242641
 30
0.0
 40
0.06
 50
101.171353
 51
180.0
  0
LINE
  8
OBJ
 10
22.475155
 20
6.282769
 30
0.0
 11
22.522963
 21
6.234961
 31
0.0
  0
LINE
  8
OBJ
  6
CENTER2
 10
22.475155
 20
6.531357
 30
0.0
 11
22.522963
 21
6.531357
 31
0.0
  0
LINE
  8
OBJ
 10
22.720171
 20
6.523773
 30
0.0
 11
22.696951
 21
6.540927
 31
0.0
  0
ARC
  8
OBJ
 10
22.662951
 20
6.494904
 30
0.0
 40
0.057219
 50
289.954678
 51
70.045322
  0
LINE
  8
OBJ
 10
22.720171
 20
6.44112
 30
0.0
 11
22.720171
 21
6.523773
 31
0.0
  0
LINE
  8
OBJ
  6
CONTINUOUS
 10
22.522963
 20
6.548688
 30
0.0
 11
22.682479
 21
6.548688
 31
0.0
  0
LINE
  8
OBJ
  6
CONTINUOUS
 10
22.522963
 20
6.44112
 30
0.0
 11
22.682479
 21
6.44112
 31
0.0
  0
ARC
  8
0
 10
22.395155
 20
6.626161
 30
0.0
 40
0.08
 50
0.0
 51
90.0
  0
LINE
  8
0
 10
22.285155
 20
6.706161
 30
0.0
 11
22.281155
 21
6.706161
 31
0.0
  0
LINE
  8
OBJ
  6
CONTINUOUS
 10
22.522963
 20
6.221203
 30
0.0
 11
22.682479
 21
6.221203
 31
0.0
  0
ARC
  8
OBJ
 10
22.540933
 20
6.331161
 30
0.0
 40
0.179237
 50
322.158498
 51
37.841502
  0
LINE
  8
OBJ
 10
22.720171
 20
6.221203
 30
0.0
 11
22.720171
 21
6.44112
 31
0.0
  0
LINE
  8
0
 10
22.170155
 20
6.706161
 30
0.0
 11
22.395155
 21
6.706161
 31
0.0
  0
LINE
  8
0
 10
22.120106
 20
10.061272
 30
0.0
 11
22.120106
 21
10.237272
 31
0.0
  0
ARC
  8
0
 10
22.168106
 20
10.610375
 30
0.0
 40
0.048
 50
90.0
 51
180.0
  0
LINE
  8
0
 10
22.168106
 20
10.658375
 30
0.0
 11
22.170155
 21
10.658272
 31
0.0
  0
ARC
  8
0
 10
22.425155
 20
11.004066
 30
0.0
 40
0.06
 50
0.0
 51
78.828647
  0
ARC
  8
0
 10
22.448404
 20
11.121792
 30
0.0
 40
0.06
 50
180.0
 51
258.828647
  0
LINE
  8
OBJ
 10
22.485155
 20
11.081664
 30
0.0
 11
22.532963
 21
11.129472
 31
0.0
  0
LINE
  8
OBJ
  6
CENTER2
 10
22.485155
 20
10.833076
 30
0.0
 11
22.532963
 21
10.833076
 31
0.0
  0
LINE
  8
OBJ
 10
22.730171
 20
10.84066
 30
0.0
 11
22.706951
 21
10.823506
 31
0.0
  0
ARC
  8
OBJ
 10
22.672951
 20
10.869529
 30
0.0
 40
0.057219
 50
289.954678
 51
70.045322
  0
LINE
  8
OBJ
 10
22.730171
 20
10.923313
 30
0.0
 11
22.730171
 21
10.84066
 31
0.0
  0
LINE
  8
OBJ
  6
CONTINUOUS
 10
22.532963
 20
10.815745
 30
0.0
 11
22.692479
 21
10.815745
 31
0.0
  0
LINE
  8
OBJ
  6
CONTINUOUS
 10
22.532963
 20
10.923313
 30
0.0
 11
22.692479
 21
10.923313
 31
0.0
  0
ARC
  8
0
 10
22.405155
 20
10.738272
 30
0.0
 40
0.08
 50
270.0
 51
0.0
  0
LINE
  8
0
 10
22.295155
 20
10.658272
 30
0.0
 11
22.291155
 21
10.658272
 31
0.0
  0
LINE
  8
OBJ
  6
CENTER2
 10
22.485155
 20
11.231468
 30
0.0
 11
22.532963
 21
11.231468
 31
0.0
  0
ARC
  8
OBJ
 10
22.672951
 20
11.197014
 30
0.0
 40
0.057219
 50
289.954678
 51
70.045322
  0
LINE
  8
OBJ
 10
22.730171
 20
11.225883
 30
0.0
 11
22.730171
 21
11.14323
 31
0.0
  0
LINE
  8
OBJ
 10
22.730171
 20
11.225883
 30
0.0
 11
22.706951
 21
11.243037
 31
0.0
  0
LINE
  8
OBJ
  6
CONTINUOUS
 10
22.532963
 20
11.14323
 30
0.0
 11
22.692479
 21
11.14323
 31
0.0
  0
LINE
  8
OBJ
  6
CONTINUOUS
 10
22.532963
 20
11.250798
 30
0.0
 11
22.692479
 21
11.250798
 31
0.0
  0
LINE
  8
0
 10
22.485155
 20
11.233468
 30
0.0
 11
22.485155
 21
10.833076
 31
0.0
  0
LINE
  8
OBJ
 10
22.532963
 20
11.250798
 30
0.0
 11
22.532963
 21
10.815745
 31
0.0
  0
ARC
  8
OBJ
 10
22.550933
 20
11.033272
 30
0.0
 40
0.179237
 50
322.158498
 51
37.841502
  0
LINE
  8
OBJ
 10
22.730171
 20
11.14323
 30
0.0
 11
22.730171
 21
10.923313
 31
0.0
  0
LINE
  8
OBJ
  6
CONTINUOUS
 10
21.728053
 20
9.953464
 30
0.0
 11
21.728053
 21
9.793947
 31
0.0
  0
LINE
  8
0
 10
22.120106
 20
10.237272
 30
0.0
 11
22.120106
 21
10.610375
 31
0.0
  0
LINE
  8
OBJ
  6
CENTER2
 10
21.710723
 20
10.001272
 30
0.0
 11
21.710723
 21
9.953464
 31
0.0
  0
ARC
  8
0
 10
22.060106
 20
10.061272
 30
0.0
 40
0.06
 50
270.0
 51
0.0
  0
LINE
  8
0
 10
22.170155
 20
10.658272
 30
0.0
 11
22.405155
 21
10.658272
 31
0.0
  0
LINE
  8
0
 10
23.54554
 20
13.257272
 30
0.0
 11
10.315565
 21
13.257272
 31
0.0
  0
INSERT
  8
0
  2
RAIL
 10
21.60513
 20
15.127272
 30
0.0
  0
LINE
  8
0
 10
18.53197
 20
16.002783
 30
0.0
 11
16.113702
 21
16.002783
 31
0.0
  0
LINE
  8
OBJ
 10
23.239106
 20
13.257272
 30
0.0
 11
11.439106
 21
13.257272
 31
0.0
  0
LINE
  8
0
 10
14.585155
 20
15.474588
 30
0.0
 11
21.984379
 21
15.846923
 31
0.0
  0
LINE
  8
0
 10
13.965874
 20
15.170015
 30
0.0
 11
14.244435
 21
15.170015
 31
0.0
  0
LINE
  8
0
 10
13.26471
 20
12.681143
 30
0.0
 11
14.405155
 21
12.681143
 31
0.0
  0
LINE
  8
0
 10
13.26471
 20
12.4164
 30
0.0
 11
14.405155
 21
12.4164
 31
0.0
  0
LINE
  8
0
 10
13.266822
 20
13.8334
 30
0.0
 11
14.405155
 21
13.8334
 31
0.0
  0
LINE
  8
0
 10
13.26471
 20
14.098143
 30
0.0
 11
14.405155
 21
14.098143
 31
0.0
  0
LINE
  8
0
 10
15.341787
 20
16.507272
 30
0.0
 11
13.915155
 21
16.507272
 31
0.0
  0
ARC
  8
0
 10
12.089694
 20
13.965772
 30
0.0
 40
0.12
 50
304.418763
 51
55.581237
  0
ARC
  8
0
 10
13.060615
 20
13.965772
 30
0.0
 40
0.12
 50
124.418763
 51
235.581237
  0
ARC
  8
0
 10
11.91557
 20
13.965772
 30
0.0
 40
0.16
 50
312.952278
 51
47.047722
  0
ARC
  8
0
 10
13.234739
 20
13.965772
 30
0.0
 40
0.16
 50
132.952278
 51
227.047722
  0
CIRCLE
  8
0
 10
12.575155
 20
13.257272
 30
0.0
 40
0.458452
  0
POLYLINE
  8
0
 66
     1
 10
0.0
 20
0.0
 30
0.0
 70
     1
  0
VERTEX
  8
0
 10
13.115155
 20
13.257272
 30
0.0
  0
VERTEX
  8
0
 10
12.845155
 20
13.724925
 30
0.0
  0
VERTEX
  8
0
 10
12.305155
 20
13.724925
 30
0.0
  0
VERTEX
  8
0
 10
12.035155
 20
13.257272
 30
0.0
  0
VERTEX
  8
0
 10
12.305155
 20
12.789618
 30
0.0
  0
VERTEX
  8
0
 10
12.845155
 20
12.789618
 30
0.0
  0
SEQEND
  8
0
  0
CIRCLE
  8
0
 10
12.575155
 20
11.840272
 30
0.0
 40
0.458452
  0
CIRCLE
  8
0
 10
12.575155
 20
13.257272
 30
0.0
 40
0.6156
  0
ARC
  8
0
 10
11.546694
 20
11.579272
 30
0.0
 40
0.009
 50
270.0
 51
360.0
  0
ARC
  8
0
 10
11.546694
 20
11.561272
 30
0.0
 40
0.009
 50
360.0
 51
90.0
  0
LINE
  8
0
 10
11.546694
 20
11.570272
 30
0.0
 11
11.225066
 21
11.570272
 31
0.0
  0
POINT
  8
DEFPOINTS
  6
BYBLOCK
 62
     0
 10
11.164194
 20
11.840272
 30
0.0
  0
ARC
  8
0
 10
11.582694
 20
12.428872
 30
0.0
 40
0.027
 50
90.0
 51
180.0
  0
ARC
  8
0
 10
11.546694
 20
12.389272
 30
0.0
 40
0.009
 50
270.0
 51
0.0
  0
ARC
  8
0
 10
11.546694
 20
12.119272
 30
0.0
 40
0.009
 50
270.0
 51
360.0
  0
LINE
  8
0
 10
11.546694
 20
12.380272
 30
0.0
 11
11.225066
 21
12.380272
 31
0.0
  0
LINE
  8
0
 10
11.546694
 20
12.110272
 30
0.0
 11
11.225066
 21
12.110272
 31
0.0
  0
ARC
  8
0
 10
11.546694
 20
12.101272
 30
0.0
 40
0.009
 50
360.0
 51
90.0
  0
ARC
  8
0
 10
11.344329
 20
12.245272
 30
0.0
 40
0.180135
 50
131.458173
 51
228.541827
  0
LINE
  8
0
 10
11.225066
 20
12.380272
 30
0.0
 11
11.164194
 21
12.332681
 31
0.0
  0
LINE
  8
0
 10
11.726694
 20
12.455872
 30
0.0
 11
11.582694
 21
12.455872
 31
0.0
  0
ARC
  8
0
 10
11.793424
 20
11.840272
 30
0.0
 40
0.62923
 50
154.589813
 51
205.410187
  0
ARC
  8
0
 10
11.735755
 20
12.28072
 30
0.0
 40
0.139945
 50
331.762345
 51
75.81711
  0
LINE
  8
0
 10
11.943529
 20
12.681143
 30
0.0
 11
11.806128
 21
12.681143
 31
0.0
  0
ARC
  8
0
 10
11.735755
 20
12.816823
 30
0.0
 40
0.139945
 50
284.18289
 51
28.237655
  0
LINE
  8
0
 10
11.943529
 20
12.4164
 30
0.0
 11
11.806128
 21
12.4164
 31
0.0
  0
ARC
  8
0
 10
12.089694
 20
12.548772
 30
0.0
 40
0.12
 50
304.418763
 51
55.581237
  0
ARC
  8
0
 10
11.91557
 20
12.548772
 30
0.0
 40
0.16
 50
312.952278
 51
47.047722
  0
LINE
  8
0
 10
11.943529
 20
13.8334
 30
0.0
 11
11.806128
 21
13.8334
 31
0.0
  0
ARC
  8
0
 10
12.575155
 20
13.257272
 30
0.0
 40
0.808
 50
132.952278
 51
227.047722
  0
ARC
  8
0
 10
11.582694
 20
12.668672
 30
0.0
 40
0.027
 50
180.0
 51
270.0
  0
ARC
  8
0
 10
11.546694
 20
12.708272
 30
0.0
 40
0.009
 50
360.0
 51
90.0
  0
LINE
  8
0
 10
11.546694
 20
12.717272
 30
0.0
 11
11.225066
 21
12.717272
 31
0.0
  0
LINE
  8
0
 10
11.225066
 20
12.717272
 30
0.0
 11
11.164194
 21
12.764862
 31
0.0
  0
ARC
  8
0
 10
11.546694
 20
13.518272
 30
0.0
 40
0.009
 50
0.0
 51
90.0
  0
ARC
  8
0
 10
11.546694
 20
13.536272
 30
0.0
 40
0.009
 50
270.0
 51
0.0
  0
LINE
  8
0
 10
11.546694
 20
13.527272
 30
0.0
 11
11.225066
 21
13.527272
 31
0.0
  0
ARC
  8
0
 10
11.546694
 20
12.978272
 30
0.0
 40
0.009
 50
0.0
 51
90.0
  0
ARC
  8
0
 10
11.546694
 20
12.996272
 30
0.0
 40
0.009
 50
270.0
 51
0.0
  0
LINE
  8
0
 10
11.546694
 20
12.987272
 30
0.0
 11
11.225066
 21
12.987272
 31
0.0
  0
ARC
  8
0
 10
11.793424
 20
13.257272
 30
0.0
 40
0.62923
 50
154.589813
 51
205.410187
  0
LINE
  8
0
 10
11.164194
 20
12.764862
 30
0.0
 11
11.164194
 21
13.749681
 31
0.0
  0
ARC
  8
0
 10
11.344329
 20
12.852272
 30
0.0
 40
0.180135
 50
131.458173
 51
228.541827
  0
LINE
  8
0
 10
11.726694
 20
12.641672
 30
0.0
 11
11.582694
 21
12.641672
 31
0.0
  0
ARC
  8
0
 10
11.582694
 20
13.845872
 30
0.0
 40
0.027
 50
90.0
 51
180.0
  0
ARC
  8
0
 10
11.546694
 20
13.806272
 30
0.0
 40
0.009
 50
270.0
 51
0.0
  0
LINE
  8
0
 10
11.546694
 20
13.797272
 30
0.0
 11
11.225066
 21
13.797272
 31
0.0
  0
LINE
  8
0
 10
11.726694
 20
13.872872
 30
0.0
 11
11.582694
 21
13.872872
 31
0.0
  0
ARC
  8
0
 10
12.575155
 20
13.257272
 30
0.0
 40
0.738862
 50
124.418763
 51
235.581237
  0
ARC
  8
0
 10
11.344329
 20
13.662272
 30
0.0
 40
0.180135
 50
131.458173
 51
228.541827
  0
LINE
  8
0
 10
11.555694
 20
12.668672
 30
0.0
 11
11.555694
 21
13.845872
 31
0.0
  0
LINE
  8
0
 10
11.225066
 20
13.797272
 30
0.0
 11
11.164194
 21
13.749681
 31
0.0
  0
ARC
  8
0
 10
11.735755
 20
13.69772
 30
0.0
 40
0.139945
 50
331.762345
 51
75.81711
  0
ARC
  8
0
 10
13.266822
 20
12.359517
 30
0.0
 40
0.056883
 50
90.0
 51
217.279547
  0
ARC
  8
0
 10
13.266822
 20
12.738026
 30
0.0
 40
0.056883
 50
142.720453
 51
270.0
  0
ARC
  8
0
 10
13.266822
 20
13.776517
 30
0.0
 40
0.056883
 50
90.0
 51
217.279547
  0
CIRCLE
  8
0
 10
12.575155
 20
11.840272
 30
0.0
 40
0.143629
  0
ARC
  8
0
 10
13.234739
 20
12.548772
 30
0.0
 40
0.16
 50
132.952278
 51
227.047722
  0
ARC
  8
0
 10
12.575155
 20
13.257272
 30
0.0
 40
0.808
 50
312.952278
 51
47.047722
  0
ARC
  8
0
 10
13.060615
 20
12.548772
 30
0.0
 40
0.12
 50
124.418763
 51
235.581237
  0
CIRCLE
  8
0
 10
12.575155
 20
13.257272
 30
0.0
 40
0.143629
  0
CIRCLE
  8
0
 10
12.575155
 20
13.257272
 30
0.0
 40
0.205184
  0
CIRCLE
  8
0
 10
12.575155
 20
13.257272
 30
0.0
 40
0.297
  0
CIRCLE
  8
0
 10
12.575155
 20
11.840272
 30
0.0
 40
0.205184
  0
CIRCLE
  8
0
 10
12.575155
 20
11.840272
 30
0.0
 40
0.297
  0
ARC
  8
0
 10
12.575155
 20
13.257272
 30
0.0
 40
0.738862
 50
304.418763
 51
55.581237
  0
LINE
  8
0
 10
12.045155
 20
15.687272
 30
0.0
 11
13.105155
 21
15.687272
 31
0.0
  0
LINE
  8
0
 10
12.053274
 20
15.627272
 30
0.0
 11
13.097035
 21
15.627272
 31
0.0
  0
ARC
  8
0
 10
12.575155
 20
14.674272
 30
0.0
 40
0.738862
 50
90.0
 51
235.581237
  0
CIRCLE
  8
0
 10
12.575155
 20
14.674272
 30
0.0
 40
0.458452
  0
POLYLINE
  8
0
 66
     1
 10
0.0
 20
0.0
 30
0.0
 70
     1
  0
VERTEX
  8
0
 10
13.115155
 20
14.674272
 30
0.0
  0
VERTEX
  8
0
 10
12.845155
 20
15.141925
 30
0.0
  0
VERTEX
  8
0
 10
12.305155
 20
15.141925
 30
0.0
  0
VERTEX
  8
0
 10
12.035155
 20
14.674272
 30
0.0
  0
VERTEX
  8
0
 10
12.305155
 20
14.206618
 30
0.0
  0
VERTEX
  8
0
 10
12.845155
 20
14.206618
 30
0.0
  0
SEQEND
  8
0
  0
CIRCLE
  8
0
 10
12.575155
 20
14.674272
 30
0.0
 40
0.6156
  0
ARC
  8
0
 10
12.575155
 20
14.674272
 30
0.0
 40
0.808
 50
90.0
 51
227.047722
  0
ARC
  8
0
 10
12.045155
 20
15.627272
 30
0.0
 40
0.06
 50
90.0
 51
180.0
  0
ARC
  8
0
 10
12.113274
 20
15.627272
 30
0.0
 40
0.06
 50
90.0
 51
180.0
  0
LINE
  8
0
 10
11.943529
 20
14.098143
 30
0.0
 11
11.806128
 21
14.098143
 31
0.0
  0
ARC
  8
0
 10
11.735755
 20
14.233823
 30
0.0
 40
0.139945
 50
284.18289
 51
28.237655
  0
LINE
  8
0
 10
11.726694
 20
15.482272
 30
0.0
 11
11.985155
 21
15.482272
 31
0.0
  0
LINE
  8
0
 10
11.985155
 20
15.627272
 30
0.0
 11
11.985155
 21
15.226326
 31
0.0
  0
POINT
  8
DEFPOINTS
  6
BYBLOCK
 62
     0
 10
11.164194
 20
14.674272
 30
0.0
  0
ARC
  8
0
 10
11.582694
 20
14.085672
 30
0.0
 40
0.027
 50
180.0
 51
270.0
  0
ARC
  8
0
 10
11.546694
 20
14.125272
 30
0.0
 40
0.009
 50
360.0
 51
90.0
  0
ARC
  8
0
 10
11.546694
 20
14.395272
 30
0.0
 40
0.009
 50
0.0
 51
90.0
  0
LINE
  8
0
 10
11.546694
 20
14.134272
 30
0.0
 11
11.225066
 21
14.134272
 31
0.0
  0
LINE
  8
0
 10
11.546694
 20
14.404272
 30
0.0
 11
11.225066
 21
14.404272
 31
0.0
  0
ARC
  8
0
 10
11.546694
 20
14.413272
 30
0.0
 40
0.009
 50
270.0
 51
0.0
  0
ARC
  8
0
 10
11.344329
 20
14.269272
 30
0.0
 40
0.180135
 50
131.458173
 51
228.541827
  0
LINE
  8
0
 10
11.225066
 20
14.134272
 30
0.0
 11
11.164194
 21
14.181862
 31
0.0
  0
ARC
  8
0
 10
11.546694
 20
14.935272
 30
0.0
 40
0.009
 50
0.0
 51
90.0
  0
ARC
  8
0
 10
11.546694
 20
14.953272
 30
0.0
 40
0.009
 50
270.0
 51
0.0
  0
LINE
  8
0
 10
11.546694
 20
14.944272
 30
0.0
 11
11.225066
 21
14.944272
 31
0.0
  0
LINE
  8
0
 10
11.555694
 20
15.214272
 30
0.0
 11
11.225066
 21
15.214272
 31
0.0
  0
ARC
  8
0
 10
11.344329
 20
15.079272
 30
0.0
 40
0.180135
 50
131.458173
 51
228.541827
  0
LINE
  8
0
 10
11.225066
 20
15.214272
 30
0.0
 11
11.164194
 21
15.166681
 31
0.0
  0
LINE
  8
0
 10
11.555694
 20
14.085672
 30
0.0
 11
11.555694
 21
15.262872
 31
0.0
  0
LINE
  8
0
 10
11.164194
 20
14.181862
 30
0.0
 11
11.164194
 21
15.166681
 31
0.0
  0
ARC
  8
0
 10
11.793424
 20
14.674272
 30
0.0
 40
0.62923
 50
154.589813
 51
205.410187
  0
LINE
  8
0
 10
11.726694
 20
14.058672
 30
0.0
 11
11.582694
 21
14.058672
 31
0.0
  0
LINE
  8
0
 10
11.555694
 20
15.262872
 30
0.0
 11
11.726694
 21
15.262872
 31
0.0
  0
ARC
  8
0
 10
13.266822
 20
14.155026
 30
0.0
 40
0.056883
 50
142.720453
 51
270.0
  0
LINE
  8
0
 10
13.915155
 20
15.220735
 30
0.0
 11
13.915155
 21
16.507272
 31
0.0
  0
ARC
  8
0
 10
13.965874
 20
15.220735
 30
0.0
 40
0.05072
 50
180.0
 51
270.0
  0
ARC
  8
0
 10
13.861254
 20
15.591173
 30
0.0
 40
0.053901
 50
270.0
 51
0.0
  0
LINE
  8
0
 10
13.915155
 20
16.428132
 30
0.0
 11
13.915155
 21
15.598212
 31
0.0
  0
LINE
  8
OBJ
 10
13.861254
 20
15.537272
 30
0.0
 11
13.165155
 21
15.537272
 31
0.0
  0
ARC
  8
0
 10
13.105155
 20
15.627272
 30
0.0
 40
0.06
 50
0.0
 51
90.0
  0
ARC
  8
0
 10
13.037035
 20
15.627272
 30
0.0
 40
0.06
 50
0.0
 51
90.0
  0
LINE
  8
0
 10
13.165155
 20
15.627272
 30
0.0
 11
13.165155
 21
15.226326
 31
0.0
  0
LINE
  8
0
 10
13.815155
 20
15.598212
 30
0.0
 11
13.915155
 21
15.598212
 31
0.0
  0
CIRCLE
  8
0
 10
12.575155
 20
14.674272
 30
0.0
 40
0.143629
  0
CIRCLE
  8
0
 10
12.575155
 20
14.674272
 30
0.0
 40
0.297
  0
CIRCLE
  8
0
 10
12.575155
 20
14.674272
 30
0.0
 40
0.205184
  0
ARC
  8
0
 10
12.575155
 20
14.674272
 30
0.0
 40
0.738862
 50
304.418763
 51
90.0
  0
LINE
  8
0
 10
13.460825
 20
15.698212
 30
0.0
 11
13.815154
 21
15.698212
 31
0.0
  0
LINE
  8
0
 10
13.460825
 20
16.328132
 30
0.0
 11
13.815155
 21
16.328132
 31
0.0
  0
LINE
  8
0
 10
13.421455
 20
15.737582
 30
0.0
 11
13.460825
 21
15.698212
 31
0.0
  0
LINE
  8
0
 10
13.460825
 20
16.328132
 30
0.0
 11
13.421455
 21
16.288762
 31
0.0
  0
LINE
  8
0
 10
13.421455
 20
15.737582
 30
0.0
 11
13.421455
 21
16.288762
 31
0.0
  0
LINE
  8
0
 10
13.460825
 20
15.698212
 30
0.0
 11
13.460825
 21
16.328132
 31
0.0
  0
LINE
  8
0
 10
13.815155
 20
16.428132
 30
0.0
 11
13.915155
 21
16.428132
 31
0.0
  0
ARC
  8
0
 10
12.575155
 20
14.674272
 30
0.0
 40
0.808
 50
312.952278
 51
90.0
  0
LINE
  8
0
 10
13.815155
 20
15.598212
 30
0.0
 11
13.815155
 21
16.428132
 31
0.0
  0
LINE
  8
0
 10
14.405155
 20
11.847272
 30
0.0
 11
14.405155
 21
14.667272
 31
0.0
  0
LINE
  8
OBJ
 10
16.09263
 20
14.23155
 30
0.0
 11
15.53013
 21
13.257272
 31
0.0
  0
LINE
  8
OBJ
 10
17.78013
 20
13.257272
 30
0.0
 11
17.21763
 21
14.23155
 31
0.0
  0
CIRCLE
  8
OBJ
 10
16.65513
 20
13.257272
 30
0.0
 40
0.864576
  0
LINE
  8
OBJ
 10
15.53013
 20
13.257272
 30
0.0
 11
16.09263
 21
12.282993
 31
0.0
  0
ARC
  8
0
 10
14.325155
 20
11.817272
 30
0.0
 40
0.03
 50
90.0
 51
180.0
  0
LINE
  8
OBJ
 10
14.405155
 20
11.847272
 30
0.0
 11
14.325155
 21
11.847272
 31
0.0
  0
CIRCLE
  8
0
 10
14.964681
 20
11.840272
 30
0.0
 40
0.104029
  0
CIRCLE
  8
0
 10
14.964681
 20
13.257272
 30
0.0
 40
0.104029
  0
LINE
  8
OBJ
 10
16.09263
 20
12.282993
 30
0.0
 11
17.21763
 21
12.282993
 31
0.0
  0
CIRCLE
  8
OBJ
 10
16.65513
 20
13.257272
 30
0.0
 40
0.055
  0
LINE
  8
OBJ
 10
17.21763
 20
12.282993
 30
0.0
 11
17.78013
 21
13.257272
 31
0.0
  0
LINE
  8
0
 10
16.485074
 20
15.644003
 30
0.0
 11
15.683256
 21
16.373087
 31
0.0
  0
ARC
  8
0
 10
14.244435
 20
15.119295
 30
0.0
 40
0.05072
 50
0.0
 51
90.0
  0
ARC
  8
0
 10
14.244435
 20
15.428804
 30
0.0
 40
0.05072
 50
0.0
 51
90.0
  0
ARC
  8
0
 10
14.325155
 20
14.697272
 30
0.0
 40
0.03
 50
180.0
 51
270.0
  0
LINE
  8
0
 10
14.295155
 20
14.697272
 30
0.0
 11
14.295155
 21
15.428804
 31
0.0
  0
LINE
  8
OBJ
 10
14.405155
 20
14.667272
 30
0.0
 11
14.325155
 21
14.667272
 31
0.0
  0
CIRCLE
  8
0
 10
14.964681
 20
14.674272
 30
0.0
 40
0.104029
  0
ARC
  8
0
 10
15.341787
 20
16.007272
 30
0.0
 40
0.5
 50
47.720147
 51
90.0
  0
LINE
  8
0
 10
15.678164
 20
16.377205
 30
0.0
 11
15.683256
 21
16.373087
 31
0.0
  0
ARC
  8
0
 10
16.113702
 20
16.062783
 30
0.0
 40
0.06
 50
227.720147
 51
270.0
  0
LINE
  8
OBJ
 10
17.21763
 20
14.23155
 30
0.0
 11
16.09263
 21
14.23155
 31
0.0
  0
ARC
  8
0
 10
16.653262
 20
15.82897
 30
0.0
 40
0.25
 50
227.720147
 51
273.147657
  0
LINE
  8
OBJ
 10
21.55892
 20
16.513272
 30
0.0
 11
21.606728
 21
16.56108
 31
0.0
  0
LINE
  8
OBJ
  6
CENTER2
 10
21.710723
 20
16.513272
 30
0.0
 11
21.710723
 21
16.56108
 31
0.0
  0
LINE
  8
OBJ
  6
CENTER2
 10
21.310331
 20
16.513272
 30
0.0
 11
21.310331
 21
16.56108
 31
0.0
  0
ARC
  8
0
 10
21.318106
 20
16.561272
 30
0.0
 40
0.048
 50
180.0
 51
260.678318
  0
LINE
  8
OBJ
  6
CENTER2
 10
19.460139
 20
16.513272
 30
0.0
 11
19.460139
 21
16.56108
 31
0.0
  0
LINE
  8
OBJ
 10
19.21155
 20
16.513272
 30
0.0
 11
19.163742
 21
16.56108
 31
0.0
  0
LINE
  8
OBJ
  6
CENTER2
 10
19.059747
 20
16.513272
 30
0.0
 11
19.059747
 21
16.56108
 31
0.0
  0
ARC
  8
0
 10
19.452106
 20
16.561272
 30
0.0
 40
0.048
 50
279.633795
 51
0.0
  0
LINE
  8
0
 10
22.120106
 20
16.277272
 30
0.0
 11
18.650106
 21
16.277272
 31
0.0
  0
LINE
  8
0
 10
18.710106
 20
16.513272
 30
0.0
 11
22.060106
 21
16.513272
 31
0.0
  0
LINE
  8
0
 10
20.38513
 20
14.739466
 30
0.0
 11
20.38513
 21
11.775077
 31
0.0
  0
LINE
  8
0
 10
21.526335
 20
11.387272
 30
0.0
 11
21.683925
 21
11.387272
 31
0.0
  0
ARC
  8
0
 10
18.525106
 20
16.127594
 30
0.0
 40
0.125
 50
273.147657
 51
0.0
  0
LINE
  8
0
 10
18.650106
 20
16.453272
 30
0.0
 11
18.650106
 21
16.277272
 31
0.0
  0
ARC
  8
0
 10
18.710106
 20
16.453272
 30
0.0
 40
0.06
 50
90.0
 51
180.0
  0
ARC
  8
0
 10
18.525106
 20
15.798006
 30
0.0
 40
0.125
 50
273.147657
 51
0.0
  0
LINE
  8
0
 10
18.650106
 20
15.798006
 30
0.0
 11
18.650106
 21
16.277272
 31
0.0
  0
LINE
  8
0
 10
21.60513
 20
15.206066
 30
0.0
 11
21.60513
 21
15.048477
 31
0.0
  0
LINE
  8
0
 10
21.526335
 20
15.127272
 30
0.0
 11
21.683925
 21
15.127272
 31
0.0
  0
ARC
  8
OBJ
 10
21.899245
 20
13.64787
 30
0.0
 40
1.017112
 50
16.589699
 51
21.151115
  0
ARC
  8
0
 10
18.635151
 20
14.020322
 30
0.0
 40
4.270792
 50
358.899169
 51
17.152279
  0
ARC
  8
OBJ
 10
23.731064
 20
13.64787
 30
0.0
 40
1.017112
 50
158.848885
 51
170.895399
  0
ARC
  8
OBJ
 10
21.899245
 20
12.866673
 30
0.0
 40
1.017112
 50
338.848885
 51
343.410301
  0
ARC
  8
OBJ
 10
22.815155
 20
12.512314
 30
0.0
 40
0.035043
 50
270.0
 51
338.848885
  0
ARC
  8
OBJ
 10
22.815155
 20
12.512314
 30
0.0
 40
0.035043
 50
201.151115
 51
270.0
  0
LINE
  8
OBJ
  6
CONTINUOUS
 10
22.75629
 20
12.576272
 30
0.0
 11
22.905155
 21
12.576272
 31
0.0
  0
LINE
  8
OBJ
  6
CONTINUOUS
 10
22.965155
 20
12.829272
 30
0.0
 11
23.085155
 21
12.829272
 31
0.0
  0
ARC
  8
OBJ
 10
22.905155
 20
12.636272
 30
0.0
 40
0.06
 50
270.0
 51
0.0
  0
ARC
  8
OBJ
 10
23.731064
 20
12.866673
 30
0.0
 40
1.017112
 50
189.104601
 51
201.151115
  0
ARC
  8
OBJ
 10
25.187761
 20
13.100119
 30
0.0
 40
2.492397
 50
183.797744
 51
189.104601
  0
ARC
  8
OBJ
 10
23.085155
 20
12.909272
 30
0.0
 40
0.08
 50
270.0
 51
0.0
  0
ARC
  8
OBJ
 10
25.187761
 20
13.414425
 30
0.0
 40
2.492397
 50
170.895399
 51
176.202256
  0
ARC
  8
OBJ
 10
23.085155
 20
13.605272
 30
0.0
 40
0.08
 50
0.0
 51
90.0
  0
LINE
  8
OBJ
  6
CONTINUOUS
 10
22.965155
 20
13.685272
 30
0.0
 11
23.085155
 21
13.685272
 31
0.0
  0
POINT
  8
DEFPOINTS
  6
BYBLOCK
 62
     0
 10
23.165155
 20
13.257272
 30
0.0
  0
ARC
  8
OBJ
 10
27.555224
 20
13.257272
 30
0.0
 40
4.865069
 50
176.202256
 51
180.0
  0
ARC
  8
OBJ
 10
27.555224
 20
13.257272
 30
0.0
 40
4.865069
 50
180.0
 51
183.797744
  0
LINE
  8
OBJ
 10
23.165155
 20
13.605272
 30
0.0
 11
23.165155
 21
12.909272
 31
0.0
  0
LINE
  8
OBJ
  6
CONTINUOUS
 10
22.75629
 20
13.938272
 30
0.0
 11
22.905155
 21
13.938272
 31
0.0
  0
ARC
  8
OBJ
 10
22.905155
 20
13.878272
 30
0.0
 40
0.06
 50
360.0
 51
90.0
  0
LINE
  8
OBJ
 10
22.965155
 20
13.878272
 30
0.0
 11
22.965155
 21
12.636272
 31
0.0
  0
ARC
  8
0
 10
22.060106
 20
16.453272
 30
0.0
 40
0.06
 50
0.0
 51
90.0
  0
LINE
  8
0
 10
22.120106
 20
16.453272
 30
0.0
 11
22.120106
 21
16.277272
 31
0.0
  0
ARC
  8
0
 10
22.168106
 20
15.904168
 30
0.0
 40
0.048
 50
180.0
 51
270.0
  0
LINE
  8
0
 10
21.984379
 20
15.846923
 30
0.0
 11
22.170155
 21
15.856272
 31
0.0
  0
LINE
  8
0
 10
22.120106
 20
16.277272
 30
0.0
 11
22.120106
 21
15.904168
 31
0.0
  0
ARC
  8
OBJ
 10
22.815155
 20
14.002229
 30
0.0
 40
0.035043
 50
90.0
 51
158.848885
  0
ARC
  8
OBJ
 10
22.815155
 20
14.002229
 30
0.0
 40
0.035043
 50
21.151115
 51
90.0
  0
ARC
  8
0
 10
22.425155
 20
15.510477
 30
0.0
 40
0.06
 50
281.171353
 51
0.0
  0
LINE
  8
OBJ
  6
CENTER2
 10
22.485155
 20
15.281076
 30
0.0
 11
22.532963
 21
15.281076
 31
0.0
  0
LINE
  8
OBJ
 10
22.485155
 20
15.432879
 30
0.0
 11
22.532963
 21
15.385071
 31
0.0
  0
ARC
  8
OBJ
 10
22.550933
 20
15.481272
 30
0.0
 40
0.179237
 50
322.158498
 51
37.841502
  0
ARC
  8
OBJ
 10
22.672951
 20
15.317529
 30
0.0
 40
0.057219
 50
289.954678
 51
70.045322
  0
LINE
  8
OBJ
 10
22.730171
 20
15.371313
 30
0.0
 11
22.730171
 21
15.59123
 31
0.0
  0
LINE
  8
OBJ
 10
22.730171
 20
15.28866
 30
0.0
 11
22.730171
 21
15.371313
 31
0.0
  0
LINE
  8
OBJ
 10
22.730171
 20
15.28866
 30
0.0
 11
22.706951
 21
15.271506
 31
0.0
  0
LINE
  8
OBJ
  6
CONTINUOUS
 10
22.532963
 20
15.59123
 30
0.0
 11
22.692479
 21
15.59123
 31
0.0
  0
LINE
  8
OBJ
  6
CONTINUOUS
 10
22.532963
 20
15.371313
 30
0.0
 11
22.692479
 21
15.371313
 31
0.0
  0
LINE
  8
OBJ
  6
CONTINUOUS
 10
22.532963
 20
15.263745
 30
0.0
 11
22.692479
 21
15.263745
 31
0.0
  0
LINE
  8
OBJ
  6
CENTER2
 10
22.485155
 20
15.681468
 30
0.0
 11
22.532963
 21
15.681468
 31
0.0
  0
LINE
  8
OBJ
 10
22.730171
 20
15.673883
 30
0.0
 11
22.706951
 21
15.691037
 31
0.0
  0
LINE
  8
OBJ
  6
CONTINUOUS
 10
22.532963
 20
15.698798
 30
0.0
 11
22.692479
 21
15.698798
 31
0.0
  0
LINE
  8
0
 10
22.295155
 20
15.856272
 30
0.0
 11
22.291155
 21
15.856272
 31
0.0
  0
ARC
  8
0
 10
22.405155
 20
15.776272
 30
0.0
 40
0.08
 50
0.0
 51
90.0
  0
LINE
  8
0
 10
22.295155
 20
15.856272
 30
0.0
 11
22.291155
 21
15.856272
 31
0.0
  0
LINE
  8
0
 10
22.485155
 20
15.281076
 30
0.0
 11
22.485155
 21
15.681468
 31
0.0
  0
LINE
  8
OBJ
 10
22.532963
 20
15.263745
 30
0.0
 11
22.532963
 21
15.698798
 31
0.0
  0
ARC
  8
OBJ
 10
22.672951
 20
15.645014
 30
0.0
 40
0.057219
 50
289.954678
 51
70.045322
  0
LINE
  8
OBJ
 10
22.730171
 20
15.59123
 30
0.0
 11
22.730171
 21
15.673883
 31
0.0
  0
LINE
  8
0
 10
22.170155
 20
15.856272
 30
0.0
 11
22.405155
 21
15.856272
 31
0.0
  0
LINE
  8
OBJ
 10
21.703138
 20
16.758288
 30
0.0
 11
21.720292
 21
16.735068
 31
0.0
  0
ARC
  8
OBJ
 10
21.674269
 20
16.701068
 30
0.0
 40
0.057219
 50
19.954678
 51
160.045322
  0
LINE
  8
OBJ
 10
21.728053
 20
16.56108
 30
0.0
 11
21.293001
 21
16.56108
 31
0.0
  0
LINE
  8
0
 10
21.210106
 20
16.641272
 30
0.0
 11
19.560106
 21
16.641272
 31
0.0
  0
ARC
  8
0
 10
19.560106
 20
16.581272
 30
0.0
 40
0.06
 50
90.0
 51
180.0
  0
LINE
  8
OBJ
 10
19.452554
 20
16.758288
 30
0.0
 11
19.469708
 21
16.735068
 31
0.0
  0
LINE
  8
OBJ
 10
19.369901
 20
16.758288
 30
0.0
 11
19.452554
 21
16.758288
 31
0.0
  0
ARC
  8
OBJ
 10
19.423685
 20
16.701068
 30
0.0
 40
0.057219
 50
19.954678
 51
160.045322
  0
LINE
  8
OBJ
 10
19.067331
 20
16.758288
 30
0.0
 11
19.149984
 21
16.758288
 31
0.0
  0
ARC
  8
OBJ
 10
19.259943
 20
16.57905
 30
0.0
 40
0.179237
 50
52.158498
 51
127.841502
  0
LINE
  8
OBJ
 10
19.149984
 20
16.758288
 30
0.0
 11
19.369901
 21
16.758288
 31
0.0
  0
LINE
  8
OBJ
  6
CONTINUOUS
 10
19.149984
 20
16.56108
 30
0.0
 11
19.149984
 21
16.720596
 31
0.0
  0
LINE
  8
OBJ
  6
CONTINUOUS
 10
19.477469
 20
16.56108
 30
0.0
 11
19.477469
 21
16.720596
 31
0.0
  0
LINE
  8
OBJ
  6
CONTINUOUS
 10
19.369901
 20
16.56108
 30
0.0
 11
19.369901
 21
16.720596
 31
0.0
  0
LINE
  8
OBJ
  6
CONTINUOUS
 10
19.042416
 20
16.56108
 30
0.0
 11
19.042416
 21
16.720596
 31
0.0
  0
LINE
  8
OBJ
 10
19.042416
 20
16.56108
 30
0.0
 11
19.477469
 21
16.56108
 31
0.0
  0
ARC
  8
OBJ
 10
19.0962
 20
16.701068
 30
0.0
 40
0.057219
 50
19.954678
 51
160.045322
  0
LINE
  8
OBJ
 10
19.067331
 20
16.758288
 30
0.0
 11
19.050178
 21
16.735068
 31
0.0
  0
LINE
  8
0
 10
19.500106
 20
16.581272
 30
0.0
 11
19.500106
 21
16.561272
 31
0.0
  0
ARC
  8
0
 10
21.210106
 20
16.581272
 30
0.0
 40
0.06
 50
0.0
 51
90.0
  0
LINE
  8
OBJ
 10
21.620485
 20
16.758288
 30
0.0
 11
21.400569
 21
16.758288
 31
0.0
  0
ARC
  8
OBJ
 10
21.510527
 20
16.57905
 30
0.0
 40
0.179237
 50
52.158498
 51
127.841502
  0
LINE
  8
OBJ
 10
21.400569
 20
16.758288
 30
0.0
 11
21.317916
 21
16.758288
 31
0.0
  0
LINE
  8
OBJ
 10
21.703138
 20
16.758288
 30
0.0
 11
21.620485
 21
16.758288
 31
0.0
  0
LINE
  8
OBJ
  6
CONTINUOUS
 10
21.620485
 20
16.56108
 30
0.0
 11
21.620485
 21
16.720596
 31
0.0
  0
LINE
  8
OBJ
  6
CONTINUOUS
 10
21.400569
 20
16.56108
 30
0.0
 11
21.400569
 21
16.720596
 31
0.0
  0
LINE
  8
OBJ
  6
CONTINUOUS
 10
21.293001
 20
16.56108
 30
0.0
 11
21.293001
 21
16.720596
 31
0.0
  0
ARC
  8
OBJ
 10
21.346785
 20
16.701068
 30
0.0
 40
0.057219
 50
19.954678
 51
160.045322
  0
LINE
  8
OBJ
 10
21.317916
 20
16.758288
 30
0.0
 11
21.300762
 21
16.735068
 31
0.0
  0
LINE
  8
0
 10
21.270106
 20
16.581272
 30
0.0
 11
21.270106
 21
16.561272
 31
0.0
  0
LINE
  8
OBJ
  6
CONTINUOUS
 10
21.728053
 20
16.56108
 30
0.0
 11
21.728053
 21
16.720596
 31
0.0
  0
ENDSEC
  0
EOF
