  0
SECTION
  2
HEADER
  9
$ACADVER
  1
AC1009
  9
$INSBASE
 10
0.0
 20
0.0
 30
0.0
  9
$EXTMIN
 10
-48.465618
 20
-7.319436
 30
0.0
  9
$EXTMAX
 10
27.737824
 20
36.679638
 30
0.0
  9
$LIMMIN
 10
0.0
 20
0.0
  9
$LIMMAX
 10
12.0
 20
9.0
  9
$ORTHOMODE
 70
     1
  9
$REGENMODE
 70
     1
  9
$FILLMODE
 70
     1
  9
$QTEXTMODE
 70
     0
  9
$MIRRTEXT
 70
     1
  9
$DRAGMODE
 70
     2
  9
$LTSCALE
 40
1.0
  9
$OSMODE
 70
     0
  9
$ATTMODE
 70
     1
  9
$TEXTSIZE
 40
0.07
  9
$TRACEWID
 40
0.05
  9
$TEXTSTYLE
  7
SANSSERIFBOLDOBLIQUE
  9
$CLAYER
  8
0
  9
$CELTYPE
  6
BYLAYER
  9
$CECOLOR
 62
   256
  9
$DIMSCALE
 40
1.0
  9
$DIMASZ
 40
1.0
  9
$DIMEXO
 40
0.38
  9
$DIMDLI
 40
2.0
  9
$DIMRND
 40
0.0
  9
$DIMDLE
 40
0.0
  9
$DIMEXE
 40
1.0
  9
$DIMTP
 40
0.0
  9
$DIMTM
 40
0.0
  9
$DIMTXT
 40
1.0
  9
$DIMCEN
 40
0.5
  9
$DIMTSZ
 40
0.0
  9
$DIMTOL
 70
     0
  9
$DIMLIM
 70
     0
  9
$DIMTIH
 70
     1
  9
$DIMTOH
 70
     1
  9
$DIMSE1
 70
     0
  9
$DIMSE2
 70
     0
  9
$DIMTAD
 70
     0
  9
$DIMZIN
 70
     0
  9
$DIMBLK
  1

  9
$DIMASO
 70
     1
  9
$DIMSHO
 70
     1
  9
$DIMPOST
  1

  9
$DIMAPOST
  1

  9
$DIMALT
 70
     0
  9
$DIMALTD
 70
     2
  9
$DIMALTF
 40
25.4
  9
$DIMLFAC
 40
1.0
  9
$DIMTOFL
 70
     0
  9
$DIMTVP
 40
0.0
  9
$DIMTIX
 70
     0
  9
$DIMSOXD
 70
     0
  9
$DIMSAH
 70
     0
  9
$DIMBLK1
  1

  9
$DIMBLK2
  1

  9
$DIMSTYLE
  2
*UNNAMED
  9
$DIMCLRD
 70
     0
  9
$DIMCLRE
 70
     0
  9
$DIMCLRT
 70
     0
  9
$DIMTFAC
 40
1.0
  9
$DIMGAP
 40
0.5
  9
$LUNITS
 70
     2
  9
$LUPREC
 70
     4
  9
$SKETCHINC
 40
0.1
  9
$FILLETRAD
 40
0.1
  9
$AUNITS
 70
     0
  9
$AUPREC
 70
     0
  9
$MENU
  1
acad
  9
$ELEVATION
 40
0.0
  9
$PELEVATION
 40
0.0
  9
$THICKNESS
 40
0.0
  9
$LIMCHECK
 70
     0
  9
$BLIPMODE
 70
     1
  9
$CHAMFERA
 40
0.0
  9
$CHAMFERB
 40
0.0
  9
$SKPOLY
 70
     0
  9
$TDCREATE
 40
2451423.672346412
  9
$TDUPDATE
 40
2451423.672758449
  9
$TDINDWG
 40
0.0002740741
  9
$TDUSRTIMER
 40
0.0002740741
  9
$USRTIMER
 70
     1
  9
$ANGBASE
 50
0.0
  9
$ANGDIR
 70
     0
  9
$PDMODE
 70
     0
  9
$PDSIZE
 40
0.0
  9
$PLINEWID
 40
0.0
  9
$COORDS
 70
     0
  9
$SPLFRAME
 70
     0
  9
$SPLINETYPE
 70
     6
  9
$SPLINESEGS
 70
     8
  9
$ATTDIA
 70
     0
  9
$ATTREQ
 70
     1
  9
$HANDLING
 70
     0
  9
$HANDSEED
  5
0
  9
$SURFTAB1
 70
     6
  9
$SURFTAB2
 70
     6
  9
$SURFTYPE
 70
     6
  9
$SURFU
 70
     6
  9
$SURFV
 70
     6
  9
$UCSNAME
  2

  9
$UCSORG
 10
0.0
 20
0.0
 30
0.0
  9
$UCSXDIR
 10
1.0
 20
0.0
 30
0.0
  9
$UCSYDIR
 10
0.0
 20
1.0
 30
0.0
  9
$PUCSNAME
  2

  9
$PUCSORG
 10
0.0
 20
0.0
 30
0.0
  9
$PUCSXDIR
 10
1.0
 20
0.0
 30
0.0
  9
$PUCSYDIR
 10
0.0
 20
1.0
 30
0.0
  9
$USERI1
 70
     0
  9
$USERI2
 70
     0
  9
$USERI3
 70
     0
  9
$USERI4
 70
     0
  9
$USERI5
 70
     0
  9
$USERR1
 40
0.0
  9
$USERR2
 40
0.0
  9
$USERR3
 40
0.0
  9
$USERR4
 40
0.0
  9
$USERR5
 40
0.0
  9
$WORLDVIEW
 70
     1
  9
$SHADEDGE
 70
     3
  9
$SHADEDIF
 70
    70
  9
$TILEMODE
 70
     1
  9
$MAXACTVP
 70
    16
  9
$PINSBASE
 10
0.0
 20
0.0
 30
0.0
  9
$PLIMCHECK
 70
     0
  9
$PEXTMIN
 10
1.000000E+20
 20
1.000000E+20
 30
1.000000E+20
  9
$PEXTMAX
 10
-1.000000E+20
 20
-1.000000E+20
 30
-1.000000E+20
  9
$PLIMMIN
 10
0.0
 20
0.0
  9
$PLIMMAX
 10
12.0
 20
9.0
  9
$UNITMODE
 70
     0
  9
$VISRETAIN
 70
     0
  9
$PLINEGEN
 70
     0
  9
$PSLTSCALE
 70
     1
  9
$TREEDEPTH
 70
  3020
  9
$DWGCODEPAGE
  3
iso8859-1
  0
ENDSEC
  0
SECTION
  2
TABLES
  0
TABLE
  2
VPORT
 70
     2
  0
VPORT
  2
*ACTIVE
 70
     0
 10
0.0
 20
0.0
 11
1.0
 21
1.0
 12
1.926258
 22
1.238413
 13
0.0
 23
0.0
 14
1.0
 24
1.0
 15
0.0
 25
0.0
 16
0.0
 26
0.0
 36
1.0
 17
0.0
 27
0.0
 37
0.0
 40
19.657608
 41
1.379728
 42
50.0
 43
0.0
 44
0.0
 50
0.0
 51
0.0
 71
     0
 72
   100
 73
     1
 74
     0
 75
     0
 76
     0
 77
     0
 78
     0
  0
ENDTAB
  0
TABLE
  2
LTYPE
 70
     2
  0
LTYPE
  2
CONTINUOUS
 70
    64
  3
Solid line
 72
    65
 73
     0
 40
0.0
  0
LTYPE
  2
CENTER2
 70
    64
  3
CENTER2 _._._._._
 72
    65
 73
     4
 40
0.15
 49
0.1
 49
-0.025
 49
0.0
 49
-0.025
  0
ENDTAB
  0
TABLE
  2
LAYER
 70
     3
  0
LAYER
  2
0
 70
    64
 62
     7
  6
CONTINUOUS
  0
LAYER
  2
TEXT
 70
    64
 62
     1
  6
CONTINUOUS
  0
LAYER
  2
OBJ
 70
    64
 62
     7
  6
CONTINUOUS
  0
ENDTAB
  0
TABLE
  2
STYLE
 70
     3
  0
STYLE
  2
STANDARD
 70
     0
 40
0.0
 41
1.0
 50
0.0
 71
     0
 42
0.2
  3
txt
  4

  0
STYLE
  2
ROMAND
 70
    64
 40
0.0
 41
1.0
 50
0.0
 71
     0
 42
0.25
  3
romand
  4

  0
STYLE
  2
SANSSERIFBOLDOBLIQUE
 70
    64
 40
0.0
 41
1.0
 50
0.0
 71
     0
 42
0.07
  3
sasbo___.pfb
  4

  0
ENDTAB
  0
TABLE
  2
VIEW
 70
     0
  0
ENDTAB
  0
TABLE
  2
UCS
 70
     0
  0
ENDTAB
  0
TABLE
  2
APPID
 70
     1
  0
APPID
  2
ACAD
 70
    64
  0
ENDTAB
  0
TABLE
  2
DIMSTYLE
 70
     0
  0
ENDTAB
  0
ENDSEC
  0
SECTION
  2
BLOCKS
  0
BLOCK
  8
0
  2
M6-SEMS
 70
    64
 10
0.0
 20
0.0
 30
0.0
  3
M6-SEMS
  0
INSERT
  8
0
  2
CVRSCR
 10
0.0
 20
0.0
 30
0.0
  0
CIRCLE
  8
0
 10
0.0
 20
0.0
 30
0.0
 40
0.225167
  0
ENDBLK
  8
0
  0
BLOCK
  8
0
  2
CVRSCR
 70
    64
 10
0.0
 20
0.0
 30
0.0
  3
CVRSCR
  0
POLYLINE
  8
0
 66
     1
 10
0.0
 20
0.0
 30
0.0
 70
     1
  0
VERTEX
  8
0
 10
-0.219375
 20
0.0
 30
0.0
  0
VERTEX
  8
0
 10
-0.109687
 20
0.189984
 30
0.0
  0
VERTEX
  8
0
 10
0.109687
 20
0.189984
 30
0.0
  0
VERTEX
  8
0
 10
0.219375
 20
0.0
 30
0.0
  0
VERTEX
  8
0
 10
0.109687
 20
-0.189984
 30
0.0
  0
VERTEX
  8
0
 10
-0.109687
 20
-0.189984
 30
0.0
  0
SEQEND
  8
0
  0
CIRCLE
  8
0
 10
0.0
 20
0.0
 30
0.0
 40
0.186787
  0
CIRCLE
  8
OBJ
 10
0.0
 20
0.0
 30
0.0
 40
0.16065
  0
ARC
  8
0
 10
0.0
 20
0.0
 30
0.0
 40
0.193285
 50
79.395522
 51
100.604478
  0
LINE
  8
OBJ
 10
0.1071
 20
0.0357
 30
0.0
 11
0.0357
 21
0.0357
 31
0.0
  0
LINE
  8
OBJ
 10
0.1071
 20
-0.0357
 30
0.0
 11
0.0357
 21
-0.0357
 31
0.0
  0
LINE
  8
OBJ
 10
0.1071
 20
-0.0357
 30
0.0
 11
0.1071
 21
0.0357
 31
0.0
  0
LINE
  8
OBJ
 10
0.0357
 20
0.0357
 30
0.0
 11
0.0357
 21
0.1071
 31
0.0
  0
LINE
  8
OBJ
 10
-0.0357
 20
0.0357
 30
0.0
 11
-0.0357
 21
0.1071
 31
0.0
  0
LINE
  8
0
 10
0.0357
 20
-0.0357
 30
0.0
 11
-0.0357
 21
0.0357
 31
0.0
  0
LINE
  8
0
 10
0.0357
 20
0.0357
 30
0.0
 11
-0.0357
 21
-0.0357
 31
0.0
  0
LINE
  8
OBJ
 10
-0.0357
 20
0.0357
 30
0.0
 11
-0.1071
 21
0.0357
 31
0.0
  0
LINE
  8
OBJ
 10
-0.1071
 20
0.0357
 30
0.0
 11
-0.1071
 21
-0.0357
 31
0.0
  0
LINE
  8
OBJ
 10
-0.0357
 20
-0.0357
 30
0.0
 11
-0.1071
 21
-0.0357
 31
0.0
  0
LINE
  8
OBJ
 10
-0.0357
 20
-0.1071
 30
0.0
 11
-0.0357
 21
-0.0357
 31
0.0
  0
LINE
  8
OBJ
 10
-0.0357
 20
-0.1071
 30
0.0
 11
0.0357
 21
-0.1071
 31
0.0
  0
LINE
  8
OBJ
 10
0.0357
 20
-0.1071
 30
0.0
 11
0.0357
 21
-0.0357
 31
0.0
  0
LINE
  8
OBJ
 10
0.0357
 20
0.1071
 30
0.0
 11
-0.0357
 21
0.1071
 31
0.0
  0
ARC
  8
0
 10
0.0
 20
0.0
 30
0.0
 40
0.193285
 50
139.395522
 51
160.604478
  0
ARC
  8
0
 10
0.0
 20
0.0
 30
0.0
 40
0.193285
 50
199.395522
 51
220.604478
  0
ARC
  8
0
 10
0.0
 20
0.0
 30
0.0
 40
0.193285
 50
259.395522
 51
280.604478
  0
ARC
  8
0
 10
0.0
 20
0.0
 30
0.0
 40
0.193285
 50
319.395522
 51
340.604478
  0
ARC
  8
0
 10
0.0
 20
0.0
 30
0.0
 40
0.193285
 50
19.395522
 51
40.604478
  0
ENDBLK
  8
0
  0
ENDSEC
  0
SECTION
  2
ENTITIES
  0
ARC
  8
0
 10
-5.308311
 20
6.051412
 30
0.0
 40
1.38366
 50
74.176778
 51
90.0
  0
ARC
  8
0
 10
-5.308311
 20
6.051412
 30
0.0
 40
1.38366
 50
90.0
 51
105.823222
  0
ARC
  8
0
 10
-59.9916
 20
7.831492
 30
0.0
 40
56.434927
 50
358.189565
 51
0.150046
  0
ARC
  8
0
 10
49.428913
 20
7.831492
 30
0.0
 40
56.434927
 50
179.849954
 51
181.810435
  0
ARC
  8
0
 10
49.428913
 20
7.831492
 30
0.0
 40
56.171737
 50
179.134257
 51
182.747486
  0
ARC
  8
0
 10
-59.9916
 20
7.831492
 30
0.0
 40
56.171737
 50
357.252514
 51
0.865743
  0
LINE
  8
0
 10
-9.681343
 20
6.809984
 30
0.0
 11
-9.681343
 21
7.459584
 31
0.0
  0
LINE
  8
TEXT
 62
     7
 10
-7.977843
 20
8.522284
 30
0.0
 11
-7.977843
 21
5.747284
 31
0.0
  0
LINE
  8
TEXT
 62
     7
 10
-7.820343
 20
8.562284
 30
0.0
 11
-7.820343
 21
5.707284
 31
0.0
  0
LINE
  8
TEXT
 62
     7
 10
-8.095943
 20
7.911684
 30
0.0
 11
-8.095943
 21
6.416884
 31
0.0
  0
LINE
  8
0
 10
-8.381343
 20
6.643784
 30
0.0
 11
-8.381343
 21
7.625784
 31
0.0
  0
LINE
  8
0
 10
-2.181343
 20
6.643784
 30
0.0
 11
-2.181343
 21
7.625784
 31
0.0
  0
LINE
  8
0
 10
-0.881343
 20
6.809984
 30
0.0
 11
-0.881343
 21
7.459584
 31
0.0
  0
LINE
  8
TEXT
 62
     7
 10
-2.742343
 20
8.562284
 30
0.0
 11
-2.742343
 21
5.707284
 31
0.0
  0
LINE
  8
TEXT
 62
     7
 10
-2.466743
 20
7.911684
 30
0.0
 11
-2.466743
 21
6.416884
 31
0.0
  0
LINE
  8
TEXT
 62
     7
 10
-2.584843
 20
8.522284
 30
0.0
 11
-2.584843
 21
5.747284
 31
0.0
  0
LINE
  8
0
 10
-0.881343
 20
-4.691536
 30
0.0
 11
-0.881343
 21
-4.041936
 31
0.0
  0
LINE
  8
TEXT
 62
     7
 10
-2.584843
 20
-2.979236
 30
0.0
 11
-2.584843
 21
-5.754236
 31
0.0
  0
LINE
  8
TEXT
 62
     7
 10
-2.742343
 20
-2.939236
 30
0.0
 11
-2.742343
 21
-5.794236
 31
0.0
  0
LINE
  8
TEXT
 62
     7
 10
-2.466743
 20
-3.589836
 30
0.0
 11
-2.466743
 21
-5.084636
 31
0.0
  0
LINE
  8
0
 10
-2.181343
 20
-4.857736
 30
0.0
 11
-2.181343
 21
-3.875736
 31
0.0
  0
LINE
  8
0
 10
-8.381343
 20
-4.857736
 30
0.0
 11
-8.381343
 21
-3.875736
 31
0.0
  0
LINE
  8
TEXT
 62
     7
 10
-8.095943
 20
-3.589836
 30
0.0
 11
-8.095943
 21
-5.084636
 31
0.0
  0
LINE
  8
TEXT
 62
     7
 10
-7.820343
 20
-2.939236
 30
0.0
 11
-7.820343
 21
-5.794236
 31
0.0
  0
LINE
  8
TEXT
 62
     7
 10
-7.977843
 20
-2.979236
 30
0.0
 11
-7.977843
 21
-5.754236
 31
0.0
  0
LINE
  8
0
 10
-9.681343
 20
-4.691536
 30
0.0
 11
-9.681343
 21
-4.041936
 31
0.0
  0
ARC
  8
0
 10
-4.100243
 20
-4.390736
 30
0.0
 40
0.415108
 50
333.914938
 51
130.59787
  0
ARC
  8
0
 10
-5.281343
 20
-4.390736
 30
0.0
 40
0.415173
 50
49.397336
 51
130.602664
  0
ARC
  8
0
 10
-6.462443
 20
-4.390736
 30
0.0
 40
0.415108
 50
49.40213
 51
106.573037
  0
LINE
  8
0
 10
-3.181343
 20
-3.612736
 30
0.0
 11
-3.181343
 21
-5.171736
 31
0.0
  0
ARC
  8
0
 10
-4.100243
 20
-4.390736
 30
0.0
 40
0.615108
 50
229.40213
 51
130.59787
  0
LINE
  8
0
 10
-7.381343
 20
-3.612736
 30
0.0
 11
-7.381343
 21
-5.171736
 31
0.0
  0
ARC
  8
0
 10
-6.462443
 20
-4.390736
 30
0.0
 40
0.615108
 50
49.40213
 51
310.59787
  0
LINE
  8
0
 10
-9.681343
 20
-4.691536
 30
0.0
 11
-8.381343
 21
-4.691536
 31
0.0
  0
LINE
  8
0
 10
-2.898343
 20
-6.471736
 30
0.0
 11
-3.567509
 21
-6.471736
 31
0.0
  0
LINE
  8
0
 10
-3.241132
 20
-4.390736
 30
0.0
 11
-3.387765
 21
-4.390736
 31
0.0
  0
CIRCLE
  8
0
 10
-3.509643
 20
-5.079736
 30
0.0
 40
0.28
  0
ARC
  8
0
 10
-4.100243
 20
-5.768736
 30
0.0
 40
0.668
 50
219.740727
 51
38.705841
  0
CIRCLE
  8
0
 10
-3.509743
 20
-5.079736
 30
0.0
 40
0.258
  0
CIRCLE
  8
0
 10
-3.509743
 20
-5.079736
 30
0.0
 40
0.226
  0
LINE
  8
0
 10
-4.691343
 20
-7.239436
 30
0.0
 11
-5.246343
 21
-6.684436
 31
0.0
  0
LINE
  8
0
 10
-5.871343
 20
-7.239436
 30
0.0
 11
-5.316343
 21
-6.684436
 31
0.0
  0
LINE
  8
0
 10
-4.306943
 20
-6.561436
 30
0.0
 11
-4.306943
 21
-7.319436
 31
0.0
  0
LINE
  8
0
 10
-6.255743
 20
-6.561436
 30
0.0
 11
-6.255743
 21
-7.319436
 31
0.0
  0
LINE
  8
0
 10
-5.871343
 20
-7.319436
 30
0.0
 11
-6.255743
 21
-7.319436
 31
0.0
  0
LINE
  8
0
 10
-5.871343
 20
-7.239436
 30
0.0
 11
-5.871343
 21
-7.319436
 31
0.0
  0
LINE
  8
0
 10
-4.691343
 20
-7.239436
 30
0.0
 11
-4.691343
 21
-7.319436
 31
0.0
  0
LINE
  8
0
 10
-4.306943
 20
-7.319436
 30
0.0
 11
-4.691343
 21
-7.319436
 31
0.0
  0
LINE
  8
0
 10
-6.195443
 20
-5.306278
 30
0.0
 11
-6.729443
 21
-5.306278
 31
0.0
  0
LINE
  8
0
 10
-6.729443
 20
-6.231193
 30
0.0
 11
-6.195443
 21
-6.231193
 31
0.0
  0
LINE
  8
0
 10
-6.344743
 20
-6.561436
 30
0.0
 11
-6.255743
 21
-6.561436
 31
0.0
  0
ARC
  8
0
 10
-6.462443
 20
-4.390736
 30
0.0
 40
0.415108
 50
135.89544
 51
310.59787
  0
ARC
  8
0
 10
-6.462443
 20
-5.768736
 30
0.0
 40
0.668
 50
141.294159
 51
320.259273
  0
CIRCLE
  8
0
 10
-6.462443
 20
-5.768736
 30
0.0
 40
0.27
  0
CIRCLE
  8
0
 10
-6.462443
 20
-5.768736
 30
0.0
 40
0.459943
  0
CIRCLE
  8
0
 10
-6.462443
 20
-5.768736
 30
0.0
 40
0.572
  0
ARC
  8
0
 10
-6.462443
 20
-5.768736
 30
0.0
 40
0.668
 50
60.101945
 51
119.91117
  0
LINE
  8
0
 10
-6.729443
 20
-5.306278
 30
0.0
 11
-6.996443
 21
-5.768736
 31
0.0
  0
LINE
  8
OBJ
 10
-8.025651
 20
-5.177509
 30
0.0
 11
-8.025651
 21
-5.612562
 31
0.0
  0
LINE
  8
0
 10
-7.977843
 20
-5.19484
 30
0.0
 11
-7.977843
 21
-5.595232
 31
0.0
  0
ARC
  8
OBJ
 10
-8.043622
 20
-5.395036
 30
0.0
 40
0.179237
 50
142.158498
 51
217.841502
  0
LINE
  8
OBJ
 10
-8.222859
 20
-5.285077
 30
0.0
 11
-8.222859
 21
-5.504994
 31
0.0
  0
LINE
  8
0
 10
-7.724343
 20
-5.291736
 30
0.0
 11
-7.724343
 21
-6.451736
 31
0.0
  0
LINE
  8
0
 10
-7.820343
 20
-5.794236
 30
0.0
 11
-7.724343
 21
-5.794236
 31
0.0
  0
LINE
  8
0
 10
-7.427779
 20
-5.871736
 30
0.0
 11
-8.159472
 21
-5.871736
 31
0.0
  0
LINE
  8
TEXT
 62
     7
 10
-7.820343
 20
-5.794236
 30
0.0
 11
-7.937843
 21
-5.794236
 31
0.0
  0
ARC
  8
TEXT
 62
     7
 10
-7.937843
 20
-5.754236
 30
0.0
 40
0.04
 50
180.0
 51
270.0
  0
LINE
  8
OBJ
  6
CONTINUOUS
 10
-8.025651
 20
-5.504994
 30
0.0
 11
-8.185168
 21
-5.504994
 31
0.0
  0
LINE
  8
OBJ
  6
CONTINUOUS
 10
-8.025651
 20
-5.612562
 30
0.0
 11
-8.185168
 21
-5.612562
 31
0.0
  0
LINE
  8
OBJ
 10
-8.222859
 20
-5.587647
 30
0.0
 11
-8.19964
 21
-5.604801
 31
0.0
  0
ARC
  8
OBJ
 10
-8.16564
 20
-5.558778
 30
0.0
 40
0.057219
 50
109.954678
 51
250.045322
  0
LINE
  8
OBJ
 10
-8.222859
 20
-5.504994
 30
0.0
 11
-8.222859
 21
-5.587647
 31
0.0
  0
LINE
  8
OBJ
  6
CENTER2
 10
-7.977843
 20
-5.595232
 30
0.0
 11
-8.025651
 21
-5.595232
 31
0.0
  0
LINE
  8
0
 10
-6.996443
 20
-5.768736
 30
0.0
 11
-6.729443
 21
-6.231193
 31
0.0
  0
LINE
  8
0
 10
-7.664343
 20
-6.471736
 30
0.0
 11
-6.995178
 21
-6.471736
 31
0.0
  0
ARC
  8
0
 10
-7.664343
 20
-6.371736
 30
0.0
 40
0.1
 50
233.130102
 51
270.0
  0
LINE
  8
0
 10
-6.344743
 20
-6.426285
 30
0.0
 11
-6.344743
 21
-6.561436
 31
0.0
  0
ARC
  8
0
 10
-6.835147
 20
-6.394097
 30
0.0
 40
0.06
 50
59.205835
 51
144.478293
  0
ARC
  8
0
 10
-6.995178
 20
-6.411736
 30
0.0
 40
0.06
 50
270.0
 51
324.478293
  0
LINE
  8
0
 10
-6.883981
 20
-6.359236
 30
0.0
 11
-6.946344
 21
-6.446596
 31
0.0
  0
ARC
  8
TEXT
 62
     7
 10
-8.017843
 20
-5.164636
 30
0.0
 40
0.04
 50
0.0
 51
90.0
  0
LINE
  8
0
 10
-8.381343
 20
-4.857736
 30
0.0
 11
-8.095943
 21
-4.857736
 31
0.0
  0
ARC
  8
TEXT
 62
     7
 10
-8.055943
 20
-5.084636
 30
0.0
 40
0.04
 50
180.0
 51
270.0
  0
ARC
  8
OBJ
 10
-8.16564
 20
-5.231293
 30
0.0
 40
0.057219
 50
109.954678
 51
250.045322
  0
LINE
  8
OBJ
 10
-8.222859
 20
-5.202424
 30
0.0
 11
-8.222859
 21
-5.285077
 31
0.0
  0
LINE
  8
OBJ
  6
CONTINUOUS
 10
-8.025651
 20
-5.285077
 30
0.0
 11
-8.185168
 21
-5.285077
 31
0.0
  0
LINE
  8
OBJ
  6
CONTINUOUS
 10
-8.025651
 20
-5.177509
 30
0.0
 11
-8.185168
 21
-5.177509
 31
0.0
  0
LINE
  8
OBJ
 10
-8.222859
 20
-5.202424
 30
0.0
 11
-8.19964
 21
-5.185271
 31
0.0
  0
LINE
  8
TEXT
 62
     7
 10
-8.017843
 20
-5.124636
 30
0.0
 11
-8.055943
 21
-5.124636
 31
0.0
  0
LINE
  8
TEXT
 62
     7
 10
-8.017843
 20
-5.124636
 30
0.0
 11
-8.055943
 21
-5.124636
 31
0.0
  0
LINE
  8
OBJ
 10
-7.977843
 20
-5.346643
 30
0.0
 11
-8.025651
 21
-5.298835
 31
0.0
  0
LINE
  8
OBJ
  6
CENTER2
 10
-7.977843
 20
-5.19484
 30
0.0
 11
-8.025651
 21
-5.19484
 31
0.0
  0
ARC
  8
0
 10
-7.146017
 20
-4.711285
 30
0.0
 40
0.1
 50
284.162205
 51
25.123366
  0
LINE
  8
0
 10
-6.985043
 20
-4.961956
 30
0.0
 11
-7.121043
 21
-4.961956
 31
0.0
  0
LINE
  8
0
 10
-7.121043
 20
-5.197515
 30
0.0
 11
-6.985043
 21
-5.197515
 31
0.0
  0
ARC
  8
0
 10
-7.158754
 20
-5.444736
 30
0.0
 40
0.1
 50
335.047013
 51
73.848064
  0
CIRCLE
  8
0
 10
-7.053043
 20
-5.079736
 30
0.0
 40
0.28
  0
CIRCLE
  8
0
 10
-7.053043
 20
-5.079736
 30
0.0
 40
0.258
  0
CIRCLE
  8
0
 10
-7.053043
 20
-5.079736
 30
0.0
 40
0.226
  0
CIRCLE
  8
0
 10
-7.053043
 20
-5.079736
 30
0.0
 40
0.136
  0
LINE
  8
0
 10
-7.189043
 20
-5.079736
 30
0.0
 11
-7.121043
 21
-5.197515
 31
0.0
  0
LINE
  8
0
 10
-7.121043
 20
-4.961956
 30
0.0
 11
-7.189043
 21
-5.079736
 31
0.0
  0
ARC
  8
0
 10
-7.664343
 20
-5.371736
 30
0.0
 40
0.1
 50
90.0
 51
126.869898
  0
ARC
  8
0
 10
-7.481343
 20
-5.171736
 30
0.0
 40
0.1
 50
270.0
 51
0.0
  0
LINE
  8
0
 10
-7.664343
 20
-5.271736
 30
0.0
 11
-7.481343
 21
-5.271736
 31
0.0
  0
LINE
  8
0
 10
-6.917043
 20
-5.079736
 30
0.0
 11
-6.985043
 21
-4.961956
 31
0.0
  0
LINE
  8
0
 10
-6.985043
 20
-5.197515
 30
0.0
 11
-6.917043
 21
-5.079736
 31
0.0
  0
ARC
  8
0
 10
-7.321555
 20
-4.330736
 30
0.0
 40
0.06
 50
184.813698
 51
270.0
  0
ARC
  8
0
 10
-7.174922
 20
-4.450736
 30
0.0
 40
0.06
 50
4.813698
 51
90.0
  0
ARC
  8
0
 10
-6.462443
 20
-4.390736
 30
0.0
 40
0.655
 50
184.813698
 51
205.123366
  0
LINE
  8
0
 10
-7.321555
 20
-4.390736
 30
0.0
 11
-7.174922
 21
-4.390736
 31
0.0
  0
LINE
  8
0
 10
-4.747343
 20
-5.768736
 30
0.0
 11
-5.014343
 21
-5.306278
 31
0.0
  0
LINE
  8
0
 10
-5.548343
 20
-5.306278
 30
0.0
 11
-5.815343
 21
-5.768736
 31
0.0
  0
LINE
  8
0
 10
-3.566243
 20
-5.768736
 30
0.0
 11
-3.833243
 21
-5.306278
 31
0.0
  0
LINE
  8
0
 10
-4.367243
 20
-5.306278
 30
0.0
 11
-4.634243
 21
-5.768736
 31
0.0
  0
LINE
  8
0
 10
-5.928443
 20
-5.768736
 30
0.0
 11
-6.195443
 21
-5.306278
 31
0.0
  0
CIRCLE
  8
0
 10
-4.100243
 20
-5.768736
 30
0.0
 40
0.459943
  0
CIRCLE
  8
0
 10
-4.100243
 20
-5.768736
 30
0.0
 40
0.572
  0
CIRCLE
  8
0
 10
-5.281343
 20
-5.768736
 30
0.0
 40
0.459943
  0
CIRCLE
  8
0
 10
-5.281343
 20
-5.768736
 30
0.0
 40
0.572
  0
LINE
  8
0
 10
-5.014343
 20
-6.231193
 30
0.0
 11
-4.747343
 21
-5.768736
 31
0.0
  0
LINE
  8
0
 10
-4.858254
 20
-6.285668
 30
0.0
 11
-4.523333
 21
-6.285668
 31
0.0
  0
ARC
  8
0
 10
-5.281343
 20
-5.768736
 30
0.0
 40
0.668
 50
219.740727
 51
320.259273
  0
LINE
  8
0
 10
-5.815343
 20
-5.768736
 30
0.0
 11
-5.548343
 21
-6.231193
 31
0.0
  0
LINE
  8
0
 10
-6.195443
 20
-6.231193
 30
0.0
 11
-5.928443
 21
-5.768736
 31
0.0
  0
LINE
  8
0
 10
-6.039354
 20
-6.285668
 30
0.0
 11
-5.704433
 21
-6.285668
 31
0.0
  0
LINE
  8
0
 10
-5.548343
 20
-6.231193
 30
0.0
 11
-5.014343
 21
-6.231193
 31
0.0
  0
LINE
  8
0
 10
-5.316343
 20
-6.684436
 30
0.0
 11
-5.246343
 21
-6.684436
 31
0.0
  0
ARC
  8
0
 10
-5.871893
 20
-6.259729
 30
0.0
 40
0.1
 50
39.740727
 51
140.259273
  0
CIRCLE
  8
0
 10
-5.281343
 20
-5.768736
 30
0.0
 40
0.27
  0
LINE
  8
0
 10
-3.833243
 20
-6.231193
 30
0.0
 11
-3.566243
 21
-5.768736
 31
0.0
  0
LINE
  8
0
 10
-4.634243
 20
-5.768736
 30
0.0
 11
-4.367243
 21
-6.231193
 31
0.0
  0
LINE
  8
0
 10
-4.367243
 20
-6.231193
 30
0.0
 11
-3.833243
 21
-6.231193
 31
0.0
  0
LINE
  8
0
 10
-4.217943
 20
-6.426285
 30
0.0
 11
-4.217943
 21
-6.561436
 31
0.0
  0
LINE
  8
0
 10
-4.217943
 20
-6.561436
 30
0.0
 11
-4.306943
 21
-6.561436
 31
0.0
  0
ARC
  8
0
 10
-3.72754
 20
-6.394097
 30
0.0
 40
0.06
 50
35.521707
 51
120.794165
  0
ARC
  8
0
 10
-3.567509
 20
-6.411736
 30
0.0
 40
0.06
 50
215.521707
 51
270.0
  0
LINE
  8
0
 10
-3.678706
 20
-6.359236
 30
0.0
 11
-3.616343
 21
-6.446596
 31
0.0
  0
CIRCLE
  8
0
 10
-4.100243
 20
-5.768736
 30
0.0
 40
0.27
  0
ARC
  8
0
 10
-4.690793
 20
-6.259729
 30
0.0
 40
0.1
 50
39.740727
 51
140.259273
  0
LINE
  8
0
 10
-4.826843
 20
-5.079736
 30
0.0
 11
-4.758843
 21
-5.197515
 31
0.0
  0
LINE
  8
0
 10
-4.758843
 20
-4.961956
 30
0.0
 11
-4.826843
 21
-5.079736
 31
0.0
  0
ARC
  8
0
 10
-4.690743
 20
-5.079736
 30
0.0
 40
0.492312
 50
49.40213
 51
130.602664
  0
ARC
  8
0
 10
-4.690743
 20
-3.701736
 30
0.0
 40
0.492312
 50
229.397336
 51
290.987449
  0
ARC
  8
0
 10
-4.690743
 20
-5.079736
 30
0.0
 40
0.28
 50
283.949897
 51
256.021167
  0
ARC
  8
0
 10
-4.690743
 20
-5.079736
 30
0.0
 40
0.292312
 50
49.40213
 51
130.602664
  0
CIRCLE
  8
0
 10
-4.690843
 20
-5.079736
 30
0.0
 40
0.258
  0
CIRCLE
  8
0
 10
-4.690843
 20
-5.079736
 30
0.0
 40
0.226
  0
CIRCLE
  8
0
 10
-4.690843
 20
-5.079736
 30
0.0
 40
0.136
  0
ARC
  8
0
 10
-5.281343
 20
-4.390736
 30
0.0
 40
0.415173
 50
229.397336
 51
310.602664
  0
ARC
  8
0
 10
-5.281343
 20
-5.768736
 30
0.0
 40
0.668
 50
60.08883
 51
119.91117
  0
ARC
  8
0
 10
-5.281343
 20
-4.390736
 30
0.0
 40
0.615173
 50
229.397336
 51
310.602664
  0
LINE
  8
0
 10
-5.803943
 20
-4.961956
 30
0.0
 11
-5.939943
 21
-4.961956
 31
0.0
  0
LINE
  8
0
 10
-5.735943
 20
-5.079736
 30
0.0
 11
-5.803943
 21
-4.961956
 31
0.0
  0
LINE
  8
0
 10
-5.803943
 20
-5.197515
 30
0.0
 11
-5.735943
 21
-5.079736
 31
0.0
  0
LINE
  8
0
 10
-5.939943
 20
-5.197515
 30
0.0
 11
-5.803943
 21
-5.197515
 31
0.0
  0
LINE
  8
0
 10
-6.007943
 20
-5.079736
 30
0.0
 11
-5.939943
 21
-5.197515
 31
0.0
  0
LINE
  8
0
 10
-5.939943
 20
-4.961956
 30
0.0
 11
-6.007943
 21
-5.079736
 31
0.0
  0
ARC
  8
0
 10
-5.871882
 20
-5.322732
 30
0.0
 40
0.073423
 50
203.048183
 51
336.980753
  0
ARC
  8
0
 10
-5.871893
 20
-5.277742
 30
0.0
 40
0.1
 50
227.506601
 51
312.522336
  0
ARC
  8
0
 10
-5.871943
 20
-5.079736
 30
0.0
 40
0.292312
 50
49.397336
 51
130.59787
  0
ARC
  8
0
 10
-5.871943
 20
-5.079736
 30
0.0
 40
0.28
 50
283.978833
 51
256.050103
  0
CIRCLE
  8
0
 10
-5.871943
 20
-5.079736
 30
0.0
 40
0.258
  0
CIRCLE
  8
0
 10
-5.871943
 20
-5.079736
 30
0.0
 40
0.226
  0
CIRCLE
  8
0
 10
-5.871943
 20
-5.079736
 30
0.0
 40
0.136
  0
LINE
  8
0
 10
-5.014343
 20
-5.306278
 30
0.0
 11
-5.548343
 21
-5.306278
 31
0.0
  0
ARC
  8
0
 10
-5.871943
 20
-3.701736
 30
0.0
 40
0.492312
 50
229.40213
 51
310.602664
  0
ARC
  8
0
 10
-5.871943
 20
-5.079736
 30
0.0
 40
0.492312
 50
49.397336
 51
51.992735
  0
ARC
  8
0
 10
-5.871943
 20
-5.079736
 30
0.0
 40
0.492312
 50
73.339009
 51
130.59787
  0
ARC
  8
0
 10
-4.100243
 20
-4.390736
 30
0.0
 40
0.415108
 50
229.40213
 51
307.477129
  0
ARC
  8
0
 10
-3.41667
 20
-4.711285
 30
0.0
 40
0.1
 50
154.876634
 51
255.837795
  0
LINE
  8
0
 10
-3.833243
 20
-5.306278
 30
0.0
 11
-4.367243
 21
-5.306278
 31
0.0
  0
ARC
  8
0
 10
-4.100243
 20
-5.768736
 30
0.0
 40
0.668
 50
60.08883
 51
119.898055
  0
LINE
  8
0
 10
-4.622843
 20
-4.961956
 30
0.0
 11
-4.758843
 21
-4.961956
 31
0.0
  0
LINE
  8
0
 10
-4.554843
 20
-5.079736
 30
0.0
 11
-4.622843
 21
-4.961956
 31
0.0
  0
LINE
  8
0
 10
-4.622843
 20
-5.197515
 30
0.0
 11
-4.554843
 21
-5.079736
 31
0.0
  0
LINE
  8
0
 10
-4.758843
 20
-5.197515
 30
0.0
 11
-4.622843
 21
-5.197515
 31
0.0
  0
ARC
  8
0
 10
-5.281343
 20
-5.768736
 30
0.0
 40
0.668
 50
35.904928
 51
38.705841
  0
ARC
  8
0
 10
-4.690793
 20
-5.277742
 30
0.0
 40
0.1
 50
227.477664
 51
312.493399
  0
ARC
  8
0
 10
-4.690805
 20
-5.322732
 30
0.0
 40
0.073423
 50
203.019247
 51
336.951817
  0
LINE
  8
0
 10
-3.441743
 20
-4.961956
 30
0.0
 11
-3.577743
 21
-4.961956
 31
0.0
  0
LINE
  8
0
 10
-3.373743
 20
-5.079736
 30
0.0
 11
-3.441743
 21
-4.961956
 31
0.0
  0
LINE
  8
0
 10
-3.441743
 20
-5.197515
 30
0.0
 11
-3.373743
 21
-5.079736
 31
0.0
  0
LINE
  8
0
 10
-3.577743
 20
-5.197515
 30
0.0
 11
-3.441743
 21
-5.197515
 31
0.0
  0
LINE
  8
0
 10
-3.645743
 20
-5.079736
 30
0.0
 11
-3.577743
 21
-5.197515
 31
0.0
  0
LINE
  8
0
 10
-3.577743
 20
-4.961956
 30
0.0
 11
-3.645743
 21
-5.079736
 31
0.0
  0
ARC
  8
0
 10
-3.403933
 20
-5.444736
 30
0.0
 40
0.1
 50
106.151936
 51
204.952987
  0
CIRCLE
  8
0
 10
-3.509743
 20
-5.079736
 30
0.0
 40
0.136
  0
ARC
  8
0
 10
-4.100243
 20
-4.390736
 30
0.0
 40
0.655
 50
334.876634
 51
355.186302
  0
ARC
  8
0
 10
-3.387765
 20
-4.450736
 30
0.0
 40
0.06
 50
90.0
 51
175.186302
  0
LINE
  8
OBJ
 10
-2.339827
 20
-5.285077
 30
0.0
 11
-2.339827
 21
-5.504994
 31
0.0
  0
ARC
  8
OBJ
 10
-2.519065
 20
-5.395036
 30
0.0
 40
0.179237
 50
322.158498
 51
37.841502
  0
LINE
  8
0
 10
-2.584843
 20
-5.19484
 30
0.0
 11
-2.584843
 21
-5.595232
 31
0.0
  0
LINE
  8
OBJ
 10
-2.537035
 20
-5.177509
 30
0.0
 11
-2.537035
 21
-5.612562
 31
0.0
  0
LINE
  8
0
 10
-2.838343
 20
-5.291736
 30
0.0
 11
-2.838343
 21
-6.451736
 31
0.0
  0
ARC
  8
0
 10
-2.898343
 20
-6.371736
 30
0.0
 40
0.1
 50
270.0
 51
306.869898
  0
ARC
  8
TEXT
 62
     7
 10
-2.624843
 20
-5.754236
 30
0.0
 40
0.04
 50
270.0
 51
0.0
  0
LINE
  8
OBJ
  6
CENTER2
 10
-2.584843
 20
-5.595232
 30
0.0
 11
-2.537035
 21
-5.595232
 31
0.0
  0
LINE
  8
0
 10
-3.134908
 20
-5.871736
 30
0.0
 11
-2.403214
 21
-5.871736
 31
0.0
  0
LINE
  8
0
 10
-2.742343
 20
-5.794236
 30
0.0
 11
-2.838343
 21
-5.794236
 31
0.0
  0
LINE
  8
TEXT
 62
     7
 10
-2.742343
 20
-5.794236
 30
0.0
 11
-2.624843
 21
-5.794236
 31
0.0
  0
LINE
  8
OBJ
 10
-2.339827
 20
-5.504994
 30
0.0
 11
-2.339827
 21
-5.587647
 31
0.0
  0
ARC
  8
OBJ
 10
-2.397047
 20
-5.558778
 30
0.0
 40
0.057219
 50
289.954678
 51
70.045322
  0
LINE
  8
OBJ
 10
-2.339827
 20
-5.587647
 30
0.0
 11
-2.363047
 21
-5.604801
 31
0.0
  0
LINE
  8
OBJ
  6
CONTINUOUS
 10
-2.537035
 20
-5.612562
 30
0.0
 11
-2.377519
 21
-5.612562
 31
0.0
  0
LINE
  8
OBJ
  6
CONTINUOUS
 10
-2.537035
 20
-5.504994
 30
0.0
 11
-2.377519
 21
-5.504994
 31
0.0
  0
LINE
  8
0
 10
-0.881343
 20
-4.691536
 30
0.0
 11
-2.181343
 21
-4.691536
 31
0.0
  0
LINE
  8
OBJ
  6
CENTER2
 10
-2.584843
 20
-5.19484
 30
0.0
 11
-2.537035
 21
-5.19484
 31
0.0
  0
LINE
  8
OBJ
 10
-2.584843
 20
-5.346643
 30
0.0
 11
-2.537035
 21
-5.298835
 31
0.0
  0
ARC
  8
TEXT
 62
     7
 10
-2.544843
 20
-5.164636
 30
0.0
 40
0.04
 50
90.0
 51
180.0
  0
ARC
  8
0
 10
-2.898343
 20
-5.371736
 30
0.0
 40
0.1
 50
53.130102
 51
90.0
  0
LINE
  8
0
 10
-2.898343
 20
-5.271736
 30
0.0
 11
-3.081343
 21
-5.271736
 31
0.0
  0
ARC
  8
0
 10
-3.081343
 20
-5.171736
 30
0.0
 40
0.1
 50
180.0
 51
270.0
  0
LINE
  8
OBJ
 10
-2.339827
 20
-5.202424
 30
0.0
 11
-2.363047
 21
-5.185271
 31
0.0
  0
LINE
  8
OBJ
  6
CONTINUOUS
 10
-2.537035
 20
-5.177509
 30
0.0
 11
-2.377519
 21
-5.177509
 31
0.0
  0
LINE
  8
OBJ
  6
CONTINUOUS
 10
-2.537035
 20
-5.285077
 30
0.0
 11
-2.377519
 21
-5.285077
 31
0.0
  0
LINE
  8
OBJ
 10
-2.339827
 20
-5.202424
 30
0.0
 11
-2.339827
 21
-5.285077
 31
0.0
  0
ARC
  8
OBJ
 10
-2.397047
 20
-5.231293
 30
0.0
 40
0.057219
 50
289.954678
 51
70.045322
  0
ARC
  8
TEXT
 62
     7
 10
-2.506743
 20
-5.084636
 30
0.0
 40
0.04
 50
270.0
 51
0.0
  0
LINE
  8
TEXT
 62
     7
 10
-2.544843
 20
-5.124636
 30
0.0
 11
-2.506743
 21
-5.124636
 31
0.0
  0
LINE
  8
TEXT
 62
     7
 10
-2.544843
 20
-5.124636
 30
0.0
 11
-2.506743
 21
-5.124636
 31
0.0
  0
LINE
  8
0
 10
-2.181343
 20
-4.857736
 30
0.0
 11
-2.466743
 21
-4.857736
 31
0.0
  0
ARC
  8
0
 10
-3.241132
 20
-4.330736
 30
0.0
 40
0.06
 50
270.0
 51
355.186302
  0
LINE
  8
0
 10
-9.681343
 20
-4.041936
 30
0.0
 11
-8.381343
 21
-4.041936
 31
0.0
  0
LINE
  8
0
 10
-9.681343
 20
7.036384
 30
0.0
 11
-8.731343
 21
7.036384
 31
0.0
  0
LINE
  8
0
 10
-9.681343
 20
7.233184
 30
0.0
 11
-8.731343
 21
7.233184
 31
0.0
  0
LINE
  8
0
 10
-9.681343
 20
6.809984
 30
0.0
 11
-8.381343
 21
6.809984
 31
0.0
  0
LINE
  8
0
 10
-3.566243
 20
1.422284
 30
0.0
 11
-3.833243
 21
1.884741
 31
0.0
  0
LINE
  8
0
 10
-4.367243
 20
1.884741
 30
0.0
 11
-4.634243
 21
1.422284
 31
0.0
  0
LINE
  8
0
 10
-4.747343
 20
1.422284
 30
0.0
 11
-5.014343
 21
1.884741
 31
0.0
  0
LINE
  8
0
 10
-5.548343
 20
1.884741
 30
0.0
 11
-5.815343
 21
1.422284
 31
0.0
  0
LINE
  8
0
 10
-5.928443
 20
1.422284
 30
0.0
 11
-6.195443
 21
1.884741
 31
0.0
  0
LINE
  8
0
 10
-6.729443
 20
1.884741
 30
0.0
 11
-6.996443
 21
1.422284
 31
0.0
  0
LINE
  8
0
 10
-7.724343
 20
2.807284
 30
0.0
 11
-7.724343
 21
1.647284
 31
0.0
  0
LINE
  8
0
 10
-2.838343
 20
2.807284
 30
0.0
 11
-2.838343
 21
1.647284
 31
0.0
  0
LINE
  8
0
 10
-7.715343
 20
1.902284
 30
0.0
 11
-7.715343
 21
0.942284
 31
0.0
  0
LINE
  8
0
 10
-2.847343
 20
1.902284
 30
0.0
 11
-2.847343
 21
0.942284
 31
0.0
  0
CIRCLE
  8
0
 10
-6.462443
 20
1.422284
 30
0.0
 40
0.572
  0
CIRCLE
  8
0
 10
-6.462443
 20
1.422284
 30
0.0
 40
0.459943
  0
CIRCLE
  8
0
 10
-6.462443
 20
1.422284
 30
0.0
 40
0.27
  0
ARC
  8
0
 10
-6.462443
 20
1.422284
 30
0.0
 40
0.668
 50
39.740727
 51
320.259273
  0
ARC
  8
0
 10
-4.100243
 20
1.422284
 30
0.0
 40
0.668
 50
219.740727
 51
140.259273
  0
CIRCLE
  8
0
 10
-5.281343
 20
1.422284
 30
0.0
 40
0.572
  0
CIRCLE
  8
0
 10
-5.281343
 20
1.422284
 30
0.0
 40
0.459943
  0
CIRCLE
  8
0
 10
-5.281343
 20
1.422284
 30
0.0
 40
0.27
  0
CIRCLE
  8
0
 10
-4.100243
 20
1.422284
 30
0.0
 40
0.572
  0
CIRCLE
  8
0
 10
-4.100243
 20
1.422284
 30
0.0
 40
0.459943
  0
CIRCLE
  8
0
 10
-4.100243
 20
1.422284
 30
0.0
 40
0.27
  0
LINE
  8
0
 10
-2.907343
 20
0.922284
 30
0.0
 11
-3.657272
 21
0.922284
 31
0.0
  0
LINE
  8
0
 10
-3.302743
 20
0.632284
 30
0.0
 11
-3.716743
 21
0.632284
 31
0.0
  0
LINE
  8
0
 10
-3.252743
 20
0.869542
 30
0.0
 11
-3.725143
 21
0.869542
 31
0.0
  0
LINE
  8
0
 10
-3.252743
 20
0.682284
 30
0.0
 11
-3.766743
 21
0.682284
 31
0.0
  0
ARC
  8
0
 10
-3.605823
 20
-3.701736
 30
0.0
 40
0.39257
 50
30.258875
 51
62.335318
  0
LINE
  8
0
 10
-2.368692
 20
-3.012736
 30
0.0
 11
-3.790832
 21
-3.012736
 31
0.0
  0
LINE
  8
0
 10
-3.392243
 20
-2.512736
 30
0.0
 11
-2.907343
 21
-2.512736
 31
0.0
  0
CIRCLE
  8
0
 10
-3.509743
 20
-3.701736
 30
0.0
 40
0.28
  0
CIRCLE
  8
0
 10
-3.509743
 20
-3.701736
 30
0.0
 40
0.258
  0
CIRCLE
  8
0
 10
-3.509743
 20
-3.701736
 30
0.0
 40
0.226
  0
LINE
  8
0
 10
-6.751427
 20
-3.570592
 30
0.0
 11
-6.17356
 21
-3.570592
 31
0.0
  0
LINE
  8
0
 10
-7.130443
 20
-2.221736
 30
0.0
 11
-3.432243
 21
-2.221736
 31
0.0
  0
ARC
  8
0
 10
-6.462443
 20
-2.712117
 30
0.0
 40
0.926381
 50
73.248683
 51
106.751317
  0
LINE
  8
0
 10
-6.862943
 20
-1.785736
 30
0.0
 11
-6.061943
 21
-1.785736
 31
0.0
  0
LINE
  8
0
 10
-7.034443
 20
-2.026736
 30
0.0
 11
-5.890443
 21
-2.026736
 31
0.0
  0
LINE
  8
0
 10
-7.034443
 20
-2.141736
 30
0.0
 11
-5.890443
 21
-2.141736
 31
0.0
  0
LINE
  8
0
 10
-7.050443
 20
-2.141736
 30
0.0
 11
-3.512243
 21
-2.141736
 31
0.0
  0
ARC
  8
0
 10
-7.664277
 20
-3.001308
 30
0.0
 40
0.707505
 50
359.074493
 51
38.259154
  0
LINE
  8
0
 10
-7.715343
 20
-2.532736
 30
0.0
 11
-7.715343
 21
-3.492736
 31
0.0
  0
LINE
  8
0
 10
-7.820343
 20
-2.939236
 30
0.0
 11
-7.715343
 21
-2.939236
 31
0.0
  0
LINE
  8
0
 10
-8.193995
 20
-3.012736
 30
0.0
 11
-6.771855
 21
-3.012736
 31
0.0
  0
LINE
  8
0
 10
-7.977843
 20
-3.07924
 30
0.0
 11
-7.977843
 21
-3.479632
 31
0.0
  0
LINE
  8
OBJ
 10
-8.025651
 20
-3.061909
 30
0.0
 11
-8.025651
 21
-3.496962
 31
0.0
  0
ARC
  8
OBJ
 10
-8.043622
 20
-3.279436
 30
0.0
 40
0.179237
 50
142.158498
 51
217.841502
  0
LINE
  8
OBJ
 10
-8.222859
 20
-3.169477
 30
0.0
 11
-8.222859
 21
-3.389394
 31
0.0
  0
ARC
  8
TEXT
 62
     7
 10
-8.017843
 20
-3.509836
 30
0.0
 40
0.04
 50
270.0
 51
0.0
  0
ARC
  8
TEXT
 62
     7
 10
-8.055943
 20
-3.589836
 30
0.0
 40
0.04
 50
90.0
 51
180.0
  0
LINE
  8
OBJ
  6
CONTINUOUS
 10
-8.025651
 20
-3.389394
 30
0.0
 11
-8.185168
 21
-3.389394
 31
0.0
  0
LINE
  8
OBJ
  6
CONTINUOUS
 10
-8.025651
 20
-3.496962
 30
0.0
 11
-8.185168
 21
-3.496962
 31
0.0
  0
LINE
  8
OBJ
 10
-8.222859
 20
-3.472047
 30
0.0
 11
-8.19964
 21
-3.489201
 31
0.0
  0
ARC
  8
OBJ
 10
-8.16564
 20
-3.443178
 30
0.0
 40
0.057219
 50
109.954678
 51
250.045322
  0
LINE
  8
OBJ
 10
-8.222859
 20
-3.389394
 30
0.0
 11
-8.222859
 21
-3.472047
 31
0.0
  0
LINE
  8
TEXT
 62
     7
 10
-8.017843
 20
-3.549836
 30
0.0
 11
-8.055943
 21
-3.549836
 31
0.0
  0
LINE
  8
TEXT
 62
     7
 10
-8.017843
 20
-3.549836
 30
0.0
 11
-8.055943
 21
-3.549836
 31
0.0
  0
LINE
  8
OBJ
  6
CENTER2
 10
-7.977843
 20
-3.479632
 30
0.0
 11
-8.025651
 21
-3.479632
 31
0.0
  0
LINE
  8
0
 10
-8.381343
 20
-3.875736
 30
0.0
 11
-8.095943
 21
-3.875736
 31
0.0
  0
LINE
  8
TEXT
 62
     7
 10
-7.820343
 20
-2.939236
 30
0.0
 11
-7.937843
 21
-2.939236
 31
0.0
  0
ARC
  8
TEXT
 62
     7
 10
-7.937843
 20
-2.979236
 30
0.0
 40
0.04
 50
90.0
 51
180.0
  0
ARC
  8
OBJ
 10
-8.16564
 20
-3.115693
 30
0.0
 40
0.057219
 50
109.954678
 51
250.045322
  0
LINE
  8
OBJ
 10
-8.222859
 20
-3.086824
 30
0.0
 11
-8.222859
 21
-3.169477
 31
0.0
  0
LINE
  8
OBJ
  6
CONTINUOUS
 10
-8.025651
 20
-3.169477
 30
0.0
 11
-8.185168
 21
-3.169477
 31
0.0
  0
LINE
  8
OBJ
  6
CONTINUOUS
 10
-8.025651
 20
-3.061909
 30
0.0
 11
-8.185168
 21
-3.061909
 31
0.0
  0
LINE
  8
OBJ
 10
-8.222859
 20
-3.086824
 30
0.0
 11
-8.19964
 21
-3.069671
 31
0.0
  0
LINE
  8
OBJ
 10
-7.977843
 20
-3.231043
 30
0.0
 11
-8.025651
 21
-3.183235
 31
0.0
  0
LINE
  8
OBJ
  6
CENTER2
 10
-7.977843
 20
-3.07924
 30
0.0
 11
-8.025651
 21
-3.07924
 31
0.0
  0
ARC
  8
0
 10
-7.410733
 20
-2.989679
 30
0.0
 40
0.454454
 50
306.701108
 51
357.091882
  0
ARC
  8
0
 10
-6.956864
 20
-3.701736
 30
0.0
 40
0.39257
 50
117.664682
 51
149.741125
  0
LINE
  8
0
 10
-6.985043
 20
-3.583956
 30
0.0
 11
-7.121043
 21
-3.583956
 31
0.0
  0
LINE
  8
0
 10
-7.121043
 20
-3.819515
 30
0.0
 11
-6.985043
 21
-3.819515
 31
0.0
  0
CIRCLE
  8
0
 10
-7.053043
 20
-3.701736
 30
0.0
 40
0.28
  0
CIRCLE
  8
0
 10
-7.053043
 20
-3.701736
 30
0.0
 40
0.136
  0
CIRCLE
  8
0
 10
-7.053043
 20
-3.701736
 30
0.0
 40
0.226
  0
CIRCLE
  8
0
 10
-7.053043
 20
-3.701736
 30
0.0
 40
0.258
  0
LINE
  8
0
 10
-7.189043
 20
-3.701736
 30
0.0
 11
-7.121043
 21
-3.819515
 31
0.0
  0
LINE
  8
0
 10
-7.121043
 20
-3.583956
 30
0.0
 11
-7.189043
 21
-3.701736
 31
0.0
  0
ARC
  8
0
 10
-7.655343
 20
-3.412736
 30
0.0
 40
0.1
 50
233.130102
 51
270.0
  0
ARC
  8
0
 10
-7.481343
 20
-3.612736
 30
0.0
 40
0.1
 50
0.0
 51
90.0
  0
LINE
  8
0
 10
-7.655343
 20
-3.512736
 30
0.0
 11
-7.481343
 21
-3.512736
 31
0.0
  0
LINE
  8
0
 10
-6.917043
 20
-3.701736
 30
0.0
 11
-6.985043
 21
-3.583956
 31
0.0
  0
LINE
  8
0
 10
-6.985043
 20
-3.819515
 30
0.0
 11
-6.917043
 21
-3.701736
 31
0.0
  0
ARC
  8
0
 10
-6.751427
 20
-3.470592
 30
0.0
 40
0.1
 50
217.464836
 51
270.0
  0
LINE
  8
0
 10
-6.729443
 20
-1.825047
 30
0.0
 11
-6.729443
 21
-2.026736
 31
0.0
  0
LINE
  8
0
 10
-6.996443
 20
-1.825047
 30
0.0
 11
-6.996443
 21
-2.026736
 31
0.0
  0
ARC
  8
0
 10
-7.655343
 20
-2.612736
 30
0.0
 40
0.1
 50
90.0
 51
126.869898
  0
LINE
  8
0
 10
-7.130443
 20
-2.472736
 30
0.0
 11
-7.130443
 21
-2.221736
 31
0.0
  0
ARC
  8
0
 10
-7.170443
 20
-2.472736
 30
0.0
 40
0.04
 50
270.0
 51
0.0
  0
LINE
  8
0
 10
-7.130443
 20
-2.221736
 30
0.0
 11
-7.050443
 21
-2.141736
 31
0.0
  0
LINE
  8
0
 10
-7.170443
 20
-2.512736
 30
0.0
 11
-7.655343
 21
-2.512736
 31
0.0
  0
LINE
  8
0
 10
-7.034443
 20
-2.026736
 30
0.0
 11
-7.034443
 21
-2.141736
 31
0.0
  0
ARC
  8
0
 10
-6.862943
 20
-2.032073
 30
0.0
 40
0.246337
 50
57.184167
 51
122.815833
  0
ARC
  8
0
 10
-2.89841
 20
-3.001308
 30
0.0
 40
0.707505
 50
141.740846
 51
180.925507
  0
LINE
  8
0
 10
-4.690843
 20
-2.751453
 30
0.0
 11
-4.690843
 21
-2.221736
 31
0.0
  0
LINE
  8
0
 10
-5.871943
 20
-2.746982
 30
0.0
 11
-5.871943
 21
-2.221736
 31
0.0
  0
LINE
  8
0
 10
-4.826843
 20
-3.701736
 30
0.0
 11
-4.758843
 21
-3.819515
 31
0.0
  0
LINE
  8
0
 10
-4.758843
 20
-3.583956
 30
0.0
 11
-4.826843
 21
-3.701736
 31
0.0
  0
ARC
  8
0
 10
-4.690743
 20
-3.701736
 30
0.0
 40
0.292312
 50
229.397336
 51
310.59787
  0
CIRCLE
  8
0
 10
-4.690843
 20
-3.701736
 30
0.0
 40
0.28
  0
CIRCLE
  8
0
 10
-4.690843
 20
-3.701736
 30
0.0
 40
0.258
  0
CIRCLE
  8
0
 10
-4.690843
 20
-3.701736
 30
0.0
 40
0.226
  0
CIRCLE
  8
0
 10
-4.690843
 20
-3.701736
 30
0.0
 40
0.136
  0
LINE
  8
0
 10
-5.871943
 20
-3.367685
 30
0.0
 11
-5.871943
 21
-3.278489
 31
0.0
  0
LINE
  8
0
 10
-4.99246
 20
-3.570592
 30
0.0
 11
-5.570327
 21
-3.570592
 31
0.0
  0
ARC
  8
0
 10
-5.281343
 20
-4.390736
 30
0.0
 40
0.615173
 50
49.397336
 51
130.602664
  0
LINE
  8
0
 10
-5.803943
 20
-3.583956
 30
0.0
 11
-5.939943
 21
-3.583956
 31
0.0
  0
LINE
  8
0
 10
-5.735943
 20
-3.701736
 30
0.0
 11
-5.803943
 21
-3.583956
 31
0.0
  0
LINE
  8
0
 10
-5.803943
 20
-3.819515
 30
0.0
 11
-5.735943
 21
-3.701736
 31
0.0
  0
LINE
  8
0
 10
-5.939943
 20
-3.819515
 30
0.0
 11
-5.803943
 21
-3.819515
 31
0.0
  0
LINE
  8
0
 10
-6.007943
 20
-3.701736
 30
0.0
 11
-5.939943
 21
-3.819515
 31
0.0
  0
LINE
  8
0
 10
-5.939943
 20
-3.583956
 30
0.0
 11
-6.007943
 21
-3.701736
 31
0.0
  0
ARC
  8
0
 10
-5.570327
 20
-3.470592
 30
0.0
 40
0.1
 50
217.464836
 51
270.0
  0
ARC
  8
0
 10
-6.17356
 20
-3.470592
 30
0.0
 40
0.1
 50
270.0
 51
322.535164
  0
ARC
  8
0
 10
-5.794688
 20
-3.352798
 30
0.0
 40
0.078677
 50
190.906704
 51
248.335372
  0
ARC
  8
0
 10
-5.949199
 20
-3.352798
 30
0.0
 40
0.078677
 50
291.664628
 51
349.093296
  0
ARC
  8
0
 10
-5.871943
 20
-3.701736
 30
0.0
 40
0.292312
 50
229.40213
 51
310.602664
  0
CIRCLE
  8
0
 10
-5.871943
 20
-3.701736
 30
0.0
 40
0.28
  0
CIRCLE
  8
0
 10
-5.871943
 20
-3.701736
 30
0.0
 40
0.258
  0
CIRCLE
  8
0
 10
-5.871943
 20
-3.701736
 30
0.0
 40
0.226
  0
CIRCLE
  8
0
 10
-5.871943
 20
-3.701736
 30
0.0
 40
0.136
  0
ARC
  8
0
 10
-4.99246
 20
-3.470592
 30
0.0
 40
0.1
 50
270.0
 51
322.535164
  0
ARC
  8
0
 10
-5.771943
 20
-2.746982
 30
0.0
 40
0.1
 50
180.0
 51
221.241468
  0
ARC
  8
0
 10
-5.771943
 20
-3.278489
 30
0.0
 40
0.1
 50
138.758532
 51
180.0
  0
ARC
  8
0
 10
-6.075068
 20
-3.012736
 30
0.0
 40
0.303125
 50
318.758532
 51
41.241468
  0
ARC
  8
0
 10
-5.971943
 20
-3.278489
 30
0.0
 40
0.1
 50
0.0
 51
41.241468
  0
ARC
  8
0
 10
-5.971943
 20
-2.746982
 30
0.0
 40
0.1
 50
318.758532
 51
0.0
  0
ARC
  8
0
 10
-5.668818
 20
-3.012736
 30
0.0
 40
0.303125
 50
138.758532
 51
221.241468
  0
ARC
  8
0
 10
-3.151954
 20
-2.989679
 30
0.0
 40
0.454454
 50
182.908118
 51
233.298892
  0
LINE
  8
0
 10
-4.690843
 20
-3.368195
 30
0.0
 11
-4.690843
 21
-3.274018
 31
0.0
  0
LINE
  8
0
 10
-3.81126
 20
-3.570592
 30
0.0
 11
-4.389127
 21
-3.570592
 31
0.0
  0
LINE
  8
0
 10
-4.622843
 20
-3.583956
 30
0.0
 11
-4.758843
 21
-3.583956
 31
0.0
  0
LINE
  8
0
 10
-4.554843
 20
-3.701736
 30
0.0
 11
-4.622843
 21
-3.583956
 31
0.0
  0
LINE
  8
0
 10
-4.622843
 20
-3.819515
 30
0.0
 11
-4.554843
 21
-3.701736
 31
0.0
  0
LINE
  8
0
 10
-4.758843
 20
-3.819515
 30
0.0
 11
-4.622843
 21
-3.819515
 31
0.0
  0
ARC
  8
0
 10
-4.389127
 20
-3.470592
 30
0.0
 40
0.1
 50
217.464836
 51
270.0
  0
ARC
  8
0
 10
-4.613488
 20
-3.352798
 30
0.0
 40
0.078677
 50
190.906704
 51
248.335372
  0
ARC
  8
0
 10
-4.767999
 20
-3.352798
 30
0.0
 40
0.078677
 50
291.664628
 51
349.093296
  0
LINE
  8
0
 10
-3.441743
 20
-3.583956
 30
0.0
 11
-3.577743
 21
-3.583956
 31
0.0
  0
LINE
  8
0
 10
-3.373743
 20
-3.701736
 30
0.0
 11
-3.441743
 21
-3.583956
 31
0.0
  0
LINE
  8
0
 10
-3.441743
 20
-3.819515
 30
0.0
 11
-3.373743
 21
-3.701736
 31
0.0
  0
LINE
  8
0
 10
-3.577743
 20
-3.819515
 30
0.0
 11
-3.441743
 21
-3.819515
 31
0.0
  0
LINE
  8
0
 10
-3.645743
 20
-3.701736
 30
0.0
 11
-3.577743
 21
-3.819515
 31
0.0
  0
LINE
  8
0
 10
-3.577743
 20
-3.583956
 30
0.0
 11
-3.645743
 21
-3.701736
 31
0.0
  0
ARC
  8
0
 10
-3.81126
 20
-3.470592
 30
0.0
 40
0.1
 50
270.0
 51
322.535164
  0
CIRCLE
  8
0
 10
-3.509743
 20
-3.701736
 30
0.0
 40
0.136
  0
ARC
  8
0
 10
-4.590743
 20
-2.746982
 30
0.0
 40
0.1
 50
180.0
 51
221.241468
  0
ARC
  8
0
 10
-4.790743
 20
-2.746982
 30
0.0
 40
0.1
 50
318.758532
 51
0.0
  0
ARC
  8
0
 10
-4.590743
 20
-3.278489
 30
0.0
 40
0.1
 50
138.758532
 51
180.0
  0
ARC
  8
0
 10
-4.790743
 20
-3.278489
 30
0.0
 40
0.1
 50
0.0
 51
41.241468
  0
ARC
  8
0
 10
-4.893868
 20
-3.012736
 30
0.0
 40
0.303125
 50
318.758532
 51
41.241468
  0
ARC
  8
0
 10
-4.487618
 20
-3.012736
 30
0.0
 40
0.303125
 50
138.758532
 51
221.241468
  0
ARC
  8
0
 10
-4.880843
 20
-2.032073
 30
0.0
 40
0.246337
 50
57.184167
 51
122.815833
  0
LINE
  8
0
 10
-5.853343
 20
-2.026736
 30
0.0
 11
-4.709343
 21
-2.026736
 31
0.0
  0
LINE
  8
0
 10
-5.853343
 20
-2.141736
 30
0.0
 11
-4.709343
 21
-2.141736
 31
0.0
  0
LINE
  8
0
 10
-5.014343
 20
-1.825047
 30
0.0
 11
-5.014343
 21
-2.026736
 31
0.0
  0
LINE
  8
0
 10
-5.548343
 20
-1.825047
 30
0.0
 11
-5.548343
 21
-2.026736
 31
0.0
  0
LINE
  8
0
 10
-5.815343
 20
-1.825047
 30
0.0
 11
-5.815343
 21
-2.026736
 31
0.0
  0
LINE
  8
0
 10
-5.928443
 20
-1.825047
 30
0.0
 11
-5.928443
 21
-2.026736
 31
0.0
  0
LINE
  8
0
 10
-6.195443
 20
-1.825047
 30
0.0
 11
-6.195443
 21
-2.026736
 31
0.0
  0
ARC
  8
0
 10
-5.871943
 20
-3.312537
 30
0.0
 40
1.26662
 50
89.158596
 51
90.83688
  0
ARC
  8
0
 10
-5.871943
 20
-4.164868
 30
0.0
 40
2.203433
 50
88.52807
 51
91.469329
  0
LINE
  8
0
 10
-5.829293
 20
-2.141736
 30
0.0
 11
-5.871943
 21
-2.221736
 31
0.0
  0
LINE
  8
0
 10
-5.914594
 20
-2.141736
 30
0.0
 11
-5.871943
 21
-2.221736
 31
0.0
  0
LINE
  8
0
 10
-5.853343
 20
-2.026736
 30
0.0
 11
-5.853343
 21
-2.141736
 31
0.0
  0
LINE
  8
0
 10
-5.890443
 20
-2.026736
 30
0.0
 11
-5.890443
 21
-2.141736
 31
0.0
  0
ARC
  8
0
 10
-5.681843
 20
-2.032073
 30
0.0
 40
0.246337
 50
57.184167
 51
122.815833
  0
LINE
  8
0
 10
-5.681843
 20
-1.785736
 30
0.0
 11
-4.880843
 21
-1.785736
 31
0.0
  0
ARC
  8
0
 10
-6.061943
 20
-2.032073
 30
0.0
 40
0.246337
 50
57.184167
 51
122.815833
  0
ARC
  8
0
 10
-5.281343
 20
-2.712117
 30
0.0
 40
0.926381
 50
73.248683
 51
106.751317
  0
LINE
  8
0
 10
-3.566243
 20
-1.825047
 30
0.0
 11
-3.566243
 21
-2.026736
 31
0.0
  0
LINE
  8
0
 10
-3.833243
 20
-1.825047
 30
0.0
 11
-3.833243
 21
-2.026736
 31
0.0
  0
LINE
  8
0
 10
-4.367243
 20
-1.825047
 30
0.0
 11
-4.367243
 21
-2.026736
 31
0.0
  0
LINE
  8
0
 10
-4.634243
 20
-1.825047
 30
0.0
 11
-4.634243
 21
-2.026736
 31
0.0
  0
LINE
  8
0
 10
-4.747343
 20
-1.825047
 30
0.0
 11
-4.747343
 21
-2.026736
 31
0.0
  0
LINE
  8
0
 10
-4.672243
 20
-2.026736
 30
0.0
 11
-3.528243
 21
-2.026736
 31
0.0
  0
LINE
  8
0
 10
-4.672243
 20
-2.141736
 30
0.0
 11
-3.528243
 21
-2.141736
 31
0.0
  0
LINE
  8
0
 10
-4.648093
 20
-2.141736
 30
0.0
 11
-4.690743
 21
-2.221736
 31
0.0
  0
LINE
  8
0
 10
-4.733394
 20
-2.141736
 30
0.0
 11
-4.690743
 21
-2.221736
 31
0.0
  0
LINE
  8
0
 10
-4.672243
 20
-2.026736
 30
0.0
 11
-4.672243
 21
-2.141736
 31
0.0
  0
LINE
  8
0
 10
-4.709343
 20
-2.026736
 30
0.0
 11
-4.709343
 21
-2.141736
 31
0.0
  0
LINE
  8
0
 10
-3.528243
 20
-2.026736
 30
0.0
 11
-3.528243
 21
-2.141736
 31
0.0
  0
ARC
  8
0
 10
-3.392243
 20
-2.472736
 30
0.0
 40
0.04
 50
180.0
 51
270.0
  0
LINE
  8
0
 10
-3.432243
 20
-2.221736
 30
0.0
 11
-3.512243
 21
-2.141736
 31
0.0
  0
LINE
  8
0
 10
-3.432243
 20
-2.472736
 30
0.0
 11
-3.432243
 21
-2.221736
 31
0.0
  0
ARC
  8
0
 10
-4.100243
 20
-2.712117
 30
0.0
 40
0.926381
 50
73.248683
 51
106.751317
  0
LINE
  8
0
 10
-4.500743
 20
-1.785736
 30
0.0
 11
-3.699743
 21
-1.785736
 31
0.0
  0
ARC
  8
0
 10
-4.500743
 20
-2.032073
 30
0.0
 40
0.246337
 50
57.184167
 51
122.815833
  0
ARC
  8
0
 10
-3.699743
 20
-2.032073
 30
0.0
 40
0.246337
 50
57.184167
 51
122.815833
  0
LINE
  8
0
 10
-6.729443
 20
0.959826
 30
0.0
 11
-6.195443
 21
0.959826
 31
0.0
  0
ARC
  8
0
 10
-6.462443
 20
1.127665
 30
0.0
 40
0.926381
 50
253.248683
 51
286.751317
  0
LINE
  8
0
 10
-7.050443
 20
0.557284
 30
0.0
 11
-3.512243
 21
0.557284
 31
0.0
  0
LINE
  8
0
 10
-7.034443
 20
0.557284
 30
0.0
 11
-5.890443
 21
0.557284
 31
0.0
  0
LINE
  8
0
 10
-7.034443
 20
0.442284
 30
0.0
 11
-5.890443
 21
0.442284
 31
0.0
  0
LINE
  8
0
 10
-6.862943
 20
0.201284
 30
0.0
 11
-6.061943
 21
0.201284
 31
0.0
  0
LINE
  8
0
 10
-6.840943
 20
0.637284
 30
0.0
 11
-6.083943
 21
0.637284
 31
0.0
  0
ARC
  8
0
 10
-6.862943
 20
0.447621
 30
0.0
 40
0.246337
 50
237.184167
 51
302.815833
  0
LINE
  8
0
 10
-8.193995
 20
1.422284
 30
0.0
 11
-7.42983
 21
1.422284
 31
0.0
  0
LINE
  8
0
 10
-7.655343
 20
0.922284
 30
0.0
 11
-6.905415
 21
0.922284
 31
0.0
  0
LINE
  8
0
 10
-7.309943
 20
0.869542
 30
0.0
 11
-6.837544
 21
0.869542
 31
0.0
  0
LINE
  8
0
 10
-7.259943
 20
0.632284
 30
0.0
 11
-6.845943
 21
0.632284
 31
0.0
  0
LINE
  8
0
 10
-7.309943
 20
0.682284
 30
0.0
 11
-6.795943
 21
0.682284
 31
0.0
  0
ARC
  8
0
 10
-7.655343
 20
1.022284
 30
0.0
 40
0.1
 50
233.130102
 51
270.0
  0
LINE
  8
0
 10
-7.309943
 20
0.682284
 30
0.0
 11
-7.309943
 21
0.922284
 31
0.0
  0
LINE
  8
0
 10
-7.259943
 20
0.632284
 30
0.0
 11
-7.309943
 21
0.682284
 31
0.0
  0
LINE
  8
0
 10
-7.125443
 20
0.632284
 30
0.0
 11
-7.050443
 21
0.557284
 31
0.0
  0
LINE
  8
0
 10
-6.845943
 20
0.632284
 30
0.0
 11
-6.795943
 21
0.682284
 31
0.0
  0
LINE
  8
0
 10
-6.795943
 20
0.84349
 30
0.0
 11
-6.795943
 21
0.682284
 31
0.0
  0
LINE
  8
0
 10
-6.729443
 20
0.240595
 30
0.0
 11
-6.729443
 21
0.442284
 31
0.0
  0
LINE
  8
0
 10
-6.996443
 20
0.240595
 30
0.0
 11
-6.996443
 21
0.442284
 31
0.0
  0
LINE
  8
0
 10
-7.034443
 20
0.442284
 30
0.0
 11
-7.034443
 21
0.557284
 31
0.0
  0
ARC
  8
0
 10
-7.664343
 20
1.727284
 30
0.0
 40
0.1
 50
233.130102
 51
239.33617
  0
LINE
  8
0
 10
-6.996443
 20
1.422284
 30
0.0
 11
-6.729443
 21
0.959826
 31
0.0
  0
ARC
  8
0
 10
-3.699743
 20
0.447621
 30
0.0
 40
0.246337
 50
237.184167
 51
302.815833
  0
ARC
  8
0
 10
-4.100243
 20
1.127665
 30
0.0
 40
0.926381
 50
253.248683
 51
286.751317
  0
ARC
  8
0
 10
-4.880843
 20
0.447621
 30
0.0
 40
0.246337
 50
237.184167
 51
302.815833
  0
ARC
  8
0
 10
-5.681843
 20
0.447621
 30
0.0
 40
0.246337
 50
237.184167
 51
302.815833
  0
ARC
  8
0
 10
-5.281343
 20
1.127665
 30
0.0
 40
0.926381
 50
253.248683
 51
286.751317
  0
ARC
  8
0
 10
-4.500743
 20
0.447621
 30
0.0
 40
0.246337
 50
237.184167
 51
302.815833
  0
ARC
  8
0
 10
-6.061943
 20
0.447621
 30
0.0
 40
0.246337
 50
237.184167
 51
302.815833
  0
LINE
  8
0
 10
-5.681843
 20
0.201284
 30
0.0
 11
-4.880843
 21
0.201284
 31
0.0
  0
LINE
  8
0
 10
-4.500743
 20
0.201284
 30
0.0
 11
-3.699743
 21
0.201284
 31
0.0
  0
LINE
  8
0
 10
-5.014343
 20
0.959826
 30
0.0
 11
-4.747343
 21
1.422284
 31
0.0
  0
LINE
  8
0
 10
-4.475344
 20
0.869542
 30
0.0
 11
-4.906243
 21
0.869542
 31
0.0
  0
LINE
  8
0
 10
-4.554252
 20
0.932284
 30
0.0
 11
-4.827335
 21
0.932284
 31
0.0
  0
LINE
  8
0
 10
-4.947743
 20
0.682284
 30
0.0
 11
-4.433743
 21
0.682284
 31
0.0
  0
LINE
  8
0
 10
-4.483743
 20
0.632284
 30
0.0
 11
-4.897743
 21
0.632284
 31
0.0
  0
ARC
  8
0
 10
-5.281343
 20
1.422284
 30
0.0
 40
0.668
 50
219.740727
 51
320.259273
  0
LINE
  8
0
 10
-5.853343
 20
0.442284
 30
0.0
 11
-4.709343
 21
0.442284
 31
0.0
  0
LINE
  8
0
 10
-5.853343
 20
0.557284
 30
0.0
 11
-4.709343
 21
0.557284
 31
0.0
  0
LINE
  8
0
 10
-5.659943
 20
0.637284
 30
0.0
 11
-4.902743
 21
0.637284
 31
0.0
  0
LINE
  8
0
 10
-6.128943
 20
0.84349
 30
0.0
 11
-6.128943
 21
0.682284
 31
0.0
  0
LINE
  8
0
 10
-5.664943
 20
0.632284
 30
0.0
 11
-5.614943
 21
0.682284
 31
0.0
  0
LINE
  8
0
 10
-6.078943
 20
0.632284
 30
0.0
 11
-6.128943
 21
0.682284
 31
0.0
  0
LINE
  8
0
 10
-5.614943
 20
0.843548
 30
0.0
 11
-5.614943
 21
0.682284
 31
0.0
  0
LINE
  8
0
 10
-5.614943
 20
0.682284
 30
0.0
 11
-6.128943
 21
0.682284
 31
0.0
  0
LINE
  8
0
 10
-6.008435
 20
0.932284
 30
0.0
 11
-5.735352
 21
0.932284
 31
0.0
  0
LINE
  8
0
 10
-6.087343
 20
0.869542
 30
0.0
 11
-5.656444
 21
0.869542
 31
0.0
  0
LINE
  8
0
 10
-5.829293
 20
0.557284
 30
0.0
 11
-5.869278
 21
0.632284
 31
0.0
  0
LINE
  8
0
 10
-5.914594
 20
0.557284
 30
0.0
 11
-5.874609
 21
0.632284
 31
0.0
  0
LINE
  8
0
 10
-6.078943
 20
0.632284
 30
0.0
 11
-5.664943
 21
0.632284
 31
0.0
  0
LINE
  8
0
 10
-5.928443
 20
0.240595
 30
0.0
 11
-5.928443
 21
0.442284
 31
0.0
  0
LINE
  8
0
 10
-5.815343
 20
0.240595
 30
0.0
 11
-5.815343
 21
0.442284
 31
0.0
  0
LINE
  8
0
 10
-5.890443
 20
0.442284
 30
0.0
 11
-5.890443
 21
0.557284
 31
0.0
  0
LINE
  8
0
 10
-5.853343
 20
0.442284
 30
0.0
 11
-5.853343
 21
0.557284
 31
0.0
  0
LINE
  8
0
 10
-6.195443
 20
0.240595
 30
0.0
 11
-6.195443
 21
0.442284
 31
0.0
  0
LINE
  8
0
 10
-4.897743
 20
0.632284
 30
0.0
 11
-4.947743
 21
0.682284
 31
0.0
  0
LINE
  8
0
 10
-4.947743
 20
0.843548
 30
0.0
 11
-4.947743
 21
0.682284
 31
0.0
  0
LINE
  8
0
 10
-5.014343
 20
0.240595
 30
0.0
 11
-5.014343
 21
0.442284
 31
0.0
  0
LINE
  8
0
 10
-5.548343
 20
0.240595
 30
0.0
 11
-5.548343
 21
0.442284
 31
0.0
  0
LINE
  8
0
 10
-5.815343
 20
1.422284
 30
0.0
 11
-5.548343
 21
0.959826
 31
0.0
  0
LINE
  8
0
 10
-6.195443
 20
0.959826
 30
0.0
 11
-5.928443
 21
1.422284
 31
0.0
  0
ARC
  8
0
 10
-5.871893
 20
0.93129
 30
0.0
 40
0.1
 50
39.740727
 51
140.259273
  0
LINE
  8
0
 10
-5.548343
 20
0.959826
 30
0.0
 11
-5.014343
 21
0.959826
 31
0.0
  0
LINE
  8
0
 10
-4.478743
 20
0.637284
 30
0.0
 11
-3.721743
 21
0.637284
 31
0.0
  0
LINE
  8
0
 10
-4.672243
 20
0.557284
 30
0.0
 11
-3.528243
 21
0.557284
 31
0.0
  0
LINE
  8
0
 10
-4.672243
 20
0.442284
 30
0.0
 11
-3.528243
 21
0.442284
 31
0.0
  0
LINE
  8
0
 10
-4.483743
 20
0.632284
 30
0.0
 11
-4.433743
 21
0.682284
 31
0.0
  0
LINE
  8
0
 10
-4.433743
 20
0.84349
 30
0.0
 11
-4.433743
 21
0.682284
 31
0.0
  0
LINE
  8
0
 10
-4.367243
 20
0.240595
 30
0.0
 11
-4.367243
 21
0.442284
 31
0.0
  0
LINE
  8
0
 10
-4.747343
 20
0.240595
 30
0.0
 11
-4.747343
 21
0.442284
 31
0.0
  0
LINE
  8
0
 10
-4.634243
 20
0.240595
 30
0.0
 11
-4.634243
 21
0.442284
 31
0.0
  0
LINE
  8
0
 10
-4.733394
 20
0.557284
 30
0.0
 11
-4.693409
 21
0.632284
 31
0.0
  0
LINE
  8
0
 10
-4.648093
 20
0.557284
 30
0.0
 11
-4.688078
 21
0.632284
 31
0.0
  0
LINE
  8
0
 10
-4.709343
 20
0.442284
 30
0.0
 11
-4.709343
 21
0.557284
 31
0.0
  0
LINE
  8
0
 10
-4.672243
 20
0.442284
 30
0.0
 11
-4.672243
 21
0.557284
 31
0.0
  0
LINE
  8
0
 10
-3.716743
 20
0.632284
 30
0.0
 11
-3.766743
 21
0.682284
 31
0.0
  0
LINE
  8
0
 10
-3.766743
 20
0.84349
 30
0.0
 11
-3.766743
 21
0.682284
 31
0.0
  0
LINE
  8
0
 10
-3.833243
 20
0.240595
 30
0.0
 11
-3.833243
 21
0.442284
 31
0.0
  0
LINE
  8
0
 10
-3.566243
 20
0.240595
 30
0.0
 11
-3.566243
 21
0.442284
 31
0.0
  0
LINE
  8
0
 10
-3.437243
 20
0.632284
 30
0.0
 11
-3.512243
 21
0.557284
 31
0.0
  0
LINE
  8
0
 10
-3.528243
 20
0.442284
 30
0.0
 11
-3.528243
 21
0.557284
 31
0.0
  0
LINE
  8
0
 10
-4.367243
 20
0.959826
 30
0.0
 11
-3.833243
 21
0.959826
 31
0.0
  0
LINE
  8
0
 10
-4.634243
 20
1.422284
 30
0.0
 11
-4.367243
 21
0.959826
 31
0.0
  0
ARC
  8
0
 10
-4.690793
 20
0.93129
 30
0.0
 40
0.1
 50
39.740727
 51
140.259273
  0
LINE
  8
0
 10
-3.833243
 20
0.959826
 30
0.0
 11
-3.566243
 21
1.422284
 31
0.0
  0
LINE
  8
0
 10
-2.847343
 20
-2.532736
 30
0.0
 11
-2.847343
 21
-3.492736
 31
0.0
  0
LINE
  8
0
 10
-0.881343
 20
-4.041936
 30
0.0
 11
-2.181343
 21
-4.041936
 31
0.0
  0
LINE
  8
OBJ
 10
-2.339827
 20
-3.169477
 30
0.0
 11
-2.339827
 21
-3.389394
 31
0.0
  0
ARC
  8
OBJ
 10
-2.519065
 20
-3.279436
 30
0.0
 40
0.179237
 50
322.158498
 51
37.841502
  0
LINE
  8
0
 10
-2.584843
 20
-3.07924
 30
0.0
 11
-2.584843
 21
-3.479632
 31
0.0
  0
LINE
  8
OBJ
 10
-2.537035
 20
-3.061909
 30
0.0
 11
-2.537035
 21
-3.496962
 31
0.0
  0
LINE
  8
OBJ
  6
CENTER2
 10
-2.584843
 20
-3.479632
 30
0.0
 11
-2.537035
 21
-3.479632
 31
0.0
  0
ARC
  8
TEXT
 62
     7
 10
-2.544843
 20
-3.509836
 30
0.0
 40
0.04
 50
180.0
 51
270.0
  0
ARC
  8
0
 10
-2.907343
 20
-3.412736
 30
0.0
 40
0.1
 50
270.0
 51
306.869898
  0
ARC
  8
0
 10
-3.081343
 20
-3.612736
 30
0.0
 40
0.1
 50
90.0
 51
180.0
  0
LINE
  8
0
 10
-2.907343
 20
-3.512736
 30
0.0
 11
-3.081343
 21
-3.512736
 31
0.0
  0
LINE
  8
OBJ
 10
-2.339827
 20
-3.389394
 30
0.0
 11
-2.339827
 21
-3.472047
 31
0.0
  0
ARC
  8
OBJ
 10
-2.397047
 20
-3.443178
 30
0.0
 40
0.057219
 50
289.954678
 51
70.045322
  0
LINE
  8
OBJ
 10
-2.339827
 20
-3.472047
 30
0.0
 11
-2.363047
 21
-3.489201
 31
0.0
  0
LINE
  8
OBJ
  6
CONTINUOUS
 10
-2.537035
 20
-3.496962
 30
0.0
 11
-2.377519
 21
-3.496962
 31
0.0
  0
LINE
  8
OBJ
  6
CONTINUOUS
 10
-2.537035
 20
-3.389394
 30
0.0
 11
-2.377519
 21
-3.389394
 31
0.0
  0
ARC
  8
TEXT
 62
     7
 10
-2.506743
 20
-3.589836
 30
0.0
 40
0.04
 50
0.0
 51
90.0
  0
LINE
  8
TEXT
 62
     7
 10
-2.544843
 20
-3.549836
 30
0.0
 11
-2.506743
 21
-3.549836
 31
0.0
  0
LINE
  8
TEXT
 62
     7
 10
-2.544843
 20
-3.549836
 30
0.0
 11
-2.506743
 21
-3.549836
 31
0.0
  0
LINE
  8
0
 10
-2.181343
 20
-3.875736
 30
0.0
 11
-2.466743
 21
-3.875736
 31
0.0
  0
ARC
  8
TEXT
 62
     7
 10
-2.624843
 20
-2.979236
 30
0.0
 40
0.04
 50
0.0
 51
90.0
  0
LINE
  8
OBJ
  6
CENTER2
 10
-2.584843
 20
-3.07924
 30
0.0
 11
-2.537035
 21
-3.07924
 31
0.0
  0
LINE
  8
OBJ
 10
-2.584843
 20
-3.231043
 30
0.0
 11
-2.537035
 21
-3.183235
 31
0.0
  0
LINE
  8
0
 10
-2.742343
 20
-2.939236
 30
0.0
 11
-2.847343
 21
-2.939236
 31
0.0
  0
LINE
  8
TEXT
 62
     7
 10
-2.742343
 20
-2.939236
 30
0.0
 11
-2.624843
 21
-2.939236
 31
0.0
  0
LINE
  8
OBJ
 10
-2.339827
 20
-3.086824
 30
0.0
 11
-2.363047
 21
-3.069671
 31
0.0
  0
LINE
  8
OBJ
  6
CONTINUOUS
 10
-2.537035
 20
-3.061909
 30
0.0
 11
-2.377519
 21
-3.061909
 31
0.0
  0
LINE
  8
OBJ
  6
CONTINUOUS
 10
-2.537035
 20
-3.169477
 30
0.0
 11
-2.377519
 21
-3.169477
 31
0.0
  0
LINE
  8
OBJ
 10
-2.339827
 20
-3.086824
 30
0.0
 11
-2.339827
 21
-3.169477
 31
0.0
  0
ARC
  8
OBJ
 10
-2.397047
 20
-3.115693
 30
0.0
 40
0.057219
 50
289.954678
 51
70.045322
  0
ARC
  8
0
 10
-2.907343
 20
-2.612736
 30
0.0
 40
0.1
 50
53.130102
 51
90.0
  0
ARC
  8
0
 10
-2.907343
 20
1.022284
 30
0.0
 40
0.1
 50
270.0
 51
306.869898
  0
LINE
  8
0
 10
-3.252743
 20
0.682284
 30
0.0
 11
-3.252743
 21
0.922284
 31
0.0
  0
LINE
  8
0
 10
-3.302743
 20
0.632284
 30
0.0
 11
-3.252743
 21
0.682284
 31
0.0
  0
LINE
  8
0
 10
-2.368692
 20
1.422284
 30
0.0
 11
-3.132857
 21
1.422284
 31
0.0
  0
ARC
  8
0
 10
-2.898343
 20
1.727284
 30
0.0
 40
0.1
 50
300.66383
 51
306.869898
  0
LINE
  8
0
 10
-2.742343
 20
6.048555
 30
0.0
 11
-3.584843
 21
6.048555
 31
0.0
  0
LINE
  8
0
 10
-3.584843
 20
6.048555
 30
0.0
 11
-3.265869
 21
5.714358
 31
0.0
  0
ARC
  8
0
 10
-59.9916
 20
7.831492
 30
0.0
 40
56.771737
 50
355.722793
 51
357.797415
  0
LINE
  8
0
 10
-3.198917
 20
3.704857
 30
0.0
 11
-3.339295
 21
3.845235
 31
0.0
  0
LINE
  8
0
 10
-3.181343
 20
2.907284
 30
0.0
 11
-7.381343
 21
2.907284
 31
0.0
  0
LINE
  8
0
 10
-3.200283
 20
2.907284
 30
0.0
 11
-3.737223
 21
2.907284
 31
0.0
  0
LINE
  8
0
 10
-2.907343
 20
1.922284
 30
0.0
 11
-3.657272
 21
1.922284
 31
0.0
  0
LINE
  8
0
 10
-5.534843
 20
4.213449
 30
0.0
 11
-5.198343
 21
4.796284
 31
0.0
  0
LINE
  8
0
 10
-6.544343
 20
4.796284
 30
0.0
 11
-6.207843
 21
4.213449
 31
0.0
  0
ARC
  8
0
 10
49.428913
 20
7.831492
 30
0.0
 40
56.771737
 50
182.202585
 51
184.277207
  0
LINE
  8
0
 10
-3.919509
 20
4.952492
 30
0.0
 11
-3.49121
 21
3.550802
 31
0.0
  0
LINE
  8
0
 10
-6.643178
 20
4.952492
 30
0.0
 11
-7.071477
 21
3.550802
 31
0.0
  0
CIRCLE
  8
0
 10
-5.871343
 20
4.796284
 30
0.0
 40
0.581925
  0
CIRCLE
  8
0
 10
-5.871343
 20
4.796284
 30
0.0
 40
0.581925
  0
CIRCLE
  8
0
 10
-5.871343
 20
4.796284
 30
0.0
 40
0.468
  0
LINE
  8
0
 10
-6.195443
 20
1.884741
 30
0.0
 11
-6.729443
 21
1.884741
 31
0.0
  0
ARC
  8
0
 10
-5.281343
 20
35.86842
 30
0.0
 40
32.501136
 50
266.976179
 51
273.023821
  0
ARC
  8
0
 10
-6.462443
 20
1.422284
 30
0.0
 40
0.768
 50
47.128442
 51
133.685622
  0
LINE
  8
0
 10
-6.809343
 20
2.877284
 30
0.0
 11
-6.156484
 21
2.877284
 31
0.0
  0
LINE
  8
0
 10
-7.381343
 20
2.907284
 30
0.0
 11
-7.381343
 21
3.662431
 31
0.0
  0
LINE
  8
0
 10
-6.949588
 20
2.907284
 30
0.0
 11
-6.949588
 21
3.347025
 31
0.0
  0
LINE
  8
0
 10
-7.427779
 20
2.227284
 30
0.0
 11
-8.159472
 21
2.227284
 31
0.0
  0
LINE
  8
0
 10
-6.949588
 20
2.016013
 30
0.0
 11
-6.949588
 21
2.848725
 31
0.0
  0
LINE
  8
0
 10
-7.381343
 20
1.922284
 30
0.0
 11
-7.381343
 21
2.848725
 31
0.0
  0
ARC
  8
0
 10
-7.131042
 20
2.122284
 30
0.0
 40
0.2
 50
270.0
 51
313.685622
  0
LINE
  8
0
 10
-7.655343
 20
1.922284
 30
0.0
 11
-6.905415
 21
1.922284
 31
0.0
  0
ARC
  8
0
 10
-7.655343
 20
1.822284
 30
0.0
 40
0.1
 50
90.0
 51
126.869898
  0
LINE
  8
0
 10
-7.362404
 20
2.907284
 30
0.0
 11
-6.825464
 21
2.907284
 31
0.0
  0
ARC
  8
0
 10
-7.664343
 20
2.727284
 30
0.0
 40
0.1
 50
90.0
 51
126.869898
  0
LINE
  8
0
 10
-7.664343
 20
2.827284
 30
0.0
 11
-7.381343
 21
2.827284
 31
0.0
  0
ARC
  8
0
 10
-7.281343
 20
2.848725
 30
0.0
 40
0.1
 50
144.155118
 51
180.0
  0
ARC
  8
0
 10
-7.049588
 20
2.848725
 30
0.0
 40
0.1
 50
0.0
 51
35.844882
  0
ARC
  8
0
 10
-6.849343
 20
2.889124
 30
0.0
 40
0.03
 50
0.0
 51
37.252373
  0
LINE
  8
0
 10
-6.819343
 20
2.887284
 30
0.0
 11
-6.819343
 21
2.889124
 31
0.0
  0
ARC
  8
0
 10
-6.809343
 20
2.887284
 30
0.0
 40
0.01
 50
180.0
 51
270.0
  0
LINE
  8
0
 10
-7.36377
 20
3.704857
 30
0.0
 11
-7.223392
 21
3.845235
 31
0.0
  0
ARC
  8
0
 10
-6.985265
 20
3.612257
 30
0.0
 40
0.2
 50
184.277207
 51
266.976179
  0
ARC
  8
0
 10
-7.321343
 20
3.662431
 30
0.0
 40
0.06
 50
135.0
 51
180.0
  0
ARC
  8
0
 10
-6.889588
 20
3.347025
 30
0.0
 40
0.06
 50
87.168922
 51
180.0
  0
ARC
  8
0
 10
-7.265818
 20
3.887662
 30
0.0
 40
0.06
 50
315.0
 51
3.97923
  0
LINE
  8
0
 10
-4.794099
 20
2.907284
 30
0.0
 11
-4.794099
 21
3.310087
 31
0.0
  0
LINE
  8
0
 10
-4.587388
 20
2.907284
 30
0.0
 11
-4.587388
 21
3.316014
 31
0.0
  0
LINE
  8
0
 10
-3.613099
 20
2.907284
 30
0.0
 11
-3.613099
 21
3.347025
 31
0.0
  0
LINE
  8
0
 10
-5.768588
 20
2.907284
 30
0.0
 11
-5.768588
 21
3.310087
 31
0.0
  0
LINE
  8
0
 10
-5.975299
 20
2.907284
 30
0.0
 11
-5.975299
 21
3.316014
 31
0.0
  0
LINE
  8
0
 10
-4.554252
 20
1.912284
 30
0.0
 11
-4.827335
 21
1.912284
 31
0.0
  0
ARC
  8
0
 10
-5.281343
 20
1.422284
 30
0.0
 40
0.768
 50
47.128442
 51
132.871558
  0
LINE
  8
0
 10
-4.422324
 20
2.907284
 30
0.0
 11
-4.959263
 21
2.907284
 31
0.0
  0
ARC
  8
0
 10
-5.281343
 20
1.422284
 30
0.0
 40
0.668
 50
39.740727
 51
140.259273
  0
LINE
  8
0
 10
-5.975299
 20
2.016013
 30
0.0
 11
-5.975299
 21
2.848725
 31
0.0
  0
LINE
  8
0
 10
-5.768588
 20
2.015931
 30
0.0
 11
-5.768588
 21
2.848725
 31
0.0
  0
LINE
  8
0
 10
-6.008435
 20
1.912284
 30
0.0
 11
-5.735352
 21
1.912284
 31
0.0
  0
ARC
  8
0
 10
-5.871893
 20
2.058424
 30
0.0
 40
0.1
 50
227.128442
 51
312.871558
  0
ARC
  8
0
 10
-5.871893
 20
1.913277
 30
0.0
 40
0.1
 50
219.740727
 51
320.259273
  0
LINE
  8
0
 10
-5.014343
 20
1.884741
 30
0.0
 11
-5.548343
 21
1.884741
 31
0.0
  0
ARC
  8
0
 10
-5.051343
 20
2.104703
 30
0.0
 40
0.005
 50
0.0
 51
90.0
  0
ARC
  8
0
 10
-5.511343
 20
2.104703
 30
0.0
 40
0.005
 50
90.0
 51
180.0
  0
LINE
  8
0
 10
-5.511343
 20
2.109703
 30
0.0
 11
-5.051343
 21
2.109703
 31
0.0
  0
LINE
  8
0
 10
-5.046343
 20
2.047583
 30
0.0
 11
-5.046343
 21
2.104703
 31
0.0
  0
LINE
  8
0
 10
-5.516343
 20
2.047583
 30
0.0
 11
-5.516343
 21
2.104703
 31
0.0
  0
LINE
  8
0
 10
-4.975384
 20
2.877284
 30
0.0
 11
-5.587303
 21
2.877284
 31
0.0
  0
ARC
  8
0
 10
-5.875299
 20
2.848725
 30
0.0
 40
0.1
 50
144.155118
 51
180.0
  0
ARC
  8
0
 10
-5.868588
 20
2.848725
 30
0.0
 40
0.1
 50
0.0
 51
35.844882
  0
ARC
  8
0
 10
-6.116484
 20
2.889124
 30
0.0
 40
0.03
 50
142.747627
 51
180.0
  0
LINE
  8
0
 10
-6.146484
 20
2.887284
 30
0.0
 11
-6.146484
 21
2.889124
 31
0.0
  0
ARC
  8
0
 10
-6.156484
 20
2.887284
 30
0.0
 40
0.01
 50
270.0
 51
360.0
  0
ARC
  8
0
 10
-5.587303
 20
2.887284
 30
0.0
 40
0.01
 50
180.0
 51
270.0
  0
LINE
  8
0
 10
-5.597303
 20
2.887284
 30
0.0
 11
-5.597303
 21
2.889124
 31
0.0
  0
ARC
  8
0
 10
-5.627303
 20
2.889124
 30
0.0
 40
0.03
 50
0.0
 51
37.252373
  0
LINE
  8
0
 10
-6.140363
 20
2.907284
 30
0.0
 11
-5.603424
 21
2.907284
 31
0.0
  0
ARC
  8
0
 10
-4.935384
 20
2.889124
 30
0.0
 40
0.03
 50
142.747627
 51
180.0
  0
LINE
  8
0
 10
-4.965384
 20
2.887284
 30
0.0
 11
-4.965384
 21
2.889124
 31
0.0
  0
ARC
  8
0
 10
-4.975384
 20
2.887284
 30
0.0
 40
0.01
 50
270.0
 51
360.0
  0
LINE
  8
0
 10
-3.613099
 20
2.016013
 30
0.0
 11
-3.613099
 21
2.848725
 31
0.0
  0
LINE
  8
0
 10
-4.794099
 20
2.015931
 30
0.0
 11
-4.794099
 21
2.848725
 31
0.0
  0
LINE
  8
0
 10
-4.587388
 20
2.016013
 30
0.0
 11
-4.587388
 21
2.848725
 31
0.0
  0
LINE
  8
0
 10
-3.833243
 20
1.884741
 30
0.0
 11
-4.367243
 21
1.884741
 31
0.0
  0
ARC
  8
0
 10
-4.100243
 20
1.422284
 30
0.0
 40
0.768
 50
46.314378
 51
132.871558
  0
ARC
  8
0
 10
-4.690793
 20
2.058424
 30
0.0
 40
0.1
 50
227.128442
 51
312.871558
  0
ARC
  8
0
 10
-4.690793
 20
1.913277
 30
0.0
 40
0.1
 50
219.740727
 51
320.259273
  0
ARC
  8
0
 10
-3.431645
 20
2.122284
 30
0.0
 40
0.2
 50
226.314378
 51
270.0
  0
LINE
  8
0
 10
-3.753343
 20
2.877284
 30
0.0
 11
-4.406203
 21
2.877284
 31
0.0
  0
ARC
  8
0
 10
-4.694099
 20
2.848725
 30
0.0
 40
0.1
 50
144.155118
 51
180.0
  0
ARC
  8
0
 10
-4.687388
 20
2.848725
 30
0.0
 40
0.1
 50
0.0
 51
35.844882
  0
ARC
  8
0
 10
-4.406203
 20
2.887284
 30
0.0
 40
0.01
 50
180.0
 51
270.0
  0
LINE
  8
0
 10
-4.416203
 20
2.887284
 30
0.0
 11
-4.416203
 21
2.889124
 31
0.0
  0
ARC
  8
0
 10
-4.446203
 20
2.889124
 30
0.0
 40
0.03
 50
0.0
 51
37.252373
  0
ARC
  8
0
 10
-3.513099
 20
2.848725
 30
0.0
 40
0.1
 50
144.155118
 51
180.0
  0
ARC
  8
0
 10
-3.753343
 20
2.887284
 30
0.0
 40
0.01
 50
270.0
 51
360.0
  0
LINE
  8
0
 10
-3.743343
 20
2.887284
 30
0.0
 11
-3.743343
 21
2.889124
 31
0.0
  0
ARC
  8
0
 10
-3.713343
 20
2.889124
 30
0.0
 40
0.03
 50
142.747627
 51
180.0
  0
ARC
  8
0
 10
-4.854099
 20
3.310087
 30
0.0
 40
0.06
 50
0.0
 51
90.751817
  0
ARC
  8
0
 10
-5.708588
 20
3.310087
 30
0.0
 40
0.06
 50
89.248183
 51
180.0
  0
ARC
  8
0
 10
-6.035299
 20
3.316014
 30
0.0
 40
0.06
 50
0.0
 51
88.673194
  0
LINE
  8
0
 10
-6.207843
 20
4.213449
 30
0.0
 11
-5.534843
 21
4.213449
 31
0.0
  0
ARC
  8
0
 10
-4.527388
 20
3.316014
 30
0.0
 40
0.06
 50
91.326806
 51
180.0
  0
ARC
  8
0
 10
-3.673099
 20
3.347025
 30
0.0
 40
0.06
 50
0.0
 51
92.831078
  0
ARC
  8
0
 10
-3.577422
 20
3.612257
 30
0.0
 40
0.2
 50
273.023821
 51
355.722793
  0
ARC
  8
0
 10
-3.296869
 20
3.887662
 30
0.0
 40
0.06
 50
176.02077
 51
225.0
  0
LINE
  8
0
 10
-6.207843
 20
5.379119
 30
0.0
 11
-6.544343
 21
4.796284
 31
0.0
  0
LINE
  8
0
 10
-6.977843
 20
6.048555
 30
0.0
 11
-7.296817
 21
5.714358
 31
0.0
  0
LINE
  8
OBJ
 10
-8.222859
 20
5.996525
 30
0.0
 11
-8.222859
 21
5.913872
 31
0.0
  0
ARC
  8
OBJ
 10
-8.16564
 20
5.942741
 30
0.0
 40
0.057219
 50
109.954678
 51
250.045322
  0
LINE
  8
0
 10
-7.977843
 20
6.30668
 30
0.0
 11
-7.977843
 21
5.906288
 31
0.0
  0
LINE
  8
OBJ
 10
-8.025651
 20
6.32401
 30
0.0
 11
-8.025651
 21
5.888957
 31
0.0
  0
LINE
  8
0
 10
-7.360836
 20
5.707284
 30
0.0
 11
-7.820343
 21
5.707284
 31
0.0
  0
ARC
  8
TEXT
 62
     7
 10
-7.937843
 20
5.747284
 30
0.0
 40
0.04
 50
180.0
 51
270.0
  0
LINE
  8
OBJ
 10
-8.222859
 20
5.913872
 30
0.0
 11
-8.19964
 21
5.896719
 31
0.0
  0
LINE
  8
OBJ
  6
CENTER2
 10
-7.977843
 20
5.906288
 30
0.0
 11
-8.025651
 21
5.906288
 31
0.0
  0
LINE
  8
OBJ
  6
CONTINUOUS
 10
-8.025651
 20
5.888957
 30
0.0
 11
-8.185168
 21
5.888957
 31
0.0
  0
LINE
  8
TEXT
 62
     7
 10
-7.820343
 20
5.707284
 30
0.0
 11
-7.937843
 21
5.707284
 31
0.0
  0
ARC
  8
0
 10
-6.478484
 20
5.148526
 30
0.0
 40
0.2
 50
182.747486
 51
267.768338
  0
ARC
  8
0
 10
-5.281343
 20
35.86842
 30
0.0
 40
30.943211
 50
267.768338
 51
267.822563
  0
ARC
  8
0
 10
-7.360836
 20
5.647284
 30
0.0
 40
0.06
 50
2.202585
 51
90.0
  0
LINE
  8
0
 10
-7.820343
 20
6.048555
 30
0.0
 11
-6.977843
 21
6.048555
 31
0.0
  0
ARC
  8
TEXT
 62
     7
 10
-7.937843
 20
6.088555
 30
0.0
 40
0.04
 50
180.0
 51
270.0
  0
LINE
  8
TEXT
 62
     7
 10
-7.820343
 20
6.048555
 30
0.0
 11
-7.937843
 21
6.048555
 31
0.0
  0
LINE
  8
OBJ
 10
-8.222859
 20
6.299095
 30
0.0
 11
-8.19964
 21
6.316249
 31
0.0
  0
LINE
  8
OBJ
  6
CENTER2
 10
-7.977843
 20
6.30668
 30
0.0
 11
-8.025651
 21
6.30668
 31
0.0
  0
LINE
  8
OBJ
  6
CONTINUOUS
 10
-8.025651
 20
6.32401
 30
0.0
 11
-8.185168
 21
6.32401
 31
0.0
  0
LINE
  8
OBJ
 10
-7.977843
 20
6.154876
 30
0.0
 11
-8.025651
 21
6.202684
 31
0.0
  0
LINE
  8
OBJ
  6
CONTINUOUS
 10
-8.025651
 20
6.216442
 30
0.0
 11
-8.185168
 21
6.216442
 31
0.0
  0
LINE
  8
OBJ
 10
-8.222859
 20
6.299095
 30
0.0
 11
-8.222859
 21
6.216442
 31
0.0
  0
ARC
  8
OBJ
 10
-8.16564
 20
6.270226
 30
0.0
 40
0.057219
 50
109.954678
 51
250.045322
  0
ARC
  8
TEXT
 62
     7
 10
-8.055943
 20
6.416884
 30
0.0
 40
0.04
 50
180.0
 51
270.0
  0
ARC
  8
TEXT
 62
     7
 10
-8.017843
 20
6.336884
 30
0.0
 40
0.04
 50
0.0
 51
90.0
  0
LINE
  8
TEXT
 62
     7
 10
-8.017843
 20
6.376884
 30
0.0
 11
-8.055943
 21
6.376884
 31
0.0
  0
LINE
  8
TEXT
 62
     7
 10
-8.017843
 20
6.376884
 30
0.0
 11
-8.055943
 21
6.376884
 31
0.0
  0
LINE
  8
0
 10
-8.381343
 20
6.643784
 30
0.0
 11
-8.095943
 21
6.643784
 31
0.0
  0
LINE
  8
OBJ
  6
CONTINUOUS
 10
-8.025651
 20
5.996525
 30
0.0
 11
-8.185168
 21
5.996525
 31
0.0
  0
LINE
  8
OBJ
 10
-8.222859
 20
6.216442
 30
0.0
 11
-8.222859
 21
5.996525
 31
0.0
  0
ARC
  8
OBJ
 10
-8.043622
 20
6.106484
 30
0.0
 40
0.179237
 50
142.158498
 51
217.841502
  0
ARC
  8
0
 10
-8.731343
 20
7.134784
 30
0.0
 40
0.0984
 50
270.0
 51
90.0
  0
ARC
  8
0
 10
-5.281343
 20
35.86842
 30
0.0
 40
30.943211
 50
270.015858
 51
272.231662
  0
LINE
  8
0
 10
-5.198343
 20
4.796284
 30
0.0
 11
-5.534843
 21
5.379119
 31
0.0
  0
CIRCLE
  8
0
 10
-5.871343
 20
4.796284
 30
0.0
 40
0.06
  0
LINE
  8
0
 10
-5.534843
 20
5.379119
 30
0.0
 11
-6.207843
 21
5.379119
 31
0.0
  0
ARC
  8
0
 10
-4.084203
 20
5.148526
 30
0.0
 40
0.2
 50
272.231662
 51
357.252514
  0
ARC
  8
0
 10
-5.205991
 20
6.412446
 30
0.0
 40
0.958407
 50
55.619655
 51
74.176778
  0
ARC
  8
0
 10
-5.205991
 20
7.157698
 30
0.0
 40
0.958407
 50
285.823222
 51
304.380345
  0
ARC
  8
0
 10
-5.205991
 20
6.412446
 30
0.0
 40
0.908407
 50
55.619655
 51
74.176778
  0
ARC
  8
0
 10
-5.205991
 20
7.157698
 30
0.0
 40
0.908407
 50
285.823222
 51
304.380345
  0
ARC
  8
0
 10
-5.205991
 20
6.412446
 30
0.0
 40
1.008407
 50
55.619655
 51
74.176778
  0
ARC
  8
0
 10
-5.205991
 20
7.157698
 30
0.0
 40
1.008407
 50
285.823222
 51
304.380345
  0
TEXT
  8
0
 10
-5.938654
 20
6.753971
 30
0.0
 40
0.07
  1
"THE PUMPS WITH 9 LIVES"
 41
1.3
  7
SANSSERIFBOLDOBLIQUE
  0
ARC
  8
0
 10
-5.805142
 20
6.785072
 30
0.0
 40
0.403169
 50
180.0
 51
211.190254
  0
ARC
  8
0
 10
-5.805142
 20
6.785072
 30
0.0
 40
0.353169
 50
180.0
 51
211.190254
  0
ARC
  8
0
 10
-5.805142
 20
6.785072
 30
0.0
 40
0.453169
 50
180.0
 51
211.190254
  0
ARC
  8
0
 10
-5.308311
 20
7.518732
 30
0.0
 40
1.33366
 50
254.176778
 51
270.0
  0
ARC
  8
0
 10
-5.308311
 20
7.518732
 30
0.0
 40
1.28366
 50
254.176778
 51
270.0
  0
ARC
  8
0
 10
-5.308311
 20
7.518732
 30
0.0
 40
1.38366
 50
254.176778
 51
270.0
  0
TEXT
  8
0
 10
-5.688767
 20
6.488762
 30
0.0
 40
0.07
  1
TRIPLEX PUMPS
 41
1.3
  7
SANSSERIFBOLDOBLIQUE
  0
TEXT
  8
0
 10
-5.749723
 20
6.566496
 30
0.0
 40
0.07
  1
WORLD LEADER IN
 41
1.3
  7
SANSSERIFBOLDOBLIQUE
  0
ARC
  8
0
 10
-5.410631
 20
7.157698
 30
0.0
 40
0.958407
 50
235.619655
 51
254.176778
  0
ARC
  8
0
 10
-5.566905
 20
6.929298
 30
0.0
 40
0.681661
 50
211.190254
 51
235.619655
  0
ARC
  8
0
 10
-5.410631
 20
7.157698
 30
0.0
 40
0.908407
 50
235.619655
 51
254.176778
  0
ARC
  8
0
 10
-5.566905
 20
6.929298
 30
0.0
 40
0.631661
 50
211.190254
 51
235.619655
  0
ARC
  8
0
 10
-5.410631
 20
7.157698
 30
0.0
 40
1.008407
 50
235.619655
 51
254.176778
  0
ARC
  8
0
 10
-5.566905
 20
6.929298
 30
0.0
 40
0.731661
 50
211.190254
 51
235.619655
  0
ARC
  8
0
 10
-5.308311
 20
7.518732
 30
0.0
 40
1.33366
 50
270.0
 51
285.823222
  0
ARC
  8
0
 10
-5.308311
 20
7.518732
 30
0.0
 40
1.28366
 50
270.0
 51
285.823222
  0
ARC
  8
0
 10
-5.308311
 20
7.518732
 30
0.0
 40
1.38366
 50
270.0
 51
285.823222
  0
ARC
  8
0
 10
-5.308311
 20
6.051412
 30
0.0
 40
1.33366
 50
90.0
 51
105.823222
  0
ARC
  8
0
 10
-5.308311
 20
6.051412
 30
0.0
 40
1.28366
 50
90.0
 51
105.823222
  0
LINE
  8
OBJ
 10
-5.631914
 20
7.068107
 30
0.0
 11
-5.425182
 21
7.191112
 31
0.0
  0
LINE
  8
OBJ
 10
-5.636657
 20
7.072616
 30
0.0
 11
-5.426657
 21
7.197566
 31
0.0
  0
LINE
  8
OBJ
 10
-5.564249
 20
6.921836
 30
0.0
 11
-5.524769
 21
6.921836
 31
0.0
  0
LINE
  8
OBJ
 10
-5.601605
 20
6.843086
 30
0.0
 11
-5.49366
 21
6.843086
 31
0.0
  0
LINE
  8
OBJ
 10
-5.561677
 20
6.954386
 30
0.0
 11
-5.453327
 21
6.954386
 31
0.0
  0
LINE
  8
OBJ
 10
-5.523754
 20
7.033556
 30
0.0
 11
-5.561677
 21
6.954386
 31
0.0
  0
LINE
  8
OBJ
 10
-5.613392
 20
7.053086
 30
0.0
 11
-5.409902
 21
7.053086
 31
0.0
  0
LINE
  8
OBJ
 10
-5.674397
 20
6.934856
 30
0.0
 11
-5.461919
 21
6.934856
 31
0.0
  0
ARC
  8
0
 10
-5.805142
 20
6.785072
 30
0.0
 40
0.403169
 50
148.809746
 51
180.0
  0
ARC
  8
0
 10
-5.566905
 20
6.640846
 30
0.0
 40
0.681661
 50
124.380345
 51
148.809746
  0
ARC
  8
0
 10
-5.410631
 20
6.412446
 30
0.0
 40
0.958407
 50
105.823222
 51
124.380345
  0
ARC
  8
0
 10
-5.805142
 20
6.785072
 30
0.0
 40
0.353169
 50
148.809746
 51
180.0
  0
ARC
  8
0
 10
-5.566905
 20
6.640846
 30
0.0
 40
0.631661
 50
124.380345
 51
148.809746
  0
ARC
  8
0
 10
-5.410631
 20
6.412446
 30
0.0
 40
0.908407
 50
105.823222
 51
124.380345
  0
ARC
  8
0
 10
-5.805142
 20
6.785072
 30
0.0
 40
0.453169
 50
148.809746
 51
180.0
  0
ARC
  8
0
 10
-5.566905
 20
6.640846
 30
0.0
 40
0.731661
 50
124.380345
 51
148.809746
  0
ARC
  8
0
 10
-5.410631
 20
6.412446
 30
0.0
 40
1.008407
 50
105.823222
 51
124.380345
  0
CIRCLE
  8
OBJ
 10
-5.780373
 20
6.906349
 30
0.0
 40
0.027032
  0
CIRCLE
  8
OBJ
 10
-5.780373
 20
6.906349
 30
0.0
 40
0.028365
  0
TEXT
  8
OBJ
 10
-5.792565
 20
6.892883
 30
0.0
 40
0.02625
  1
R
  7
ROMAND
  0
LINE
  8
OBJ
 10
-5.631914
 20
7.068107
 30
0.0
 11
-5.740301
 21
6.863036
 31
0.0
  0
LINE
  8
OBJ
 10
-5.636657
 20
7.072616
 30
0.0
 11
-5.744097
 21
6.869336
 31
0.0
  0
LINE
  8
OBJ
 10
-5.740301
 20
6.863036
 30
0.0
 11
-5.841031
 21
6.863036
 31
0.0
  0
LINE
  8
OBJ
 10
-5.744097
 20
6.869336
 30
0.0
 11
-5.844711
 21
6.869336
 31
0.0
  0
LINE
  8
OBJ
 10
-5.841031
 20
6.863036
 30
0.0
 11
-5.848725
 21
6.849386
 31
0.0
  0
LINE
  8
OBJ
 10
-5.718498
 20
6.849386
 30
0.0
 11
-5.848725
 21
6.849386
 31
0.0
  0
LINE
  8
OBJ
 10
-5.844711
 20
6.869336
 30
0.0
 11
-5.859509
 21
6.843086
 31
0.0
  0
LINE
  8
OBJ
 10
-5.721749
 20
6.843086
 30
0.0
 11
-5.859509
 21
6.843086
 31
0.0
  0
LINE
  8
OBJ
 10
-5.564249
 20
6.921836
 30
0.0
 11
-5.601605
 21
6.843086
 31
0.0
  0
LINE
  8
OBJ
 10
-5.664718
 20
6.875846
 30
0.0
 11
-5.681161
 21
6.843086
 31
0.0
  0
LINE
  8
OBJ
 10
-5.623168
 20
6.908816
 30
0.0
 11
-5.632901
 21
6.889076
 31
0.0
  0
LINE
  8
OBJ
 10
-5.64817
 20
6.908816
 30
0.0
 11
-5.658078
 21
6.889076
 31
0.0
  0
LINE
  8
OBJ
 10
-5.674397
 20
6.934856
 30
0.0
 11
-5.613392
 21
7.053086
 31
0.0
  0
LINE
  8
OBJ
 10
-5.577269
 20
6.921836
 30
0.0
 11
-5.599298
 21
6.875846
 31
0.0
  0
LINE
  8
OBJ
 10
-5.664718
 20
6.875846
 30
0.0
 11
-5.599298
 21
6.875846
 31
0.0
  0
LINE
  8
OBJ
 10
-5.64817
 20
6.908816
 30
0.0
 11
-5.623168
 21
6.908816
 31
0.0
  0
LINE
  8
OBJ
 10
-5.681115
 20
6.921836
 30
0.0
 11
-5.577269
 21
6.921836
 31
0.0
  0
LINE
  8
OBJ
 10
-5.658078
 20
6.889076
 30
0.0
 11
-5.632901
 21
6.889076
 31
0.0
  0
LINE
  8
OBJ
 10
-5.718498
 20
6.849386
 30
0.0
 11
-5.681115
 21
6.921836
 31
0.0
  0
LINE
  8
OBJ
 10
-5.721749
 20
6.843086
 30
0.0
 11
-5.681161
 21
6.843086
 31
0.0
  0
ARC
  8
0
 10
-5.308311
 20
6.051412
 30
0.0
 40
1.33366
 50
74.176778
 51
90.0
  0
ARC
  8
0
 10
-5.308311
 20
6.051412
 30
0.0
 40
1.28366
 50
74.176778
 51
90.0
  0
LINE
  8
OBJ
 10
-5.45478
 20
7.074192
 30
0.0
 11
-5.35218
 21
7.077775
 31
0.0
  0
LINE
  8
OBJ
 10
-5.490707
 20
7.079241
 30
0.0
 11
-5.361065
 21
7.083768
 31
0.0
  0
LINE
  8
OBJ
 10
-5.391213
 20
7.058896
 30
0.0
 11
-5.491584
 21
7.073002
 31
0.0
  0
LINE
  8
OBJ
 10
-5.405876
 20
7.046593
 30
0.0
 11
-5.391213
 21
7.058896
 31
0.0
  0
LINE
  8
OBJ
 10
-5.376324
 20
7.063166
 30
0.0
 11
-5.45478
 21
7.074192
 31
0.0
  0
LINE
  8
OBJ
 10
-5.411612
 20
7.033556
 30
0.0
 11
-5.376324
 21
7.063166
 31
0.0
  0
LINE
  8
OBJ
 10
-5.405876
 20
7.046593
 30
0.0
 11
-5.411612
 21
7.033556
 31
0.0
  0
LINE
  8
OBJ
 10
-5.388477
 20
7.159081
 30
0.0
 11
-5.382557
 21
7.161236
 31
0.0
  0
LINE
  8
OBJ
 10
-5.388477
 20
7.159081
 30
0.0
 11
-5.361065
 21
7.083768
 31
0.0
  0
LINE
  8
OBJ
 10
-5.382557
 20
7.161236
 30
0.0
 11
-5.35218
 21
7.077775
 31
0.0
  0
LINE
  8
OBJ
 10
-5.156557
 20
7.058769
 30
0.0
 11
-5.151396
 21
7.055155
 31
0.0
  0
LINE
  8
OBJ
 10
-5.119217
 20
7.112096
 30
0.0
 11
-5.114056
 21
7.108482
 31
0.0
  0
LINE
  8
OBJ
 10
-5.114056
 20
7.108482
 30
0.0
 11
-5.151396
 21
7.055155
 31
0.0
  0
LINE
  8
OBJ
 10
-5.119217
 20
7.112096
 30
0.0
 11
-5.156557
 21
7.058769
 31
0.0
  0
LINE
  8
OBJ
 10
-5.490707
 20
7.072879
 30
0.0
 11
-5.490707
 21
7.079241
 31
0.0
  0
ARC
  8
OBJ
 10
-4.920305
 20
7.137677
 30
0.0
 40
0.012731
 50
207.075022
 51
302.924978
  0
ARC
  8
OBJ
 10
-4.924721
 20
7.121196
 30
0.0
 40
0.012731
 50
27.075022
 51
122.924978
  0
LINE
  8
OBJ
 10
-4.959372
 20
7.097567
 30
0.0
 11
-4.958285
 21
7.09351
 31
0.0
  0
LINE
  8
OBJ
 10
-4.958968
 20
7.109682
 30
0.0
 11
-4.959334
 21
7.105498
 31
0.0
  0
LINE
  8
OBJ
 10
-4.933423
 20
7.107447
 30
0.0
 11
-4.958968
 21
7.109682
 31
0.0
  0
LINE
  8
OBJ
 10
-4.937049
 20
7.103548
 30
0.0
 11
-4.959334
 21
7.105498
 31
0.0
  0
LINE
  8
OBJ
 10
-4.937049
 20
7.103548
 30
0.0
 11
-4.959372
 21
7.097567
 31
0.0
  0
LINE
  8
OBJ
 10
-4.924816
 20
7.102478
 30
0.0
 11
-4.958285
 21
7.09351
 31
0.0
  0
LINE
  8
OBJ
 10
-4.953042
 20
7.123624
 30
0.0
 11
-4.955142
 21
7.119986
 31
0.0
  0
LINE
  8
OBJ
 10
-4.933423
 20
7.107447
 30
0.0
 11
-4.955142
 21
7.119986
 31
0.0
  0
LINE
  8
OBJ
 10
-4.923034
 20
7.106299
 30
0.0
 11
-4.953042
 21
7.123624
 31
0.0
  0
LINE
  8
OBJ
 10
-4.923034
 20
7.106299
 30
0.0
 11
-4.924816
 21
7.102478
 31
0.0
  0
LINE
  8
OBJ
 10
-5.014925
 20
7.071187
 30
0.0
 11
-4.896531
 21
7.08363
 31
0.0
  0
LINE
  8
OBJ
 10
-5.047817
 20
7.074064
 30
0.0
 11
-4.900734
 21
7.089523
 31
0.0
  0
LINE
  8
OBJ
 10
-4.911675
 20
7.055829
 30
0.0
 11
-5.048366
 21
7.067788
 31
0.0
  0
LINE
  8
OBJ
 10
-4.921919
 20
7.045585
 30
0.0
 11
-4.911675
 21
7.055829
 31
0.0
  0
LINE
  8
OBJ
 10
-4.897667
 20
7.060928
 30
0.0
 11
-5.014925
 21
7.071187
 31
0.0
  0
LINE
  8
OBJ
 10
-4.925039
 20
7.033556
 30
0.0
 11
-4.897667
 21
7.060928
 31
0.0
  0
LINE
  8
OBJ
 10
-5.047817
 20
7.06774
 30
0.0
 11
-5.047817
 21
7.074064
 31
0.0
  0
LINE
  8
OBJ
 10
-4.921919
 20
7.045585
 30
0.0
 11
-4.925039
 21
7.033556
 31
0.0
  0
LINE
  8
OBJ
 10
-4.897571
 20
7.096307
 30
0.0
 11
-4.900734
 21
7.089523
 31
0.0
  0
LINE
  8
OBJ
 10
-4.889199
 20
7.099354
 30
0.0
 11
-4.896531
 21
7.08363
 31
0.0
  0
LINE
  8
OBJ
 10
-4.907087
 20
7.100744
 30
0.0
 11
-4.897571
 21
7.096307
 31
0.0
  0
LINE
  8
OBJ
 10
-4.904497
 20
7.106299
 30
0.0
 11
-4.907087
 21
7.100744
 31
0.0
  0
LINE
  8
OBJ
 10
-4.895357
 20
7.102226
 30
0.0
 11
-4.889199
 21
7.099354
 31
0.0
  0
LINE
  8
OBJ
 10
-4.904497
 20
7.106299
 30
0.0
 11
-4.887286
 21
7.110911
 31
0.0
  0
LINE
  8
OBJ
 10
-4.895357
 20
7.102226
 30
0.0
 11
-4.882818
 21
7.105586
 31
0.0
  0
ARC
  8
OBJ
 10
-4.880089
 20
7.126344
 30
0.0
 40
0.0063
 50
335.0
 51
85.0
  0
LINE
  8
OBJ
 10
-4.880089
 20
7.126344
 30
0.0
 11
-4.887286
 21
7.110911
 31
0.0
  0
LINE
  8
OBJ
 10
-4.874379
 20
7.123681
 30
0.0
 11
-4.882818
 21
7.105586
 31
0.0
  0
ARC
  8
OBJ
 10
-4.913487
 20
7.133064
 30
0.0
 40
0.01323
 50
30.0
 51
85.0
  0
ARC
  8
OBJ
 10
-4.913487
 20
7.133064
 30
0.0
 40
0.01953
 50
30.0
 51
85.0
  0
LINE
  8
OBJ
 10
-4.90203
 20
7.139679
 30
0.0
 11
-4.895088
 21
7.127656
 31
0.0
  0
LINE
  8
OBJ
 10
-4.896574
 20
7.142829
 30
0.0
 11
-4.891272
 21
7.133646
 31
0.0
  0
LINE
  8
OBJ
 10
-5.068109
 20
7.159873
 30
0.0
 11
-5.095965
 21
7.152409
 31
0.0
  0
LINE
  8
OBJ
 10
-5.020585
 20
7.155715
 30
0.0
 11
-5.006004
 21
7.115654
 31
0.0
  0
LINE
  8
OBJ
 10
-5.022963
 20
7.162247
 30
0.0
 11
-4.968407
 21
7.157474
 31
0.0
  0
LINE
  8
OBJ
 10
-5.020585
 20
7.155715
 30
0.0
 11
-4.965333
 21
7.150881
 31
0.0
  0
LINE
  8
OBJ
 10
-5.095965
 20
7.152409
 30
0.0
 11
-5.094335
 21
7.146323
 31
0.0
  0
LINE
  8
OBJ
 10
-5.011924
 20
7.1135
 30
0.0
 11
-5.006004
 21
7.115654
 31
0.0
  0
LINE
  8
OBJ
 10
-5.030133
 20
7.163526
 30
0.0
 11
-5.011924
 21
7.1135
 31
0.0
  0
LINE
  8
OBJ
 10
-5.030133
 20
7.163526
 30
0.0
 11
-5.094335
 21
7.146323
 31
0.0
  0
LINE
  8
OBJ
 10
-5.026187
 20
7.171106
 30
0.0
 11
-5.022963
 21
7.162247
 31
0.0
  0
LINE
  8
OBJ
 10
-5.026187
 20
7.171106
 30
0.0
 11
-5.050317
 21
7.16464
 31
0.0
  0
LINE
  8
OBJ
 10
-4.895088
 20
7.127656
 30
0.0
 11
-4.880089
 21
7.126344
 31
0.0
  0
LINE
  8
OBJ
 10
-4.891272
 20
7.133646
 30
0.0
 11
-4.87954
 21
7.13262
 31
0.0
  0
LINE
  8
OBJ
 10
-4.94783
 20
7.14935
 30
0.0
 11
-4.912334
 21
7.146244
 31
0.0
  0
LINE
  8
OBJ
 10
-4.943657
 20
7.155309
 30
0.0
 11
-4.911785
 21
7.15252
 31
0.0
  0
LINE
  8
OBJ
 10
-4.955255
 20
7.165274
 30
0.0
 11
-4.94783
 21
7.14935
 31
0.0
  0
LINE
  8
OBJ
 10
-4.955255
 20
7.165274
 30
0.0
 11
-4.965333
 21
7.150881
 31
0.0
  0
LINE
  8
OBJ
 10
-4.954157
 20
7.177826
 30
0.0
 11
-4.968407
 21
7.157474
 31
0.0
  0
LINE
  8
OBJ
 10
-4.954157
 20
7.177826
 30
0.0
 11
-4.943657
 21
7.155309
 31
0.0
  0
LINE
  8
OBJ
 10
-5.425182
 20
7.191112
 30
0.0
 11
-5.068109
 21
7.159873
 31
0.0
  0
LINE
  8
OBJ
 10
-5.426657
 20
7.197566
 30
0.0
 11
-5.050317
 21
7.16464
 31
0.0
  0
LINE
  8
OBJ
 10
-5.330983
 20
6.921836
 30
0.0
 11
-5.277389
 21
6.921836
 31
0.0
  0
LINE
  8
OBJ
 10
-5.390703
 20
6.855511
 30
0.0
 11
-5.396473
 21
6.921836
 31
0.0
  0
LINE
  8
OBJ
 10
-5.407589
 20
6.843086
 30
0.0
 11
-5.413116
 21
6.906613
 31
0.0
  0
LINE
  8
OBJ
 10
-5.374829
 20
6.843086
 30
0.0
 11
-5.322749
 21
6.906613
 31
0.0
  0
LINE
  8
OBJ
 10
-5.330983
 20
6.921836
 30
0.0
 11
-5.390703
 21
6.855511
 31
0.0
  0
LINE
  8
OBJ
 10
-5.407589
 20
6.843086
 30
0.0
 11
-5.374829
 21
6.843086
 31
0.0
  0
LINE
  8
OBJ
 10
-5.264369
 20
6.921836
 30
0.0
 11
-5.159369
 21
6.921836
 31
0.0
  0
LINE
  8
OBJ
 10
-5.293315
 20
6.843086
 30
0.0
 11
-5.252728
 21
6.843086
 31
0.0
  0
LINE
  8
OBJ
 10
-5.347287
 20
6.843086
 30
0.0
 11
-5.3067
 21
6.843086
 31
0.0
  0
LINE
  8
OBJ
 10
-5.241147
 20
6.875846
 30
0.0
 11
-5.174554
 21
6.875846
 31
0.0
  0
LINE
  8
OBJ
 10
-5.241147
 20
6.875846
 30
0.0
 11
-5.252728
 21
6.843086
 31
0.0
  0
LINE
  8
OBJ
 10
-5.23647
 20
6.889076
 30
0.0
 11
-5.210126
 21
6.889076
 31
0.0
  0
LINE
  8
OBJ
 10
-5.229491
 20
6.908816
 30
0.0
 11
-5.203331
 21
6.908816
 31
0.0
  0
LINE
  8
OBJ
 10
-5.174554
 20
6.875846
 30
0.0
 11
-5.159369
 21
6.921836
 31
0.0
  0
LINE
  8
OBJ
 10
-5.203331
 20
6.908816
 30
0.0
 11
-5.210126
 21
6.889076
 31
0.0
  0
LINE
  8
OBJ
 10
-5.229491
 20
6.908816
 30
0.0
 11
-5.23647
 21
6.889076
 31
0.0
  0
LINE
  8
OBJ
 10
-5.264369
 20
6.921836
 30
0.0
 11
-5.293315
 21
6.843086
 31
0.0
  0
LINE
  8
OBJ
 10
-5.277389
 20
6.921836
 30
0.0
 11
-5.3067
 21
6.843086
 31
0.0
  0
LINE
  8
OBJ
 10
-5.322749
 20
6.906613
 30
0.0
 11
-5.347287
 21
6.843086
 31
0.0
  0
LINE
  8
OBJ
 10
-5.413116
 20
6.906613
 30
0.0
 11
-5.439688
 21
6.843086
 31
0.0
  0
LINE
  8
OBJ
 10
-5.446229
 20
6.921836
 30
0.0
 11
-5.480275
 21
6.843086
 31
0.0
  0
LINE
  8
OBJ
 10
-5.480275
 20
6.843086
 30
0.0
 11
-5.439688
 21
6.843086
 31
0.0
  0
LINE
  8
OBJ
 10
-5.446229
 20
6.921836
 30
0.0
 11
-5.396473
 21
6.921836
 31
0.0
  0
LINE
  8
OBJ
 10
-5.498729
 20
6.921836
 30
0.0
 11
-5.459249
 21
6.921836
 31
0.0
  0
LINE
  8
OBJ
 10
-5.555025
 20
6.856106
 30
0.0
 11
-5.528375
 21
6.856106
 31
0.0
  0
LINE
  8
OBJ
 10
-5.498729
 20
6.921836
 30
0.0
 11
-5.528375
 21
6.856106
 31
0.0
  0
LINE
  8
OBJ
 10
-5.459249
 20
6.921836
 30
0.0
 11
-5.49366
 21
6.843086
 31
0.0
  0
LINE
  8
OBJ
 10
-5.524769
 20
6.921836
 30
0.0
 11
-5.555025
 21
6.856106
 31
0.0
  0
LINE
  8
OBJ
 10
-5.453327
 20
6.954386
 30
0.0
 11
-5.461919
 21
6.934856
 31
0.0
  0
LINE
  8
OBJ
 10
-5.409902
 20
7.053086
 30
0.0
 11
-5.418495
 21
7.033556
 31
0.0
  0
LINE
  8
OBJ
 10
-5.372732
 20
7.053086
 30
0.0
 11
-5.188982
 21
7.053086
 31
0.0
  0
LINE
  8
OBJ
 10
-5.284348
 20
6.934856
 30
0.0
 11
-5.197249
 21
6.934856
 31
0.0
  0
LINE
  8
OBJ
 10
-5.44661
 20
6.934856
 30
0.0
 11
-5.355007
 21
6.934856
 31
0.0
  0
LINE
  8
OBJ
 10
-5.306867
 20
7.033556
 30
0.0
 11
-5.270477
 21
7.033556
 31
0.0
  0
LINE
  8
OBJ
 10
-5.277855
 20
6.981056
 30
0.0
 11
-5.284348
 21
6.934856
 31
0.0
  0
LINE
  8
OBJ
 10
-5.332473
 20
6.981056
 30
0.0
 11
-5.355007
 21
6.934856
 31
0.0
  0
LINE
  8
OBJ
 10
-5.332473
 20
6.981056
 30
0.0
 11
-5.277855
 21
6.981056
 31
0.0
  0
LINE
  8
OBJ
 10
-5.322948
 20
7.000586
 30
0.0
 11
-5.27511
 21
7.000586
 31
0.0
  0
LINE
  8
OBJ
 10
-5.270477
 20
7.033556
 30
0.0
 11
-5.27511
 21
7.000586
 31
0.0
  0
LINE
  8
OBJ
 10
-5.372732
 20
7.053086
 30
0.0
 11
-5.44661
 21
6.934856
 31
0.0
  0
LINE
  8
OBJ
 10
-5.306867
 20
7.033556
 30
0.0
 11
-5.322948
 21
7.000586
 31
0.0
  0
LINE
  8
OBJ
 10
-5.188982
 20
7.053086
 30
0.0
 11
-5.197249
 21
6.934856
 31
0.0
  0
LINE
  8
OBJ
 10
-4.926482
 20
7.053086
 30
0.0
 11
-4.931548
 21
7.033556
 31
0.0
  0
LINE
  8
OBJ
 10
-5.175962
 20
7.053086
 30
0.0
 11
-4.926482
 21
7.053086
 31
0.0
  0
LINE
  8
OBJ
 10
-5.182848
 20
7.033556
 30
0.0
 11
-5.110081
 21
7.033556
 31
0.0
  0
LINE
  8
OBJ
 10
-5.106975
 20
6.908816
 30
0.0
 11
-5.113096
 21
6.889076
 31
0.0
  0
LINE
  8
OBJ
 10
-5.085775
 20
6.875846
 30
0.0
 11
-5.091679
 21
6.856106
 31
0.0
  0
LINE
  8
OBJ
 10
-5.167856
 20
6.856106
 30
0.0
 11
-5.172095
 21
6.843086
 31
0.0
  0
LINE
  8
OBJ
 10
-5.040163
 20
6.908816
 30
0.0
 11
-5.036434
 21
6.921836
 31
0.0
  0
LINE
  8
OBJ
 10
-5.032705
 20
6.934856
 30
0.0
 11
-5.004437
 21
7.033556
 31
0.0
  0
LINE
  8
OBJ
 10
-5.146455
 20
6.921836
 30
0.0
 11
-5.161429
 21
6.875846
 31
0.0
  0
LINE
  8
OBJ
 10
-5.172095
 20
6.843086
 30
0.0
 11
-5.058989
 21
6.843086
 31
0.0
  0
LINE
  8
OBJ
 10
-5.167856
 20
6.856106
 30
0.0
 11
-5.091679
 21
6.856106
 31
0.0
  0
LINE
  8
OBJ
 10
-5.161429
 20
6.875846
 30
0.0
 11
-5.085775
 21
6.875846
 31
0.0
  0
LINE
  8
OBJ
 10
-5.113096
 20
6.889076
 30
0.0
 11
-5.045817
 21
6.889076
 31
0.0
  0
LINE
  8
OBJ
 10
-5.106975
 20
6.908816
 30
0.0
 11
-5.040163
 21
6.908816
 31
0.0
  0
LINE
  8
OBJ
 10
-5.146455
 20
6.921836
 30
0.0
 11
-5.036434
 21
6.921836
 31
0.0
  0
LINE
  8
OBJ
 10
-5.142216
 20
6.934856
 30
0.0
 11
-5.032705
 21
6.934856
 31
0.0
  0
LINE
  8
OBJ
 10
-5.004437
 20
7.033556
 30
0.0
 11
-4.931548
 21
7.033556
 31
0.0
  0
LINE
  8
OBJ
 10
-5.110081
 20
7.033556
 30
0.0
 11
-5.142216
 21
6.934856
 31
0.0
  0
LINE
  8
OBJ
 10
-5.175962
 20
7.053086
 30
0.0
 11
-5.182848
 21
7.033556
 31
0.0
  0
LINE
  8
OBJ
 10
-5.523754
 20
7.033556
 30
0.0
 11
-5.418495
 21
7.033556
 31
0.0
  0
LINE
  8
OBJ
 10
-5.058989
 20
6.843086
 30
0.0
 11
-5.045817
 21
6.889076
 31
0.0
  0
ARC
  8
0
 10
-4.81148
 20
6.785072
 30
0.0
 40
0.403169
 50
328.809746
 51
0.0
  0
ARC
  8
0
 10
-4.81148
 20
6.785072
 30
0.0
 40
0.353169
 50
328.809746
 51
0.0
  0
ARC
  8
0
 10
-4.81148
 20
6.785072
 30
0.0
 40
0.453169
 50
328.809746
 51
0.0
  0
ARC
  8
0
 10
-5.049717
 20
6.929298
 30
0.0
 40
0.681661
 50
304.380345
 51
328.809746
  0
ARC
  8
0
 10
-5.049717
 20
6.929298
 30
0.0
 40
0.631661
 50
304.380345
 51
328.809746
  0
ARC
  8
0
 10
-5.049717
 20
6.929298
 30
0.0
 40
0.731661
 50
304.380345
 51
328.809746
  0
ARC
  8
0
 10
-5.049717
 20
6.640846
 30
0.0
 40
0.681661
 50
31.190254
 51
55.619655
  0
ARC
  8
0
 10
-4.81148
 20
6.785072
 30
0.0
 40
0.403169
 50
360.0
 51
31.190254
  0
ARC
  8
0
 10
-5.049717
 20
6.640846
 30
0.0
 40
0.631661
 50
31.190254
 51
55.619655
  0
ARC
  8
0
 10
-4.81148
 20
6.785072
 30
0.0
 40
0.353169
 50
360.0
 51
31.190254
  0
ARC
  8
0
 10
-5.049717
 20
6.640846
 30
0.0
 40
0.731661
 50
31.190254
 51
55.619655
  0
ARC
  8
0
 10
-4.81148
 20
6.785072
 30
0.0
 40
0.453169
 50
0.0
 51
31.190254
  0
LINE
  8
0
 10
-3.181343
 20
2.907284
 30
0.0
 11
-3.181343
 21
3.662431
 31
0.0
  0
LINE
  8
0
 10
-3.181343
 20
1.922284
 30
0.0
 11
-3.181343
 21
2.848725
 31
0.0
  0
LINE
  8
0
 10
-3.134908
 20
2.227284
 30
0.0
 11
-2.403214
 21
2.227284
 31
0.0
  0
ARC
  8
0
 10
-2.907343
 20
1.822284
 30
0.0
 40
0.1
 50
53.130102
 51
90.0
  0
ARC
  8
0
 10
-3.281343
 20
2.848725
 30
0.0
 40
0.1
 50
0.0
 51
35.844882
  0
ARC
  8
0
 10
-2.898343
 20
2.727284
 30
0.0
 40
0.1
 50
53.130102
 51
90.0
  0
LINE
  8
0
 10
-2.898343
 20
2.827284
 30
0.0
 11
-3.181343
 21
2.827284
 31
0.0
  0
ARC
  8
0
 10
-3.241343
 20
3.662431
 30
0.0
 40
0.06
 50
360.0
 51
45.0
  0
LINE
  8
OBJ
 10
-2.339827
 20
5.996525
 30
0.0
 11
-2.339827
 21
5.913872
 31
0.0
  0
ARC
  8
OBJ
 10
-2.397047
 20
5.942741
 30
0.0
 40
0.057219
 50
289.954678
 51
70.045322
  0
LINE
  8
0
 10
-2.584843
 20
6.30668
 30
0.0
 11
-2.584843
 21
5.906288
 31
0.0
  0
LINE
  8
OBJ
 10
-2.537035
 20
6.32401
 30
0.0
 11
-2.537035
 21
5.888957
 31
0.0
  0
LINE
  8
OBJ
  6
CENTER2
 10
-2.584843
 20
5.906288
 30
0.0
 11
-2.537035
 21
5.906288
 31
0.0
  0
ARC
  8
TEXT
 62
     7
 10
-2.624843
 20
5.747284
 30
0.0
 40
0.04
 50
270.0
 51
0.0
  0
ARC
  8
0
 10
-3.201851
 20
5.647284
 30
0.0
 40
0.06
 50
90.0
 51
177.797415
  0
LINE
  8
0
 10
-3.201851
 20
5.707284
 30
0.0
 11
-2.742343
 21
5.707284
 31
0.0
  0
LINE
  8
TEXT
 62
     7
 10
-2.742343
 20
5.707284
 30
0.0
 11
-2.624843
 21
5.707284
 31
0.0
  0
LINE
  8
OBJ
 10
-2.339827
 20
5.913872
 30
0.0
 11
-2.363047
 21
5.896719
 31
0.0
  0
LINE
  8
OBJ
  6
CONTINUOUS
 10
-2.537035
 20
5.888957
 30
0.0
 11
-2.377519
 21
5.888957
 31
0.0
  0
ARC
  8
0
 10
-1.831343
 20
7.134784
 30
0.0
 40
0.0984
 50
90.0
 51
270.0
  0
LINE
  8
0
 10
-0.881343
 20
6.809984
 30
0.0
 11
-2.181343
 21
6.809984
 31
0.0
  0
ARC
  8
TEXT
 62
     7
 10
-2.624843
 20
6.088555
 30
0.0
 40
0.04
 50
270.0
 51
0.0
  0
LINE
  8
OBJ
  6
CENTER2
 10
-2.584843
 20
6.30668
 30
0.0
 11
-2.537035
 21
6.30668
 31
0.0
  0
LINE
  8
OBJ
 10
-2.584843
 20
6.154876
 30
0.0
 11
-2.537035
 21
6.202684
 31
0.0
  0
ARC
  8
TEXT
 62
     7
 10
-2.544843
 20
6.336884
 30
0.0
 40
0.04
 50
90.0
 51
180.0
  0
LINE
  8
TEXT
 62
     7
 10
-2.742343
 20
6.048555
 30
0.0
 11
-2.624843
 21
6.048555
 31
0.0
  0
LINE
  8
0
 10
-2.181343
 20
6.643784
 30
0.0
 11
-2.466743
 21
6.643784
 31
0.0
  0
LINE
  8
OBJ
 10
-2.339827
 20
6.299095
 30
0.0
 11
-2.363047
 21
6.316249
 31
0.0
  0
LINE
  8
OBJ
  6
CONTINUOUS
 10
-2.537035
 20
6.32401
 30
0.0
 11
-2.377519
 21
6.32401
 31
0.0
  0
LINE
  8
OBJ
 10
-2.339827
 20
6.216442
 30
0.0
 11
-2.339827
 21
5.996525
 31
0.0
  0
ARC
  8
OBJ
 10
-2.519065
 20
6.106484
 30
0.0
 40
0.179237
 50
322.158498
 51
37.841502
  0
LINE
  8
OBJ
  6
CONTINUOUS
 10
-2.537035
 20
5.996525
 30
0.0
 11
-2.377519
 21
5.996525
 31
0.0
  0
LINE
  8
OBJ
  6
CONTINUOUS
 10
-2.537035
 20
6.216442
 30
0.0
 11
-2.377519
 21
6.216442
 31
0.0
  0
LINE
  8
OBJ
 10
-2.339827
 20
6.299095
 30
0.0
 11
-2.339827
 21
6.216442
 31
0.0
  0
ARC
  8
OBJ
 10
-2.397047
 20
6.270226
 30
0.0
 40
0.057219
 50
289.954678
 51
70.045322
  0
ARC
  8
TEXT
 62
     7
 10
-2.506743
 20
6.416884
 30
0.0
 40
0.04
 50
270.0
 51
0.0
  0
LINE
  8
TEXT
 62
     7
 10
-2.544843
 20
6.376884
 30
0.0
 11
-2.506743
 21
6.376884
 31
0.0
  0
LINE
  8
TEXT
 62
     7
 10
-2.544843
 20
6.376884
 30
0.0
 11
-2.506743
 21
6.376884
 31
0.0
  0
LINE
  8
0
 10
-0.881343
 20
7.036384
 30
0.0
 11
-1.831343
 21
7.036384
 31
0.0
  0
LINE
  8
0
 10
-0.881343
 20
7.233184
 30
0.0
 11
-1.831343
 21
7.233184
 31
0.0
  0
ARC
  8
0
 10
-3.02443
 20
-4.366736
 30
0.0
 40
15.24379
 50
355.113596
 51
4.886404
  0
CIRCLE
  8
0
 10
10.28386
 20
-4.366736
 30
0.0
 40
0.62
  0
LINE
  8
0
 10
12.56356
 20
-4.033637
 30
0.0
 11
12.56356
 21
-4.699835
 31
0.0
  0
LINE
  8
0
 10
12.11936
 20
-5.665209
 30
0.0
 11
12.11936
 21
-3.068262
 31
0.0
  0
LINE
  8
0
 10
12.32736
 20
-3.707737
 30
0.0
 11
12.32736
 21
-5.025734
 31
0.0
  0
LINE
  8
0
 10
11.83836
 20
-2.588436
 30
0.0
 11
11.83836
 21
-6.145036
 31
0.0
  0
LINE
  8
0
 10
11.99536
 20
-2.613436
 30
0.0
 11
11.99536
 21
-6.120036
 31
0.0
  0
LINE
  8
0
 10
6.05636
 20
-3.409436
 30
0.0
 11
6.05636
 21
-5.324036
 31
0.0
  0
LINE
  8
0
 10
11.83836
 20
-2.588436
 30
0.0
 11
11.83836
 21
-6.145036
 31
0.0
  0
LINE
  8
0
 10
7.07136
 20
-4.366736
 30
0.0
 11
7.07136
 21
-3.409436
 31
0.0
  0
LINE
  8
0
 10
6.83636
 20
-4.366736
 30
0.0
 11
6.83636
 21
-3.616736
 31
0.0
  0
LINE
  8
0
 10
10.38386
 20
-4.166536
 30
0.0
 11
10.38386
 21
-4.057713
 31
0.0
  0
LINE
  8
0
 10
10.18386
 20
-4.166536
 30
0.0
 11
10.18386
 21
-4.057713
 31
0.0
  0
LINE
  8
0
 10
11.68136
 20
-5.452965
 30
0.0
 11
11.68136
 21
-3.280507
 31
0.0
  0
LINE
  8
0
 10
8.88636
 20
-5.452965
 30
0.0
 11
8.88636
 21
-3.280507
 31
0.0
  0
CIRCLE
  8
0
 10
10.28386
 20
-4.366736
 30
0.0
 40
0.7875
  0
CIRCLE
  8
0
 10
10.28386
 20
-4.366736
 30
0.0
 40
0.49
  0
CIRCLE
  8
0
 10
10.28386
 20
-4.366736
 30
0.0
 40
0.3248
  0
LINE
  8
0
 10
4.00136
 20
-3.996592
 30
0.0
 11
4.00136
 21
-4.73688
 31
0.0
  0
LINE
  8
0
 10
4.513038
 20
-3.551963
 30
0.0
 11
4.513038
 21
-4.326736
 31
0.0
  0
LINE
  8
0
 10
6.05636
 20
-3.425675
 30
0.0
 11
6.05636
 21
-4.080615
 31
0.0
  0
LINE
  8
0
 10
6.596693
 20
-5.446036
 30
0.0
 11
8.88636
 21
-5.446036
 31
0.0
  0
LINE
  8
0
 10
11.83836
 20
-6.145036
 30
0.0
 11
8.13836
 21
-6.061036
 31
0.0
  0
LINE
  8
0
 10
9.85276
 20
-6.329436
 30
0.0
 11
8.35276
 21
-6.329436
 31
0.0
  0
LINE
  8
0
 10
8.35276
 20
-6.329436
 30
0.0
 11
7.44026
 21
-7.219436
 31
0.0
  0
LINE
  8
0
 10
6.80526
 20
-5.533797
 30
0.0
 11
6.80526
 21
-7.319436
 31
0.0
  0
CIRCLE
  8
0
 10
7.13426
 20
-6.847036
 30
0.0
 40
0.177
  0
LINE
  8
0
 10
7.44026
 20
-7.319436
 30
0.0
 11
6.80526
 21
-7.319436
 31
0.0
  0
LINE
  8
0
 10
7.44026
 20
-7.219436
 30
0.0
 11
7.44026
 21
-7.319436
 31
0.0
  0
CIRCLE
  8
0
 10
5.37636
 20
-5.847736
 30
0.0
 40
0.305538
  0
CIRCLE
  8
0
 10
5.37636
 20
-5.847736
 30
0.0
 40
0.43881
  0
CIRCLE
  8
0
 10
5.37636
 20
-5.847736
 30
0.0
 40
0.375
  0
CIRCLE
  8
0
 10
5.37636
 20
-5.847736
 30
0.0
 40
0.6
  0
LINE
  8
0
 10
3.35036
 20
-6.145236
 30
0.0
 11
3.35036
 21
-5.344236
 31
0.0
  0
ARC
  8
0
 10
4.276741
 20
-5.744736
 30
0.0
 40
0.926381
 50
163.248683
 51
196.751317
  0
LINE
  8
0
 10
3.70636
 20
-6.373228
 30
0.0
 11
3.70636
 21
-5.172736
 31
0.0
  0
LINE
  8
0
 10
3.59136
 20
-6.316736
 30
0.0
 11
3.59136
 21
-5.172736
 31
0.0
  0
LINE
  8
0
 10
3.70636
 20
-5.116244
 30
0.0
 11
3.70636
 21
-6.373228
 31
0.0
  0
LINE
  8
0
 10
3.772865
 20
-6.413225
 30
0.0
 11
5.186503
 21
-6.430725
 31
0.0
  0
ARC
  8
0
 10
3.596697
 20
-6.145236
 30
0.0
 40
0.246337
 50
147.184167
 51
212.815833
  0
ARC
  8
0
 10
3.74636
 20
-6.373228
 30
0.0
 40
0.04
 50
180.0
 51
269.290729
  0
LINE
  8
0
 10
3.389671
 20
-6.278736
 30
0.0
 11
3.59136
 21
-6.278736
 31
0.0
  0
LINE
  8
0
 10
3.59136
 20
-6.316736
 30
0.0
 11
3.70636
 21
-6.316736
 31
0.0
  0
LINE
  8
0
 10
3.389671
 20
-6.011736
 30
0.0
 11
3.59136
 21
-6.011736
 31
0.0
  0
LINE
  8
0
 10
5.37636
 20
-5.954329
 30
0.0
 11
5.37636
 21
-5.741143
 31
0.0
  0
LINE
  8
0
 10
5.269767
 20
-5.847736
 30
0.0
 11
5.482953
 21
-5.847736
 31
0.0
  0
ARC
  8
0
 10
4.13136
 20
-5.276736
 30
0.0
 40
0.05
 50
180.0
 51
270.0
  0
ARC
  8
0
 10
4.13136
 20
-4.834736
 30
0.0
 40
0.05
 50
90.0
 51
180.0
  0
ARC
  8
0
 10
4.45136
 20
-4.73688
 30
0.0
 40
0.45
 50
180.0
 51
187.90073
  0
ARC
  8
0
 10
3.596697
 20
-5.344236
 30
0.0
 40
0.246337
 50
147.184167
 51
212.815833
  0
LINE
  8
0
 10
3.745865
 20
-5.076247
 30
0.0
 11
3.78136
 21
-5.075807
 31
0.0
  0
ARC
  8
0
 10
3.74636
 20
-5.116244
 30
0.0
 40
0.04
 50
90.709271
 51
180.0
  0
LINE
  8
0
 10
4.08136
 20
-5.312736
 30
0.0
 11
4.08136
 21
-4.798736
 31
0.0
  0
LINE
  8
0
 10
4.018618
 20
-5.312736
 30
0.0
 11
4.018618
 21
-4.798736
 31
0.0
  0
LINE
  8
0
 10
3.78136
 20
-4.848736
 30
0.0
 11
3.83136
 21
-4.798736
 31
0.0
  0
LINE
  8
0
 10
3.78136
 20
-5.262736
 30
0.0
 11
3.83136
 21
-5.312736
 31
0.0
  0
LINE
  8
0
 10
3.78136
 20
-5.262736
 30
0.0
 11
3.78136
 21
-4.848736
 31
0.0
  0
LINE
  8
0
 10
3.83136
 20
-4.798736
 30
0.0
 11
3.83136
 21
-5.312736
 31
0.0
  0
LINE
  8
0
 10
4.08136
 20
-4.798736
 30
0.0
 11
3.83136
 21
-4.798736
 31
0.0
  0
LINE
  8
0
 10
4.08136
 20
-5.312736
 30
0.0
 11
3.83136
 21
-5.312736
 31
0.0
  0
LINE
  8
0
 10
4.08136
 20
-4.834736
 30
0.0
 11
4.08136
 21
-5.276736
 31
0.0
  0
LINE
  8
0
 10
3.59136
 20
-5.172736
 30
0.0
 11
3.70636
 21
-5.172736
 31
0.0
  0
LINE
  8
0
 10
3.389671
 20
-5.210736
 30
0.0
 11
3.59136
 21
-5.210736
 31
0.0
  0
LINE
  8
0
 10
3.389671
 20
-5.477736
 30
0.0
 11
3.59136
 21
-5.477736
 31
0.0
  0
LINE
  8
0
 10
5.37636
 20
-5.226736
 30
0.0
 11
5.37636
 21
-4.676736
 31
0.0
  0
LINE
  8
0
 10
4.57136
 20
-4.366736
 30
0.0
 11
4.57136
 21
-4.784736
 31
0.0
  0
LINE
  8
0
 10
5.37636
 20
-4.466736
 30
0.0
 11
5.37636
 21
-5.247736
 31
0.0
  0
ARC
  8
0
 10
4.56936
 20
-7.183868
 30
0.0
 40
2.399132
 50
82.081098
 51
90.0
  0
ARC
  8
0
 10
4.56936
 20
-2.927604
 30
0.0
 40
2.399132
 50
270.0
 51
277.918902
  0
LINE
  8
0
 10
4.13136
 20
-5.326736
 30
0.0
 11
4.56936
 21
-5.326736
 31
0.0
  0
LINE
  8
0
 10
4.13136
 20
-4.784736
 30
0.0
 11
4.56936
 21
-4.784736
 31
0.0
  0
ARC
  8
0
 10
4.716697
 20
-6.124631
 30
0.0
 40
1.329697
 50
71.437349
 51
82.081098
  0
ARC
  8
0
 10
4.939107
 20
-5.462325
 30
0.0
 40
0.631044
 50
50.967591
 51
71.437349
  0
ARC
  8
0
 10
5.268737
 20
-5.055736
 30
0.0
 40
0.107622
 50
0.0
 51
50.967591
  0
ARC
  8
0
 10
5.268737
 20
-5.055736
 30
0.0
 40
0.107622
 50
309.032409
 51
0.0
  0
ARC
  8
0
 10
4.939107
 20
-4.649147
 30
0.0
 40
0.631044
 50
288.562651
 51
309.032409
  0
ARC
  8
0
 10
4.716697
 20
-3.98684
 30
0.0
 40
1.329697
 50
277.918902
 51
288.562651
  0
LINE
  8
0
 10
4.553038
 20
-4.366736
 30
0.0
 11
5.27636
 21
-4.366736
 31
0.0
  0
ARC
  8
0
 10
4.553038
 20
-4.326736
 30
0.0
 40
0.04
 50
180.0
 51
270.0
  0
ARC
  8
0
 10
5.27636
 20
-4.466736
 30
0.0
 40
0.1
 50
0.0
 51
90.0
  0
LINE
  8
0
 10
8.13836
 20
-6.061036
 30
0.0
 11
6.614971
 21
-5.458538
 31
0.0
  0
LINE
  8
0
 10
8.142577
 20
-6.534436
 30
0.0
 11
6.80526
 21
-6.534436
 31
0.0
  0
LINE
  8
0
 10
7.07136
 20
-4.366736
 30
0.0
 11
7.07136
 21
-5.324036
 31
0.0
  0
LINE
  8
0
 10
6.83636
 20
-4.366736
 30
0.0
 11
6.83636
 21
-5.116736
 31
0.0
  0
LINE
  8
0
 10
6.05636
 20
-5.307796
 30
0.0
 11
6.05636
 21
-4.652856
 31
0.0
  0
LINE
  8
0
 10
6.53336
 20
-5.324036
 30
0.0
 11
6.05636
 21
-5.324036
 31
0.0
  0
ARC
  8
0
 10
5.824309
 20
-5.376736
 30
0.0
 40
0.05
 50
90.0
 51
226.436862
  0
ARC
  8
0
 10
5.9978
 20
-5.226736
 30
0.0
 40
0.1
 50
270.0
 51
305.844882
  0
LINE
  8
0
 10
5.824309
 20
-5.326736
 30
0.0
 11
5.9978
 21
-5.326736
 31
0.0
  0
LINE
  8
0
 10
6.58336
 20
-5.374036
 30
0.0
 11
6.58336
 21
-5.412042
 31
0.0
  0
ARC
  8
0
 10
6.63336
 20
-5.412042
 30
0.0
 40
0.05
 50
180.0
 51
248.421283
  0
ARC
  8
0
 10
6.53336
 20
-5.374036
 30
0.0
 40
0.05
 50
0.0
 51
90.0
  0
ARC
  8
0
 10
7.086034
 20
-5.07055
 30
0.0
 40
0.25391
 50
190.480268
 51
266.686917
  0
LINE
  8
0
 10
7.07136
 20
-5.324036
 30
0.0
 11
6.53336
 21
-5.324036
 31
0.0
  0
LINE
  8
0
 10
6.05636
 20
-4.080615
 30
0.0
 11
6.05636
 21
-4.652856
 31
0.0
  0
ARC
  8
0
 10
6.0382
 20
-4.676736
 30
0.0
 40
0.03
 50
52.747627
 51
90.0
  0
ARC
  8
0
 10
6.0382
 20
-4.056736
 30
0.0
 40
0.03
 50
270.0
 51
307.252373
  0
ARC
  8
0
 10
5.82136
 20
-4.546736
 30
0.0
 40
0.1
 50
180.0
 51
270.0
  0
ARC
  8
0
 10
5.82136
 20
-4.186736
 30
0.0
 40
0.1
 50
90.0
 51
180.0
  0
LINE
  8
0
 10
6.0382
 20
-4.646736
 30
0.0
 11
5.82136
 21
-4.646736
 31
0.0
  0
LINE
  8
0
 10
6.0382
 20
-4.086736
 30
0.0
 11
5.82136
 21
-4.086736
 31
0.0
  0
LINE
  8
0
 10
5.72136
 20
-4.186736
 30
0.0
 11
5.72136
 21
-4.546736
 31
0.0
  0
LINE
  8
0
 10
10.76526
 20
-7.219436
 30
0.0
 11
9.85276
 21
-6.329436
 31
0.0
  0
LINE
  8
0
 10
11.40026
 20
-6.13509
 30
0.0
 11
11.40026
 21
-7.319436
 31
0.0
  0
CIRCLE
  8
0
 10
11.07126
 20
-6.847036
 30
0.0
 40
0.177
  0
LINE
  8
0
 10
11.40026
 20
-7.319436
 30
0.0
 11
10.76526
 21
-7.319436
 31
0.0
  0
LINE
  8
0
 10
10.76526
 20
-7.219436
 30
0.0
 11
10.76526
 21
-7.319436
 31
0.0
  0
LINE
  8
0
 10
11.839041
 20
-6.115044
 30
0.0
 11
11.343603
 21
-6.103796
 31
0.0
  0
INSERT
  8
0
  2
M6-SEMS
 10
11.341691
 20
-5.424568
 30
0.0
 41
-1.0
  0
ARC
  8
0
 10
10.28386
 20
-4.366736
 30
0.0
 40
1.77
 50
307.856706
 51
322.143294
  0
INSERT
  8
0
  2
M6-SEMS
 10
9.226028
 20
-5.424568
 30
0.0
 41
-1.0
  0
ARC
  8
0
 10
10.28386
 20
-4.366736
 30
0.0
 40
1.77
 50
217.856706
 51
232.143294
  0
LINE
  8
0
 10
11.40026
 20
-6.534436
 30
0.0
 11
10.062942
 21
-6.534436
 31
0.0
  0
LINE
  8
0
 10
11.370089
 20
-5.764236
 30
0.0
 11
9.197631
 21
-5.764236
 31
0.0
  0
LINE
  8
0
 10
11.15636
 20
-5.764236
 30
0.0
 11
11.343603
 21
-6.103796
 31
0.0
  0
LINE
  8
0
 10
10.38386
 20
-4.166536
 30
0.0
 11
10.18386
 21
-4.166536
 31
0.0
  0
ARC
  8
0
 10
12.096425
 20
-5.645869
 30
0.0
 40
0.22344
 50
26.500403
 51
50.281241
  0
LINE
  8
0
 10
12.31536
 20
-5.302736
 30
0.0
 11
12.31536
 21
-5.950736
 31
0.0
  0
ARC
  8
0
 10
12.134799
 20
-5.626736
 30
0.0
 40
0.180561
 50
333.499597
 51
360.0
  0
ARC
  8
0
 10
12.265706
 20
-5.950736
 30
0.0
 40
0.049654
 50
315.080878
 51
0.0
  0
ARC
  8
0
 10
12.265706
 20
-5.950736
 30
0.0
 40
0.049654
 50
0.0
 51
44.919122
  0
ARC
  8
0
 10
12.134799
 20
-5.626736
 30
0.0
 40
0.180561
 50
0.0
 51
26.500403
  0
ARC
  8
0
 10
12.096425
 20
-5.607603
 30
0.0
 40
0.22344
 50
310.109324
 51
333.499597
  0
ARC
  8
0
 10
12.166318
 20
-5.851628
 30
0.0
 40
0.190012
 50
292.939228
 51
315.080878
  0
ARC
  8
0
 10
12.166318
 20
-6.049844
 30
0.0
 40
0.190012
 50
44.919122
 51
67.060772
  0
LINE
  8
0
 10
12.11936
 20
-5.496736
 30
0.0
 11
11.99536
 21
-5.496736
 31
0.0
  0
LINE
  8
OBJ
  6
CONTINUOUS
 10
12.043168
 20
-5.772777
 30
0.0
 11
12.202684
 21
-5.772777
 31
0.0
  0
LINE
  8
OBJ
  6
CONTINUOUS
 10
12.043168
 20
-5.665209
 30
0.0
 11
12.202684
 21
-5.665209
 31
0.0
  0
LINE
  8
OBJ
  6
CONTINUOUS
 10
12.043168
 20
-6.100262
 30
0.0
 11
12.202684
 21
-6.100262
 31
0.0
  0
LINE
  8
OBJ
  6
CONTINUOUS
 10
12.043168
 20
-5.992694
 30
0.0
 11
12.202684
 21
-5.992694
 31
0.0
  0
LINE
  8
OBJ
 10
12.043168
 20
-6.100262
 30
0.0
 11
12.043168
 21
-5.665209
 31
0.0
  0
LINE
  8
0
 10
11.99536
 20
-6.082932
 30
0.0
 11
11.99536
 21
-5.68254
 31
0.0
  0
ARC
  8
0
 10
11.97036
 20
-6.120036
 30
0.0
 40
0.025
 50
270.0
 51
0.0
  0
LINE
  8
0
 10
11.83836
 20
-6.145036
 30
0.0
 11
11.97036
 21
-6.145036
 31
0.0
  0
LINE
  8
0
 10
11.839041
 20
-6.115044
 30
0.0
 11
11.97036
 21
-6.115044
 31
0.0
  0
ARC
  8
0
 10
11.97036
 20
-6.090044
 30
0.0
 40
0.025
 50
270.0
 51
0.0
  0
LINE
  8
OBJ
 10
11.99536
 20
-5.931128
 30
0.0
 11
12.043168
 21
-5.978936
 31
0.0
  0
LINE
  8
OBJ
  6
CENTER2
 10
11.99536
 20
-6.082932
 30
0.0
 11
12.043168
 21
-6.082932
 31
0.0
  0
LINE
  8
OBJ
  6
CENTER2
 10
11.99536
 20
-5.68254
 30
0.0
 11
12.043168
 21
-5.68254
 31
0.0
  0
LINE
  8
OBJ
 10
12.240376
 20
-5.992694
 30
0.0
 11
12.240376
 21
-5.772777
 31
0.0
  0
LINE
  8
OBJ
 10
12.240376
 20
-6.075347
 30
0.0
 11
12.217156
 21
-6.092501
 31
0.0
  0
LINE
  8
OBJ
 10
12.240376
 20
-6.075347
 30
0.0
 11
12.240376
 21
-5.992694
 31
0.0
  0
LINE
  8
OBJ
 10
12.240376
 20
-5.690124
 30
0.0
 11
12.217156
 21
-5.672971
 31
0.0
  0
LINE
  8
OBJ
 10
12.240376
 20
-5.772777
 30
0.0
 11
12.240376
 21
-5.690124
 31
0.0
  0
ARC
  8
OBJ
 10
12.061138
 20
-5.882736
 30
0.0
 40
0.179237
 50
322.158498
 51
37.841502
  0
ARC
  8
OBJ
 10
12.183156
 20
-6.046478
 30
0.0
 40
0.057219
 50
289.954678
 51
70.045322
  0
ARC
  8
OBJ
 10
12.183156
 20
-5.718993
 30
0.0
 40
0.057219
 50
289.954678
 51
70.045322
  0
ARC
  8
0
 10
12.46356
 20
-4.699835
 30
0.0
 40
0.1
 50
270.0
 51
0.0
  0
ARC
  8
0
 10
12.265706
 20
-5.302736
 30
0.0
 40
0.049654
 50
360.0
 51
44.919122
  0
ARC
  8
0
 10
12.265706
 20
-5.302736
 30
0.0
 40
0.049654
 50
315.080878
 51
0.0
  0
ARC
  8
0
 10
12.29736
 20
-5.025734
 30
0.0
 40
0.03
 50
270.0
 51
0.0
  0
ARC
  8
0
 10
12.099494
 20
-5.562716
 30
0.0
 40
0.364211
 50
67.442753
 51
74.645353
  0
ARC
  8
0
 10
12.166318
 20
-5.401844
 30
0.0
 40
0.190012
 50
44.919122
 51
67.442753
  0
ARC
  8
0
 10
12.166318
 20
-5.203628
 30
0.0
 40
0.190012
 50
292.557247
 51
315.080878
  0
ARC
  8
0
 10
12.099494
 20
-5.042755
 30
0.0
 40
0.364211
 50
283.498947
 51
292.557247
  0
ARC
  8
0
 10
12.071548
 20
-5.675813
 30
0.0
 40
0.26237
 50
50.281241
 51
65.177345
  0
LINE
  8
0
 10
12.29736
 20
-5.055734
 30
0.0
 11
12.203781
 21
-5.055734
 31
0.0
  0
LINE
  8
0
 10
12.46356
 20
-4.799835
 30
0.0
 11
12.32736
 21
-4.799835
 31
0.0
  0
LINE
  8
0
 10
12.32736
 20
-4.484736
 30
0.0
 11
12.252876
 21
-4.484736
 31
0.0
  0
LINE
  8
0
 10
12.32736
 20
-4.248736
 30
0.0
 11
12.252876
 21
-4.248736
 31
0.0
  0
LINE
  8
0
 10
12.222876
 20
-4.278736
 30
0.0
 11
12.222876
 21
-4.454736
 31
0.0
  0
ARC
  8
0
 10
12.252876
 20
-4.454736
 30
0.0
 40
0.03
 50
180.0
 51
270.0
  0
ARC
  8
0
 10
12.252876
 20
-4.278736
 30
0.0
 40
0.03
 50
90.0
 51
180.0
  0
LINE
  8
0
 10
8.61836
 20
-2.091433
 30
0.0
 11
8.549645
 21
-2.045917
 31
0.0
  0
ARC
  8
0
 10
8.45011
 20
-2.379641
 30
0.0
 40
0.333724
 50
59.724427
 51
120.275573
  0
LINE
  8
0
 10
7.27236
 20
-2.324436
 30
0.0
 11
8.61836
 21
-2.324436
 31
0.0
  0
LINE
  8
0
 10
6.596693
 20
-3.287436
 30
0.0
 11
8.88636
 21
-3.287436
 31
0.0
  0
LINE
  8
0
 10
11.83836
 20
-2.588436
 30
0.0
 11
8.13836
 21
-2.672436
 31
0.0
  0
LINE
  8
0
 10
5.094393
 20
-3.406736
 30
0.0
 11
5.9978
 21
-3.406736
 31
0.0
  0
LINE
  8
0
 10
5.258779
 20
-2.317736
 30
0.0
 11
5.258779
 21
-2.777736
 31
0.0
  0
CIRCLE
  8
0
 10
4.57136
 20
-3.012736
 30
0.0
 40
0.5
  0
LINE
  8
0
 10
5.23936
 20
-2.197736
 30
0.0
 11
5.23936
 21
-3.306736
 31
0.0
  0
LINE
  8
0
 10
3.90336
 20
-2.197736
 30
0.0
 11
3.90336
 21
-3.420736
 31
0.0
  0
ARC
  8
0
 10
4.13136
 20
-3.456736
 30
0.0
 40
0.05
 50
90.0
 51
180.0
  0
ARC
  8
0
 10
4.13136
 20
-3.898736
 30
0.0
 40
0.05
 50
180.0
 51
270.0
  0
ARC
  8
0
 10
4.45136
 20
-3.996592
 30
0.0
 40
0.45
 50
172.09927
 51
180.0
  0
LINE
  8
0
 10
4.018618
 20
-3.934736
 30
0.0
 11
4.018618
 21
-3.420736
 31
0.0
  0
LINE
  8
0
 10
3.83136
 20
-3.420736
 30
0.0
 11
3.83136
 21
-3.934736
 31
0.0
  0
LINE
  8
0
 10
3.78136
 20
-3.884736
 30
0.0
 11
3.83136
 21
-3.934736
 31
0.0
  0
LINE
  8
0
 10
3.78136
 20
-3.470736
 30
0.0
 11
3.83136
 21
-3.420736
 31
0.0
  0
LINE
  8
0
 10
3.78136
 20
-3.884736
 30
0.0
 11
3.78136
 21
-3.470736
 31
0.0
  0
LINE
  8
0
 10
4.08136
 20
-3.934736
 30
0.0
 11
3.83136
 21
-3.934736
 31
0.0
  0
LINE
  8
0
 10
4.08136
 20
-3.420736
 30
0.0
 11
3.83136
 21
-3.420736
 31
0.0
  0
LINE
  8
0
 10
4.08136
 20
-3.934736
 30
0.0
 11
4.08136
 21
-3.420736
 31
0.0
  0
ARC
  8
0
 10
5.094393
 20
-3.306736
 30
0.0
 40
0.1
 50
150.659418
 51
270.0
  0
ARC
  8
0
 10
4.142216
 20
-3.356736
 30
0.0
 40
0.05
 50
270.0
 51
38.715558
  0
CIRCLE
  8
0
 10
4.57136
 20
-3.012736
 30
0.0
 40
0.377369
  0
ARC
  8
0
 10
5.33936
 20
-3.306736
 30
0.0
 40
0.1
 50
180.0
 51
270.0
  0
ARC
  8
0
 10
4.463038
 20
-3.551963
 30
0.0
 40
0.05
 50
0.0
 51
78.64142
  0
LINE
  8
0
 10
4.13136
 20
-3.406736
 30
0.0
 11
4.142216
 21
-3.406736
 31
0.0
  0
ARC
  8
0
 10
4.463038
 20
-3.998736
 30
0.0
 40
0.05
 50
0.0
 51
90.0
  0
LINE
  8
0
 10
4.13136
 20
-3.948736
 30
0.0
 11
4.463038
 21
-3.948736
 31
0.0
  0
ARC
  8
0
 10
5.129214
 20
-3.958946
 30
0.0
 40
0.552261
 50
90.773445
 51
114.460527
  0
CIRCLE
  8
0
 10
4.57136
 20
-3.012736
 30
0.0
 40
0.3
  0
LINE
  8
0
 10
4.57136
 20
-3.119329
 30
0.0
 11
4.57136
 21
-2.906143
 31
0.0
  0
LINE
  8
0
 10
4.464767
 20
-3.012736
 30
0.0
 11
4.677953
 21
-3.012736
 31
0.0
  0
CIRCLE
  8
0
 10
4.57136
 20
-3.012736
 30
0.0
 40
0.222579
  0
ARC
  8
0
 10
5.253779
 20
-2.777736
 30
0.0
 40
0.005
 50
270.0
 51
0.0
  0
LINE
  8
0
 10
5.23936
 20
-2.782736
 30
0.0
 11
5.253779
 21
-2.782736
 31
0.0
  0
LINE
  8
0
 10
3.98336
 20
-2.117736
 30
0.0
 11
5.15936
 21
-2.117736
 31
0.0
  0
LINE
  8
0
 10
3.90336
 20
-2.197736
 30
0.0
 11
5.23936
 21
-2.197736
 31
0.0
  0
ARC
  8
0
 10
4.17086
 20
-2.008073
 30
0.0
 40
0.246337
 50
57.184167
 51
122.815833
  0
LINE
  8
0
 10
3.99936
 20
-2.117736
 30
0.0
 11
5.14336
 21
-2.117736
 31
0.0
  0
LINE
  8
0
 10
3.99936
 20
-2.002736
 30
0.0
 11
5.14336
 21
-2.002736
 31
0.0
  0
LINE
  8
0
 10
4.03736
 20
-1.801047
 30
0.0
 11
4.03736
 21
-2.002736
 31
0.0
  0
LINE
  8
0
 10
3.90336
 20
-2.197736
 30
0.0
 11
3.98336
 21
-2.117736
 31
0.0
  0
LINE
  8
0
 10
3.99936
 20
-2.002736
 30
0.0
 11
3.99936
 21
-2.117736
 31
0.0
  0
LINE
  8
0
 10
5.10536
 20
-1.801047
 30
0.0
 11
5.10536
 21
-2.002736
 31
0.0
  0
LINE
  8
0
 10
4.83836
 20
-1.801047
 30
0.0
 11
4.83836
 21
-2.002736
 31
0.0
  0
LINE
  8
0
 10
4.30436
 20
-1.801047
 30
0.0
 11
4.30436
 21
-2.002736
 31
0.0
  0
ARC
  8
0
 10
5.253779
 20
-2.317736
 30
0.0
 40
0.005
 50
0.0
 51
90.0
  0
LINE
  8
0
 10
5.23936
 20
-2.312736
 30
0.0
 11
5.253779
 21
-2.312736
 31
0.0
  0
LINE
  8
0
 10
5.23936
 20
-2.197736
 30
0.0
 11
5.15936
 21
-2.117736
 31
0.0
  0
LINE
  8
0
 10
5.14336
 20
-2.002736
 30
0.0
 11
5.14336
 21
-2.117736
 31
0.0
  0
ARC
  8
0
 10
4.97186
 20
-2.008073
 30
0.0
 40
0.246337
 50
57.184167
 51
122.815833
  0
LINE
  8
0
 10
4.17086
 20
-1.761736
 30
0.0
 11
4.97186
 21
-1.761736
 31
0.0
  0
ARC
  8
0
 10
4.57136
 20
-2.688117
 30
0.0
 40
0.926381
 50
73.248683
 51
106.751317
  0
ARC
  8
0
 10
8.57536
 20
-2.622504
 30
0.0
 40
0.04
 50
180.0
 51
271.300546
  0
LINE
  8
0
 10
7.35536
 20
-2.954916
 30
0.0
 11
7.35536
 21
-2.324436
 31
0.0
  0
LINE
  8
0
 10
8.13836
 20
-2.672436
 30
0.0
 11
6.614971
 21
-3.274934
 31
0.0
  0
LINE
  8
0
 10
6.58336
 20
-3.359436
 30
0.0
 11
6.58336
 21
-3.321429
 31
0.0
  0
LINE
  8
0
 10
6.53336
 20
-3.409436
 30
0.0
 11
6.05636
 21
-3.409436
 31
0.0
  0
ARC
  8
0
 10
5.9978
 20
-3.506736
 30
0.0
 40
0.1
 50
54.155118
 51
90.0
  0
ARC
  8
0
 10
6.53336
 20
-3.359436
 30
0.0
 40
0.05
 50
270.0
 51
360.0
  0
LINE
  8
0
 10
7.07136
 20
-3.409436
 30
0.0
 11
6.53336
 21
-3.409436
 31
0.0
  0
ARC
  8
0
 10
7.086034
 20
-3.662921
 30
0.0
 40
0.25391
 50
93.313083
 51
169.519732
  0
ARC
  8
0
 10
6.63336
 20
-3.321429
 30
0.0
 40
0.05
 50
111.578717
 51
180.0
  0
ARC
  8
0
 10
7.31536
 20
-2.954916
 30
0.0
 40
0.04
 50
291.578717
 51
0.0
  0
ARC
  8
0
 10
7.94536
 20
-4.164868
 30
0.0
 40
2.203433
 50
74.082849
 51
105.917151
  0
LINE
  8
0
 10
8.13836
 20
-2.324436
 30
0.0
 11
7.398862
 21
-2.324436
 31
0.0
  0
LINE
  8
0
 10
8.53536
 20
-2.324436
 30
0.0
 11
7.35536
 21
-2.324436
 31
0.0
  0
ARC
  8
0
 10
7.94536
 20
-3.312537
 30
0.0
 40
1.26662
 50
74.593375
 51
105.406625
  0
LINE
  8
0
 10
7.27236
 20
-2.091433
 30
0.0
 11
7.341075
 21
-2.045917
 31
0.0
  0
ARC
  8
0
 10
7.44061
 20
-2.379641
 30
0.0
 40
0.333724
 50
59.724427
 51
120.275573
  0
LINE
  8
0
 10
7.27236
 20
-2.324436
 30
0.0
 11
7.27236
 21
-2.091433
 31
0.0
  0
LINE
  8
0
 10
7.60886
 20
-2.324436
 30
0.0
 11
7.60886
 21
-2.091433
 31
0.0
  0
LINE
  8
0
 10
8.53536
 20
-2.622504
 30
0.0
 11
8.53536
 21
-2.324436
 31
0.0
  0
LINE
  8
0
 10
8.28186
 20
-2.324436
 30
0.0
 11
8.28186
 21
-2.091433
 31
0.0
  0
LINE
  8
0
 10
11.839041
 20
-2.618428
 30
0.0
 11
11.343603
 21
-2.629676
 31
0.0
  0
INSERT
  8
0
  2
M6-SEMS
 10
11.341691
 20
-3.308904
 30
0.0
 41
-1.0
  0
ARC
  8
0
 10
10.28386
 20
-4.366736
 30
0.0
 40
1.77
 50
37.856706
 51
52.143294
  0
LINE
  8
0
 10
11.370089
 20
-2.969236
 30
0.0
 11
9.197631
 21
-2.969236
 31
0.0
  0
INSERT
  8
0
  2
M6-SEMS
 10
9.226028
 20
-3.308904
 30
0.0
 41
-1.0
  0
ARC
  8
0
 10
10.28386
 20
-4.366736
 30
0.0
 40
1.77
 50
127.856706
 51
142.143294
  0
LINE
  8
0
 10
11.15636
 20
-2.969236
 30
0.0
 11
11.343603
 21
-2.629676
 31
0.0
  0
LINE
  8
0
 10
8.61836
 20
-2.324436
 30
0.0
 11
8.61836
 21
-2.091433
 31
0.0
  0
ARC
  8
0
 10
11.97036
 20
-2.643428
 30
0.0
 40
0.025
 50
0.0
 51
90.0
  0
ARC
  8
0
 10
12.29736
 20
-3.707737
 30
0.0
 40
0.03
 50
0.0
 51
90.0
  0
LINE
  8
0
 10
12.29736
 20
-3.677737
 30
0.0
 11
12.203781
 21
-3.677737
 31
0.0
  0
LINE
  8
0
 10
12.46356
 20
-3.933637
 30
0.0
 11
12.32736
 21
-3.933637
 31
0.0
  0
ARC
  8
0
 10
12.46356
 20
-4.033637
 30
0.0
 40
0.1
 50
0.0
 51
90.0
  0
LINE
  8
OBJ
  6
CONTINUOUS
 10
12.043168
 20
-3.068262
 30
0.0
 11
12.202684
 21
-3.068262
 31
0.0
  0
LINE
  8
OBJ
  6
CONTINUOUS
 10
12.043168
 20
-2.960694
 30
0.0
 11
12.202684
 21
-2.960694
 31
0.0
  0
LINE
  8
OBJ
  6
CONTINUOUS
 10
12.043168
 20
-2.740777
 30
0.0
 11
12.202684
 21
-2.740777
 31
0.0
  0
LINE
  8
OBJ
  6
CONTINUOUS
 10
12.043168
 20
-2.633209
 30
0.0
 11
12.202684
 21
-2.633209
 31
0.0
  0
LINE
  8
0
 10
11.99536
 20
-2.65054
 30
0.0
 11
11.99536
 21
-3.050932
 31
0.0
  0
LINE
  8
OBJ
 10
12.043168
 20
-2.633209
 30
0.0
 11
12.043168
 21
-3.068262
 31
0.0
  0
LINE
  8
OBJ
  6
CENTER2
 10
11.99536
 20
-3.050932
 30
0.0
 11
12.043168
 21
-3.050932
 31
0.0
  0
LINE
  8
OBJ
 10
11.99536
 20
-2.802343
 30
0.0
 11
12.043168
 21
-2.754535
 31
0.0
  0
LINE
  8
OBJ
  6
CENTER2
 10
11.99536
 20
-2.65054
 30
0.0
 11
12.043168
 21
-2.65054
 31
0.0
  0
LINE
  8
OBJ
 10
12.240376
 20
-2.658124
 30
0.0
 11
12.240376
 21
-2.740777
 31
0.0
  0
LINE
  8
OBJ
 10
12.240376
 20
-2.740777
 30
0.0
 11
12.240376
 21
-2.960694
 31
0.0
  0
LINE
  8
OBJ
 10
12.240376
 20
-2.960694
 30
0.0
 11
12.240376
 21
-3.043347
 31
0.0
  0
LINE
  8
OBJ
 10
12.240376
 20
-3.043347
 30
0.0
 11
12.217156
 21
-3.060501
 31
0.0
  0
LINE
  8
OBJ
 10
12.240376
 20
-2.658124
 30
0.0
 11
12.217156
 21
-2.640971
 31
0.0
  0
ARC
  8
OBJ
 10
12.183156
 20
-2.686993
 30
0.0
 40
0.057219
 50
289.954678
 51
70.045322
  0
ARC
  8
OBJ
 10
12.061138
 20
-2.850736
 30
0.0
 40
0.179237
 50
322.158498
 51
37.841502
  0
ARC
  8
OBJ
 10
12.183156
 20
-3.014478
 30
0.0
 40
0.057219
 50
289.954678
 51
70.045322
  0
LINE
  8
0
 10
12.11936
 20
-3.236736
 30
0.0
 11
11.99536
 21
-3.236736
 31
0.0
  0
LINE
  8
0
 10
11.839041
 20
-2.618428
 30
0.0
 11
11.97036
 21
-2.618428
 31
0.0
  0
LINE
  8
0
 10
11.83836
 20
-2.588436
 30
0.0
 11
11.97036
 21
-2.588436
 31
0.0
  0
ARC
  8
0
 10
11.97036
 20
-2.613436
 30
0.0
 40
0.025
 50
0.0
 51
90.0
  0
LINE
  8
0
 10
-9.681343
 20
7.459584
 30
0.0
 11
-8.381343
 21
7.459584
 31
0.0
  0
ARC
  8
0
 10
-3.472298
 20
7.961281
 30
0.0
 40
0.258495
 50
46.960852
 51
68.854035
  0
LINE
  8
0
 10
-3.556866
 20
7.979284
 30
0.0
 11
-3.220055
 21
7.979284
 31
0.0
  0
ARC
  8
OBJ
 10
-3.308601
 20
9.034081
 30
0.0
 40
0.057219
 50
19.954678
 51
160.045322
  0
LINE
  8
OBJ
 10
-3.279732
 20
9.0913
 30
0.0
 11
-3.362385
 21
9.0913
 31
0.0
  0
LINE
  8
OBJ
 10
-3.254817
 20
8.894092
 30
0.0
 11
-3.68987
 21
8.894092
 31
0.0
  0
LINE
  8
0
 10
-3.272147
 20
8.846284
 30
0.0
 11
-3.672539
 21
8.846284
 31
0.0
  0
LINE
  8
0
 10
-7.311343
 20
8.846284
 30
0.0
 11
-3.251343
 21
8.846284
 31
0.0
  0
LINE
  8
0
 10
-3.226343
 20
8.689284
 30
0.0
 11
-7.336343
 21
8.689284
 31
0.0
  0
ARC
  8
0
 10
-5.281343
 20
-16.917065
 30
0.0
 40
25.987349
 50
86.488991
 51
93.511009
  0
LINE
  8
0
 10
-3.68987
 20
8.970284
 30
0.0
 11
-6.872817
 21
8.970284
 31
0.0
  0
LINE
  8
0
 10
-7.336343
 20
8.689284
 30
0.0
 11
-3.779743
 21
8.689284
 31
0.0
  0
LINE
  8
0
 10
-7.336343
 20
8.689284
 30
0.0
 11
-3.779743
 21
8.689284
 31
0.0
  0
ARC
  8
0
 10
-7.311343
 20
8.821284
 30
0.0
 40
0.025
 50
90.0
 51
180.0
  0
LINE
  8
0
 10
-7.820343
 20
8.221013
 30
0.0
 11
-7.399662
 21
8.221013
 31
0.0
  0
LINE
  8
0
 10
-7.397322
 20
8.562284
 30
0.0
 11
-7.820343
 21
8.562284
 31
0.0
  0
LINE
  8
OBJ
 10
-8.222859
 20
8.332042
 30
0.0
 11
-8.222859
 21
8.112125
 31
0.0
  0
ARC
  8
OBJ
 10
-8.043622
 20
8.222084
 30
0.0
 40
0.179237
 50
142.158498
 51
217.841502
  0
LINE
  8
0
 10
-7.977843
 20
8.42228
 30
0.0
 11
-7.977843
 21
8.021888
 31
0.0
  0
LINE
  8
OBJ
 10
-8.025651
 20
8.43961
 30
0.0
 11
-8.025651
 21
8.004557
 31
0.0
  0
LINE
  8
OBJ
 10
-8.222859
 20
8.112125
 30
0.0
 11
-8.222859
 21
8.029472
 31
0.0
  0
ARC
  8
OBJ
 10
-8.16564
 20
8.058341
 30
0.0
 40
0.057219
 50
109.954678
 51
250.045322
  0
LINE
  8
OBJ
 10
-8.222859
 20
8.029472
 30
0.0
 11
-8.19964
 21
8.012319
 31
0.0
  0
LINE
  8
OBJ
  6
CENTER2
 10
-7.977843
 20
8.021888
 30
0.0
 11
-8.025651
 21
8.021888
 31
0.0
  0
LINE
  8
OBJ
  6
CONTINUOUS
 10
-8.025651
 20
8.004557
 30
0.0
 11
-8.185168
 21
8.004557
 31
0.0
  0
LINE
  8
OBJ
  6
CONTINUOUS
 10
-8.025651
 20
8.112125
 30
0.0
 11
-8.185168
 21
8.112125
 31
0.0
  0
ARC
  8
TEXT
 62
     7
 10
-8.055943
 20
7.911684
 30
0.0
 40
0.04
 50
90.0
 51
180.0
  0
ARC
  8
TEXT
 62
     7
 10
-8.017843
 20
7.991684
 30
0.0
 40
0.04
 50
270.0
 51
0.0
  0
LINE
  8
TEXT
 62
     7
 10
-8.017843
 20
7.951684
 30
0.0
 11
-8.055943
 21
7.951684
 31
0.0
  0
LINE
  8
TEXT
 62
     7
 10
-8.017843
 20
7.951684
 30
0.0
 11
-8.055943
 21
7.951684
 31
0.0
  0
LINE
  8
0
 10
-8.381343
 20
7.625784
 30
0.0
 11
-8.095943
 21
7.625784
 31
0.0
  0
ARC
  8
TEXT
 62
     7
 10
-7.937843
 20
8.181013
 30
0.0
 40
0.04
 50
90.0
 51
180.0
  0
LINE
  8
TEXT
 62
     7
 10
-7.820343
 20
8.221013
 30
0.0
 11
-7.937843
 21
8.221013
 31
0.0
  0
ARC
  8
TEXT
 62
     7
 10
-7.937843
 20
8.522284
 30
0.0
 40
0.04
 50
90.0
 51
180.0
  0
LINE
  8
TEXT
 62
     7
 10
-7.820343
 20
8.562284
 30
0.0
 11
-7.937843
 21
8.562284
 31
0.0
  0
LINE
  8
OBJ
 10
-8.222859
 20
8.414695
 30
0.0
 11
-8.19964
 21
8.431849
 31
0.0
  0
LINE
  8
OBJ
  6
CENTER2
 10
-7.977843
 20
8.42228
 30
0.0
 11
-8.025651
 21
8.42228
 31
0.0
  0
LINE
  8
OBJ
  6
CONTINUOUS
 10
-8.025651
 20
8.43961
 30
0.0
 11
-8.185168
 21
8.43961
 31
0.0
  0
LINE
  8
OBJ
 10
-7.977843
 20
8.270476
 30
0.0
 11
-8.025651
 21
8.318284
 31
0.0
  0
LINE
  8
OBJ
  6
CONTINUOUS
 10
-8.025651
 20
8.332042
 30
0.0
 11
-8.185168
 21
8.332042
 31
0.0
  0
LINE
  8
OBJ
 10
-8.222859
 20
8.414695
 30
0.0
 11
-8.222859
 21
8.332042
 31
0.0
  0
ARC
  8
OBJ
 10
-8.16564
 20
8.385826
 30
0.0
 40
0.057219
 50
109.954678
 51
250.045322
  0
ARC
  8
0
 10
-7.100619
 20
7.972237
 30
0.0
 40
0.243505
 50
133.039148
 51
156.078806
  0
LINE
  8
0
 10
-7.005821
 20
7.979284
 30
0.0
 11
-6.881294
 21
8.129851
 31
0.0
  0
ARC
  8
0
 10
49.428913
 20
7.831492
 30
0.0
 40
56.771737
 50
179.134257
 51
179.850844
  0
LINE
  8
0
 10
-7.005821
 20
7.979284
 30
0.0
 11
-7.342632
 21
7.979284
 31
0.0
  0
ARC
  8
0
 10
-7.116505
 20
7.979284
 30
0.0
 40
0.226127
 50
156.078806
 51
180.0
  0
ARC
  8
0
 10
-7.083764
 20
7.944153
 30
0.0
 40
0.27686
 50
68.854035
 51
90.0
  0
ARC
  8
0
 10
-7.090389
 20
7.961281
 30
0.0
 40
0.258495
 50
111.145965
 51
133.039148
  0
ARC
  8
0
 10
-7.083764
 20
7.944153
 30
0.0
 40
0.27686
 50
90.0
 51
111.145965
  0
LINE
  8
0
 10
-7.336343
 20
8.689284
 30
0.0
 11
-7.336343
 21
8.821284
 31
0.0
  0
ARC
  8
0
 10
-7.399662
 20
8.281013
 30
0.0
 40
0.06
 50
270.0
 51
347.221371
  0
ARC
  8
0
 10
-7.397322
 20
8.622284
 30
0.0
 40
0.06
 50
270.0
 51
359.202725
  0
ARC
  8
0
 10
-7.077139
 20
7.961281
 30
0.0
 40
0.258495
 50
46.960852
 51
68.854035
  0
ARC
  8
0
 10
-7.066908
 20
7.972237
 30
0.0
 40
0.243505
 50
40.33601
 51
46.960852
  0
ARC
  8
0
 10
49.479653
 20
7.831492
 30
0.0
 40
56.361737
 50
179.127959
 51
179.696695
  0
ARC
  8
OBJ
 10
-7.090343
 20
8.912062
 30
0.0
 40
0.179237
 50
52.158498
 51
127.841502
  0
LINE
  8
OBJ
 10
-7.200302
 20
9.0913
 30
0.0
 11
-6.980385
 21
9.0913
 31
0.0
  0
LINE
  8
OBJ
 10
-7.30787
 20
8.894092
 30
0.0
 11
-6.872817
 21
8.894092
 31
0.0
  0
LINE
  8
0
 10
-7.290539
 20
8.846284
 30
0.0
 11
-6.890147
 21
8.846284
 31
0.0
  0
ARC
  8
OBJ
 10
-7.254086
 20
9.034081
 30
0.0
 40
0.057219
 50
19.954678
 51
160.045322
  0
LINE
  8
OBJ
 10
-7.282955
 20
9.0913
 30
0.0
 11
-7.300109
 21
9.06808
 31
0.0
  0
LINE
  8
OBJ
 10
-7.282955
 20
9.0913
 30
0.0
 11
-7.200302
 21
9.0913
 31
0.0
  0
LINE
  8
OBJ
  6
CENTER2
 10
-7.290539
 20
8.846284
 30
0.0
 11
-7.290539
 21
8.894092
 31
0.0
  0
LINE
  8
OBJ
 10
-7.138736
 20
8.846284
 30
0.0
 11
-7.186544
 21
8.894092
 31
0.0
  0
LINE
  8
OBJ
  6
CONTINUOUS
 10
-7.30787
 20
8.894092
 30
0.0
 11
-7.30787
 21
9.053608
 31
0.0
  0
LINE
  8
OBJ
  6
CONTINUOUS
 10
-7.200302
 20
8.894092
 30
0.0
 11
-7.200302
 21
9.053608
 31
0.0
  0
LINE
  8
OBJ
  6
CONTINUOUS
 10
-6.980385
 20
8.894092
 30
0.0
 11
-6.980385
 21
9.053608
 31
0.0
  0
LINE
  8
0
 10
-6.688043
 20
8.970284
 30
0.0
 11
-6.688043
 21
8.846284
 31
0.0
  0
LINE
  8
OBJ
 10
-6.897732
 20
9.0913
 30
0.0
 11
-6.880578
 21
9.06808
 31
0.0
  0
LINE
  8
OBJ
  6
CENTER2
 10
-6.890147
 20
8.846284
 30
0.0
 11
-6.890147
 21
8.894092
 31
0.0
  0
LINE
  8
OBJ
  6
CONTINUOUS
 10
-6.872817
 20
8.894092
 30
0.0
 11
-6.872817
 21
9.053608
 31
0.0
  0
ARC
  8
OBJ
 10
-6.926601
 20
9.034081
 30
0.0
 40
0.057219
 50
19.954678
 51
160.045322
  0
LINE
  8
OBJ
 10
-6.980385
 20
9.0913
 30
0.0
 11
-6.897732
 21
9.0913
 31
0.0
  0
TEXT
  8
0
 10
-5.952926
 20
8.017435
 30
0.0
 40
0.2
  1
3CP1120
  7
ROMAND
  0
LINE
  8
0
 10
-5.97837
 20
7.914297
 30
0.0
 11
-4.57837
 21
7.914297
 31
0.0
  0
LINE
  8
0
 10
-4.57837
 20
8.314297
 30
0.0
 11
-5.97837
 21
8.314297
 31
0.0
  0
LINE
  8
0
 10
-4.57837
 20
8.364297
 30
0.0
 11
-5.97837
 21
8.364297
 31
0.0
  0
LINE
  8
0
 10
-5.97837
 20
7.864297
 30
0.0
 11
-4.57837
 21
7.864297
 31
0.0
  0
LINE
  8
0
 10
-6.02837
 20
8.264297
 30
0.0
 11
-6.02837
 21
7.964297
 31
0.0
  0
LINE
  8
0
 10
-6.07837
 20
8.264297
 30
0.0
 11
-6.07837
 21
7.964297
 31
0.0
  0
ARC
  8
0
 10
-5.97837
 20
7.964297
 30
0.0
 40
0.05
 50
180.0
 51
270.0
  0
ARC
  8
0
 10
-5.97837
 20
7.964297
 30
0.0
 40
0.1
 50
180.0
 51
270.0
  0
ARC
  8
0
 10
-5.97837
 20
8.264297
 30
0.0
 40
0.05
 50
90.0
 51
180.0
  0
ARC
  8
0
 10
-5.97837
 20
8.264297
 30
0.0
 40
0.1
 50
90.0
 51
180.0
  0
LINE
  8
0
 10
-4.52837
 20
7.964297
 30
0.0
 11
-4.52837
 21
8.264297
 31
0.0
  0
LINE
  8
0
 10
-4.47837
 20
7.964297
 30
0.0
 11
-4.47837
 21
8.264297
 31
0.0
  0
LINE
  8
0
 10
-3.556866
 20
7.979284
 30
0.0
 11
-3.681393
 21
8.129851
 31
0.0
  0
ARC
  8
0
 10
-4.57837
 20
7.964297
 30
0.0
 40
0.05
 50
270.0
 51
0.0
  0
ARC
  8
0
 10
-4.57837
 20
7.964297
 30
0.0
 40
0.1
 50
270.0
 51
0.0
  0
ARC
  8
0
 10
-4.57837
 20
8.264297
 30
0.0
 40
0.05
 50
0.0
 51
90.0
  0
ARC
  8
0
 10
-4.57837
 20
8.264297
 30
0.0
 40
0.1
 50
0.0
 51
90.0
  0
ARC
  8
0
 10
-3.478923
 20
7.944153
 30
0.0
 40
0.27686
 50
90.0
 51
111.145965
  0
ARC
  8
0
 10
-3.485548
 20
7.961281
 30
0.0
 40
0.258495
 50
111.145965
 51
133.039148
  0
ARC
  8
0
 10
-3.495778
 20
7.972237
 30
0.0
 40
0.243505
 50
133.039148
 51
139.66399
  0
ARC
  8
0
 10
-3.478923
 20
7.944153
 30
0.0
 40
0.27686
 50
68.854035
 51
90.0
  0
ARC
  8
0
 10
-60.04234
 20
7.831492
 30
0.0
 40
56.361737
 50
0.303305
 51
0.872041
  0
LINE
  8
0
 10
-5.940342
 20
9.178284
 30
0.0
 11
-4.622345
 21
9.178284
 31
0.0
  0
LINE
  8
0
 10
-5.614443
 20
9.414484
 30
0.0
 11
-4.948244
 21
9.414484
 31
0.0
  0
ARC
  8
0
 10
-5.940342
 20
9.148284
 30
0.0
 40
0.03
 50
90.0
 51
180.0
  0
LINE
  8
0
 10
-5.970342
 20
9.148284
 30
0.0
 11
-5.970342
 21
9.061149
 31
0.0
  0
LINE
  8
0
 10
-5.714443
 20
9.314484
 30
0.0
 11
-5.714443
 21
9.178284
 31
0.0
  0
ARC
  8
0
 10
-5.614443
 20
9.314484
 30
0.0
 40
0.1
 50
90.0
 51
180.0
  0
ARC
  8
0
 10
-5.369343
 20
9.1038
 30
0.0
 40
0.03
 50
180.0
 51
270.0
  0
LINE
  8
0
 10
-5.399343
 20
9.178284
 30
0.0
 11
-5.399343
 21
9.1038
 31
0.0
  0
ARC
  8
0
 10
-5.193344
 20
9.1038
 30
0.0
 40
0.03
 50
270.0
 51
0.0
  0
LINE
  8
0
 10
-5.163344
 20
9.178284
 30
0.0
 11
-5.163344
 21
9.1038
 31
0.0
  0
LINE
  8
0
 10
-5.369343
 20
9.0738
 30
0.0
 11
-5.193344
 21
9.0738
 31
0.0
  0
LINE
  8
0
 10
-4.848244
 20
9.314484
 30
0.0
 11
-4.848244
 21
9.178284
 31
0.0
  0
ARC
  8
0
 10
-4.948244
 20
9.314484
 30
0.0
 40
0.1
 50
0.0
 51
90.0
  0
ARC
  8
0
 10
-4.622345
 20
9.148284
 30
0.0
 40
0.03
 50
0.0
 51
90.0
  0
LINE
  8
0
 10
-4.592345
 20
9.148284
 30
0.0
 11
-4.592345
 21
9.061149
 31
0.0
  0
LINE
  8
0
 10
-3.874643
 20
8.970284
 30
0.0
 11
-3.874643
 21
8.846284
 31
0.0
  0
LINE
  8
OBJ
 10
-3.664955
 20
9.0913
 30
0.0
 11
-3.682109
 21
9.06808
 31
0.0
  0
LINE
  8
OBJ
  6
CONTINUOUS
 10
-3.68987
 20
8.894092
 30
0.0
 11
-3.68987
 21
9.053608
 31
0.0
  0
LINE
  8
OBJ
  6
CENTER2
 10
-3.672539
 20
8.846284
 30
0.0
 11
-3.672539
 21
8.894092
 31
0.0
  0
ARC
  8
OBJ
 10
-3.472343
 20
8.912062
 30
0.0
 40
0.179237
 50
52.158498
 51
127.841502
  0
LINE
  8
OBJ
 10
-3.362385
 20
9.0913
 30
0.0
 11
-3.582302
 21
9.0913
 31
0.0
  0
LINE
  8
OBJ
  6
CONTINUOUS
 10
-3.362385
 20
8.894092
 30
0.0
 11
-3.362385
 21
9.053608
 31
0.0
  0
LINE
  8
OBJ
  6
CONTINUOUS
 10
-3.582302
 20
8.894092
 30
0.0
 11
-3.582302
 21
9.053608
 31
0.0
  0
LINE
  8
OBJ
 10
-3.423951
 20
8.846284
 30
0.0
 11
-3.376143
 21
8.894092
 31
0.0
  0
ARC
  8
OBJ
 10
-3.636086
 20
9.034081
 30
0.0
 40
0.057219
 50
19.954678
 51
160.045322
  0
LINE
  8
OBJ
 10
-3.582302
 20
9.0913
 30
0.0
 11
-3.664955
 21
9.0913
 31
0.0
  0
ARC
  8
0
 10
-3.251343
 20
8.821284
 30
0.0
 40
0.025
 50
0.0
 51
90.0
  0
LINE
  8
0
 10
-0.881343
 20
7.459584
 30
0.0
 11
-2.181343
 21
7.459584
 31
0.0
  0
ARC
  8
0
 10
-3.462067
 20
7.972237
 30
0.0
 40
0.243505
 50
23.921194
 51
46.960852
  0
ARC
  8
0
 10
-59.9916
 20
7.831492
 30
0.0
 40
56.771737
 50
0.149156
 51
0.865743
  0
LINE
  8
OBJ
 10
-2.339827
 20
8.332042
 30
0.0
 11
-2.339827
 21
8.112125
 31
0.0
  0
ARC
  8
OBJ
 10
-2.519065
 20
8.222084
 30
0.0
 40
0.179237
 50
322.158498
 51
37.841502
  0
LINE
  8
0
 10
-2.584843
 20
8.42228
 30
0.0
 11
-2.584843
 21
8.021888
 31
0.0
  0
LINE
  8
OBJ
 10
-2.537035
 20
8.43961
 30
0.0
 11
-2.537035
 21
8.004557
 31
0.0
  0
LINE
  8
OBJ
  6
CENTER2
 10
-2.584843
 20
8.021888
 30
0.0
 11
-2.537035
 21
8.021888
 31
0.0
  0
ARC
  8
TEXT
 62
     7
 10
-2.544843
 20
7.991684
 30
0.0
 40
0.04
 50
180.0
 51
270.0
  0
ARC
  8
0
 10
-3.446182
 20
7.979284
 30
0.0
 40
0.226127
 50
0.0
 51
23.921194
  0
LINE
  8
0
 10
-2.181343
 20
7.625784
 30
0.0
 11
-2.466743
 21
7.625784
 31
0.0
  0
LINE
  8
OBJ
 10
-2.339827
 20
8.112125
 30
0.0
 11
-2.339827
 21
8.029472
 31
0.0
  0
ARC
  8
OBJ
 10
-2.397047
 20
8.058341
 30
0.0
 40
0.057219
 50
289.954678
 51
70.045322
  0
LINE
  8
OBJ
 10
-2.339827
 20
8.029472
 30
0.0
 11
-2.363047
 21
8.012319
 31
0.0
  0
LINE
  8
OBJ
  6
CONTINUOUS
 10
-2.537035
 20
8.004557
 30
0.0
 11
-2.377519
 21
8.004557
 31
0.0
  0
LINE
  8
OBJ
  6
CONTINUOUS
 10
-2.537035
 20
8.112125
 30
0.0
 11
-2.377519
 21
8.112125
 31
0.0
  0
ARC
  8
TEXT
 62
     7
 10
-2.506743
 20
7.911684
 30
0.0
 40
0.04
 50
0.0
 51
90.0
  0
LINE
  8
TEXT
 62
     7
 10
-2.544843
 20
7.951684
 30
0.0
 11
-2.506743
 21
7.951684
 31
0.0
  0
LINE
  8
TEXT
 62
     7
 10
-2.544843
 20
7.951684
 30
0.0
 11
-2.506743
 21
7.951684
 31
0.0
  0
ARC
  8
TEXT
 62
     7
 10
-2.624843
 20
8.181013
 30
0.0
 40
0.04
 50
0.0
 51
90.0
  0
LINE
  8
OBJ
  6
CENTER2
 10
-2.584843
 20
8.42228
 30
0.0
 11
-2.537035
 21
8.42228
 31
0.0
  0
LINE
  8
OBJ
 10
-2.584843
 20
8.270476
 30
0.0
 11
-2.537035
 21
8.318284
 31
0.0
  0
ARC
  8
TEXT
 62
     7
 10
-2.624843
 20
8.522284
 30
0.0
 40
0.04
 50
0.0
 51
90.0
  0
ARC
  8
0
 10
-3.165365
 20
8.622284
 30
0.0
 40
0.06
 50
180.797275
 51
270.0
  0
ARC
  8
0
 10
-3.163025
 20
8.281013
 30
0.0
 40
0.06
 50
192.778629
 51
270.0
  0
LINE
  8
0
 10
-3.165365
 20
8.562284
 30
0.0
 11
-2.742343
 21
8.562284
 31
0.0
  0
LINE
  8
0
 10
-2.742343
 20
8.221013
 30
0.0
 11
-3.163025
 21
8.221013
 31
0.0
  0
LINE
  8
0
 10
-3.226343
 20
8.689284
 30
0.0
 11
-3.226343
 21
8.821284
 31
0.0
  0
LINE
  8
TEXT
 62
     7
 10
-2.742343
 20
8.221013
 30
0.0
 11
-2.624843
 21
8.221013
 31
0.0
  0
LINE
  8
TEXT
 62
     7
 10
-2.742343
 20
8.562284
 30
0.0
 11
-2.624843
 21
8.562284
 31
0.0
  0
LINE
  8
OBJ
 10
-2.339827
 20
8.414695
 30
0.0
 11
-2.363047
 21
8.431849
 31
0.0
  0
LINE
  8
OBJ
  6
CONTINUOUS
 10
-2.537035
 20
8.43961
 30
0.0
 11
-2.377519
 21
8.43961
 31
0.0
  0
LINE
  8
OBJ
  6
CONTINUOUS
 10
-2.537035
 20
8.332042
 30
0.0
 11
-2.377519
 21
8.332042
 31
0.0
  0
LINE
  8
OBJ
 10
-2.339827
 20
8.414695
 30
0.0
 11
-2.339827
 21
8.332042
 31
0.0
  0
ARC
  8
OBJ
 10
-2.397047
 20
8.385826
 30
0.0
 40
0.057219
 50
289.954678
 51
70.045322
  0
LINE
  8
OBJ
 10
-3.279732
 20
9.0913
 30
0.0
 11
-3.262578
 21
9.06808
 31
0.0
  0
LINE
  8
OBJ
  6
CONTINUOUS
 10
-3.254817
 20
8.894092
 30
0.0
 11
-3.254817
 21
9.053608
 31
0.0
  0
LINE
  8
OBJ
  6
CENTER2
 10
-3.272147
 20
8.846284
 30
0.0
 11
-3.272147
 21
8.894092
 31
0.0
  0
ENDSEC
  0
EOF
