  0
SECTION
  2
HEADER
  9
$ACADVER
  1
AC1009
  9
$INSBASE
 10
0.0
 20
0.0
 30
0.0
  9
$EXTMIN
 10
-7.071068
 20
0.099093
 30
0.0
  9
$EXTMAX
 10
55.102793
 20
53.399427
 30
0.0
  9
$LIMMIN
 10
0.0
 20
0.0
  9
$LIMMAX
 10
12.0
 20
9.0
  9
$ORTHOMODE
 70
     0
  9
$REGENMODE
 70
     1
  9
$FILLMODE
 70
     1
  9
$QTEXTMODE
 70
     0
  9
$MIRRTEXT
 70
     1
  9
$DRAGMODE
 70
     2
  9
$LTSCALE
 40
1.0
  9
$OSMODE
 70
     0
  9
$ATTMODE
 70
     1
  9
$TEXTSIZE
 40
1.0
  9
$TRACEWID
 40
0.05
  9
$TEXTSTYLE
  7
ROMAND
  9
$CLAYER
  8
0
  9
$CELTYPE
  6
BYLAYER
  9
$CECOLOR
 62
   256
  9
$DIMSCALE
 40
1.0
  9
$DIMASZ
 40
1.0
  9
$DIMEXO
 40
0.38
  9
$DIMDLI
 40
2.0
  9
$DIMRND
 40
0.0
  9
$DIMDLE
 40
0.0
  9
$DIMEXE
 40
1.0
  9
$DIMTP
 40
0.0
  9
$DIMTM
 40
0.0
  9
$DIMTXT
 40
1.0
  9
$DIMCEN
 40
0.5
  9
$DIMTSZ
 40
0.0
  9
$DIMTOL
 70
     0
  9
$DIMLIM
 70
     0
  9
$DIMTIH
 70
     1
  9
$DIMTOH
 70
     1
  9
$DIMSE1
 70
     0
  9
$DIMSE2
 70
     0
  9
$DIMTAD
 70
     0
  9
$DIMZIN
 70
     0
  9
$DIMBLK
  1

  9
$DIMASO
 70
     1
  9
$DIMSHO
 70
     1
  9
$DIMPOST
  1

  9
$DIMAPOST
  1

  9
$DIMALT
 70
     0
  9
$DIMALTD
 70
     2
  9
$DIMALTF
 40
25.4
  9
$DIMLFAC
 40
1.0
  9
$DIMTOFL
 70
     0
  9
$DIMTVP
 40
0.0
  9
$DIMTIX
 70
     0
  9
$DIMSOXD
 70
     0
  9
$DIMSAH
 70
     0
  9
$DIMBLK1
  1

  9
$DIMBLK2
  1

  9
$DIMSTYLE
  2
*UNNAMED
  9
$DIMCLRD
 70
     0
  9
$DIMCLRE
 70
     0
  9
$DIMCLRT
 70
     0
  9
$DIMTFAC
 40
1.0
  9
$DIMGAP
 40
0.5
  9
$LUNITS
 70
     2
  9
$LUPREC
 70
     4
  9
$SKETCHINC
 40
0.1
  9
$FILLETRAD
 40
0.06
  9
$AUNITS
 70
     0
  9
$AUPREC
 70
     0
  9
$MENU
  1
acad
  9
$ELEVATION
 40
0.0
  9
$PELEVATION
 40
0.0
  9
$THICKNESS
 40
0.0
  9
$LIMCHECK
 70
     0
  9
$BLIPMODE
 70
     1
  9
$CHAMFERA
 40
0.03
  9
$CHAMFERB
 40
0.03
  9
$SKPOLY
 70
     0
  9
$TDCREATE
 40
2451439.363707176
  9
$TDUPDATE
 40
2451439.364218865
  9
$TDINDWG
 40
0.0002466435
  9
$TDUSRTIMER
 40
0.0002466435
  9
$USRTIMER
 70
     1
  9
$ANGBASE
 50
0.0
  9
$ANGDIR
 70
     0
  9
$PDMODE
 70
     0
  9
$PDSIZE
 40
0.0
  9
$PLINEWID
 40
0.0
  9
$COORDS
 70
     0
  9
$SPLFRAME
 70
     0
  9
$SPLINETYPE
 70
     6
  9
$SPLINESEGS
 70
     8
  9
$ATTDIA
 70
     0
  9
$ATTREQ
 70
     1
  9
$HANDLING
 70
     0
  9
$HANDSEED
  5
0
  9
$SURFTAB1
 70
     6
  9
$SURFTAB2
 70
     6
  9
$SURFTYPE
 70
     6
  9
$SURFU
 70
     6
  9
$SURFV
 70
     6
  9
$UCSNAME
  2

  9
$UCSORG
 10
0.0
 20
0.0
 30
0.0
  9
$UCSXDIR
 10
1.0
 20
0.0
 30
0.0
  9
$UCSYDIR
 10
0.0
 20
1.0
 30
0.0
  9
$PUCSNAME
  2

  9
$PUCSORG
 10
0.0
 20
0.0
 30
0.0
  9
$PUCSXDIR
 10
1.0
 20
0.0
 30
0.0
  9
$PUCSYDIR
 10
0.0
 20
1.0
 30
0.0
  9
$USERI1
 70
     0
  9
$USERI2
 70
     0
  9
$USERI3
 70
     0
  9
$USERI4
 70
     0
  9
$USERI5
 70
     0
  9
$USERR1
 40
0.0
  9
$USERR2
 40
0.0
  9
$USERR3
 40
0.0
  9
$USERR4
 40
0.0
  9
$USERR5
 40
0.0
  9
$WORLDVIEW
 70
     1
  9
$SHADEDGE
 70
     3
  9
$SHADEDIF
 70
    70
  9
$TILEMODE
 70
     1
  9
$MAXACTVP
 70
    16
  9
$PINSBASE
 10
0.0
 20
0.0
 30
1.076194E+26
  9
$PLIMCHECK
 70
     0
  9
$PEXTMIN
 10
1.000000E+20
 20
1.000000E+20
 30
1.000000E+20
  9
$PEXTMAX
 10
-1.000000E+20
 20
-1.000000E+20
 30
-1.000000E+20
  9
$PLIMMIN
 10
0.0
 20
0.0
  9
$PLIMMAX
 10
12.0
 20
9.0
  9
$UNITMODE
 70
     0
  9
$VISRETAIN
 70
     0
  9
$PLINEGEN
 70
     0
  9
$PSLTSCALE
 70
     1
  9
$TREEDEPTH
 70
  3020
  9
$DWGCODEPAGE
  3
iso8859-1
  0
ENDSEC
  0
SECTION
  2
TABLES
  0
TABLE
  2
VPORT
 70
     1
  0
VPORT
  2
*ACTIVE
 70
     0
 10
0.0
 20
0.0
 11
1.0
 21
1.0
 12
13.983527
 22
9.518302
 13
0.0
 23
0.0
 14
1.0
 24
1.0
 15
0.0
 25
0.0
 16
0.0
 26
0.0
 36
1.0
 17
0.0
 27
0.0
 37
0.0
 40
21.417116
 41
1.379728
 42
50.0
 43
0.0
 44
0.0
 50
0.0
 51
0.0
 71
     0
 72
   100
 73
     1
 74
     0
 75
     0
 76
     0
 77
     0
 78
     0
  0
ENDTAB
  0
TABLE
  2
LTYPE
 70
     2
  0
LTYPE
  2
CONTINUOUS
 70
    64
  3
Solid line
 72
    65
 73
     0
 40
0.0
  0
LTYPE
  2
CENTER2
 70
    64
  3
CENTER2 _._._._._
 72
    65
 73
     4
 40
0.15
 49
0.1
 49
-0.025
 49
0.0
 49
-0.025
  0
ENDTAB
  0
TABLE
  2
LAYER
 70
     2
  0
LAYER
  2
0
 70
    64
 62
     7
  6
CONTINUOUS
  0
LAYER
  2
OBJ
 70
    64
 62
     7
  6
CONTINUOUS
  0
ENDTAB
  0
TABLE
  2
STYLE
 70
     2
  0
STYLE
  2
STANDARD
 70
     0
 40
0.0
 41
1.0
 50
0.0
 71
     0
 42
0.2
  3
txt
  4

  0
STYLE
  2
ROMAND
 70
    64
 40
1.0
 41
1.0
 50
0.0
 71
     0
 42
1.0
  3
romand
  4

  0
ENDTAB
  0
TABLE
  2
VIEW
 70
     0
  0
ENDTAB
  0
TABLE
  2
UCS
 70
     0
  0
ENDTAB
  0
TABLE
  2
APPID
 70
     1
  0
APPID
  2
ACAD
 70
    64
  0
ENDTAB
  0
TABLE
  2
DIMSTYLE
 70
     0
  0
ENDTAB
  0
ENDSEC
  0
SECTION
  2
BLOCKS
  0
ENDSEC
  0
SECTION
  2
ENTITIES
  0
LINE
  8
0
 10
19.268285
 20
1.551066
 30
0.0
 11
19.641429
 21
1.551066
 31
0.0
  0
ARC
  8
0
 10
19.502568
 20
2.811066
 30
0.0
 40
0.37
 50
47.981124
 51
334.515631
  0
CIRCLE
  8
0
 10
19.502568
 20
2.811066
 30
0.0
 40
0.258193
  0
POLYLINE
  8
0
 66
     1
 10
0.0
 20
0.0
 30
0.0
 70
     1
  0
VERTEX
  8
0
 10
19.231935
 20
2.967316
 30
0.0
  0
VERTEX
  8
0
 10
19.502568
 20
3.123566
 30
0.0
  0
VERTEX
  8
0
 10
19.773201
 20
2.967316
 30
0.0
  0
VERTEX
  8
0
 10
19.773201
 20
2.654816
 30
0.0
  0
VERTEX
  8
0
 10
19.502568
 20
2.498566
 30
0.0
  0
VERTEX
  8
0
 10
19.231935
 20
2.654816
 30
0.0
  0
SEQEND
  8
0
  0
LINE
  8
0
 10
18.896781
 20
4.861066
 30
0.0
 11
20.346354
 21
4.861066
 31
0.0
  0
ARC
  8
0
 10
19.502568
 20
4.543066
 30
0.0
 40
0.37
 50
71.238978
 51
284.717541
  0
POLYLINE
  8
0
 66
     1
 10
0.0
 20
0.0
 30
0.0
  0
VERTEX
  8
0
 10
19.596568
 20
4.284837
 30
0.0
  0
VERTEX
  8
0
 10
19.502568
 20
4.230566
 30
0.0
  0
VERTEX
  8
0
 10
19.231935
 20
4.386816
 30
0.0
  0
VERTEX
  8
0
 10
19.231935
 20
4.699316
 30
0.0
  0
SEQEND
  8
0
  0
POLYLINE
  8
0
 66
     1
 10
0.0
 20
0.0
 30
0.0
  0
VERTEX
  8
0
 10
19.231935
 20
4.699316
 30
0.0
  0
VERTEX
  8
0
 10
19.502568
 20
4.855566
 30
0.0
  0
VERTEX
  8
0
 10
19.621568
 20
4.786862
 30
0.0
  0
SEQEND
  8
0
  0
ARC
  8
0
 10
19.502568
 20
4.543066
 30
0.0
 40
0.258193
 50
62.555078
 51
291.350292
  0
LINE
  8
0
 10
16.409657
 20
3.677066
 30
0.0
 11
27.713478
 21
3.677066
 31
0.0
  0
LINE
  8
0
 10
19.268285
 20
5.803066
 30
0.0
 11
19.641429
 21
5.803066
 31
0.0
  0
LINE
  8
0
 10
3.843203
 20
7.251839
 30
0.0
 11
3.843203
 21
18.55566
 31
0.0
  0
ARC
  8
0
 10
19.090568
 20
1.611066
 30
0.0
 40
0.06
 50
180.0
 51
270.0
  0
LINE
  8
0
 10
19.266568
 20
2.526103
 30
0.0
 11
19.266568
 21
1.551066
 31
0.0
  0
LINE
  8
0
 10
1.363203
 20
5.998066
 30
0.0
 11
1.363203
 21
1.356066
 31
0.0
  0
ARC
  8
OBJ
 10
0.961565
 20
1.520262
 30
0.0
 40
0.107545
 50
109.954678
 51
250.045322
  0
LINE
  8
OBJ
 10
0.85402
 20
1.466003
 30
0.0
 11
0.85402
 21
2.190036
 31
0.0
  0
LINE
  8
OBJ
 10
1.118187
 20
1.759025
 30
0.0
 11
1.118187
 21
1.539108
 31
0.0
  0
LINE
  8
OBJ
 10
1.315395
 20
1.866593
 30
0.0
 11
1.315395
 21
1.43154
 31
0.0
  0
LINE
  8
0
 10
1.363203
 20
1.849262
 30
0.0
 11
1.363203
 21
1.44887
 31
0.0
  0
ARC
  8
OBJ
 10
1.297424
 20
1.649066
 30
0.0
 40
0.179237
 50
142.158498
 51
217.841502
  0
LINE
  8
0
 10
1.083203
 20
2.317066
 30
0.0
 11
1.083203
 21
1.376066
 31
0.0
  0
ARC
  8
0
 10
-1.547139
 20
53.059423
 30
0.0
 40
51.843705
 50
274.319551
 51
281.360959
  0
LINE
  8
0
 10
8.585203
 20
2.133519
 30
0.0
 11
8.585203
 21
0.527066
 31
0.0
  0
CIRCLE
  8
0
 10
3.843203
 20
3.677066
 30
0.0
 40
2.126
  0
LINE
  8
0
 10
3.843203
 20
6.078066
 30
0.0
 11
3.843203
 21
1.276066
 31
0.0
  0
LINE
  8
0
 10
1.678203
 20
6.078066
 30
0.0
 11
1.678203
 21
1.276066
 31
0.0
  0
LINE
  8
0
 10
6.528203
 20
1.474066
 30
0.0
 11
4.522203
 21
1.474066
 31
0.0
  0
ARC
  8
0
 10
-1.547139
 20
53.059423
 30
0.0
 40
51.883705
 50
273.56408
 51
274.316214
  0
ARC
  8
0
 10
1.183203
 20
1.376066
 30
0.0
 40
0.1
 50
180.0
 51
270.0
  0
LINE
  8
OBJ
  6
CONTINUOUS
 10
1.083203
 20
1.419174
 30
0.0
 11
0.924862
 21
1.419174
 31
0.0
  0
LINE
  8
OBJ
 10
0.85402
 20
1.466003
 30
0.0
 11
0.897662
 21
1.433762
 31
0.0
  0
LINE
  8
0
 10
1.678203
 20
1.276066
 30
0.0
 11
1.443203
 21
1.276066
 31
0.0
  0
LINE
  8
0
 10
1.443203
 20
1.276066
 30
0.0
 11
1.183203
 21
1.276066
 31
0.0
  0
LINE
  8
OBJ
 10
1.118187
 20
1.539108
 30
0.0
 11
1.118187
 21
1.456455
 31
0.0
  0
LINE
  8
OBJ
 10
1.118187
 20
1.456455
 30
0.0
 11
1.141406
 21
1.439301
 31
0.0
  0
LINE
  8
OBJ
  6
CONTINUOUS
 10
1.315395
 20
1.539108
 30
0.0
 11
1.155878
 21
1.539108
 31
0.0
  0
LINE
  8
OBJ
  6
CONTINUOUS
 10
1.315395
 20
1.43154
 30
0.0
 11
1.155878
 21
1.43154
 31
0.0
  0
LINE
  8
OBJ
  6
CENTER2
 10
1.363203
 20
1.44887
 30
0.0
 11
1.315395
 21
1.44887
 31
0.0
  0
ARC
  8
OBJ
 10
1.175406
 20
1.485324
 30
0.0
 40
0.057219
 50
109.954678
 51
250.045322
  0
ARC
  8
0
 10
1.443203
 20
1.356066
 30
0.0
 40
0.08
 50
180.0
 51
270.0
  0
LINE
  8
0
 10
4.235203
 20
1.187066
 30
0.0
 11
2.465203
 21
1.187066
 31
0.0
  0
LINE
  8
0
 10
3.655203
 20
0.527066
 30
0.0
 11
2.465203
 21
0.527066
 31
0.0
  0
LINE
  8
0
 10
3.253203
 20
1.340537
 30
0.0
 11
3.253203
 21
0.099093
 31
0.0
  0
LINE
  8
0
 10
2.465203
 20
1.263264
 30
0.0
 11
2.465203
 21
0.527066
 31
0.0
  0
LINE
  8
0
 10
3.091841
 20
0.843066
 30
0.0
 11
2.554564
 21
0.843066
 31
0.0
  0
CIRCLE
  8
0
 10
2.823203
 20
0.843066
 30
0.0
 40
0.188
  0
LINE
  8
0
 10
2.823203
 20
1.111705
 30
0.0
 11
2.823203
 21
0.574428
 31
0.0
  0
ARC
  8
0
 10
2.365203
 20
1.263264
 30
0.0
 40
0.1
 50
0.0
 51
94.316214
  0
ARC
  8
0
 10
2.365203
 20
1.22315
 30
0.0
 40
0.1
 50
0.0
 51
94.316214
  0
LINE
  8
0
 10
3.655203
 20
0.607066
 30
0.0
 11
3.655203
 21
0.527066
 31
0.0
  0
LINE
  8
0
 10
3.655203
 20
0.607066
 30
0.0
 11
4.522203
 21
1.474066
 31
0.0
  0
LINE
  8
0
 10
8.585203
 20
1.187066
 30
0.0
 11
6.815203
 21
1.187066
 31
0.0
  0
LINE
  8
0
 10
7.395203
 20
0.607066
 30
0.0
 11
6.528203
 21
1.474066
 31
0.0
  0
LINE
  8
0
 10
8.585203
 20
0.527066
 30
0.0
 11
7.395203
 21
0.527066
 31
0.0
  0
LINE
  8
0
 10
8.174203
 20
1.340537
 30
0.0
 11
8.174203
 21
0.099093
 31
0.0
  0
LINE
  8
0
 10
7.395203
 20
0.607066
 30
0.0
 11
7.395203
 21
0.527066
 31
0.0
  0
CIRCLE
  8
0
 10
7.744203
 20
0.843066
 30
0.0
 40
0.188
  0
LINE
  8
0
 10
8.012841
 20
0.843066
 30
0.0
 11
7.475564
 21
0.843066
 31
0.0
  0
LINE
  8
0
 10
7.744203
 20
1.111705
 30
0.0
 11
7.744203
 21
0.574428
 31
0.0
  0
LINE
  8
0
 10
19.090568
 20
1.551066
 30
0.0
 11
19.266568
 21
1.551066
 31
0.0
  0
LINE
  8
0
 10
9.553203
 20
9.990749
 30
0.0
 11
9.790203
 21
9.990749
 31
0.0
  0
LINE
  8
0
 10
9.553203
 20
15.816749
 30
0.0
 11
9.790203
 21
15.816749
 31
0.0
  0
LINE
  8
0
 10
9.553203
 20
2.35216
 30
0.0
 11
9.575463
 21
2.35216
 31
0.0
  0
ARC
  8
0
 10
9.695463
 20
2.236929
 30
0.0
 40
0.12
 50
180.0
 51
270.0
  0
LINE
  8
0
 10
9.202044
 20
2.811066
 30
0.0
 11
10.392081
 21
2.811066
 31
0.0
  0
LINE
  8
0
 10
9.202044
 20
2.811066
 30
0.0
 11
10.303939
 21
2.811066
 31
0.0
  0
LINE
  8
0
 10
9.553203
 20
2.433743
 30
0.0
 11
9.790203
 21
2.433743
 31
0.0
  0
LINE
  8
0
 10
9.553203
 20
2.457066
 30
0.0
 11
9.790203
 21
2.457066
 31
0.0
  0
LINE
  8
0
 10
9.553203
 20
4.977066
 30
0.0
 11
9.612434
 21
4.977066
 31
0.0
  0
LINE
  8
0
 10
9.553203
 20
4.897066
 30
0.0
 11
9.790203
 21
4.897066
 31
0.0
  0
TEXT
  8
0
 10
6.396869
 20
7.735425
 30
0.0
 40
0.5
  1
MODEL 56
  7
ROMAND
  0
LINE
  8
0
 10
9.118308
 20
10.344749
 30
0.0
 11
10.484431
 21
10.344749
 31
0.0
  0
LINE
  8
0
 10
9.118308
 20
15.462749
 30
0.0
 11
10.484431
 21
15.462749
 31
0.0
  0
LINE
  8
0
 10
9.202044
 20
4.543066
 30
0.0
 11
10.392081
 21
4.543066
 31
0.0
  0
LINE
  8
0
 10
0.146551
 20
12.903749
 30
0.0
 11
14.563743
 21
12.903749
 31
0.0
  0
LINE
  8
0
 10
0.146551
 20
3.677066
 30
0.0
 11
14.470472
 21
3.677066
 31
0.0
  0
LINE
  8
0
 10
5.969203
 20
9.775749
 30
0.0
 11
5.969203
 21
10.108749
 31
0.0
  0
LINE
  8
0
 10
1.717203
 20
9.775749
 30
0.0
 11
1.717203
 21
10.110467
 31
0.0
  0
LINE
  8
0
 10
2.724297
 20
9.715749
 30
0.0
 11
4.962108
 21
9.715749
 31
0.0
  0
ARC
  8
0
 10
4.668203
 20
9.579749
 30
0.0
 40
0.06
 50
270.0
 51
0.0
  0
LINE
  8
0
 10
1.777203
 20
9.872749
 30
0.0
 11
5.909203
 21
9.872749
 31
0.0
  0
ARC
  8
0
 10
3.843203
 20
3.677066
 30
0.0
 40
1.476
 50
16.195776
 51
163.804224
  0
CIRCLE
  8
0
 10
3.843203
 20
3.677066
 30
0.0
 40
0.885
  0
ARC
  8
0
 10
3.843203
 20
3.677066
 30
0.0
 40
1.476
 50
196.195776
 51
343.804224
  0
ARC
  8
0
 10
-1.547139
 20
-45.70529
 30
0.0
 40
51.883705
 50
80.591004
 51
86.43592
  0
LINE
  8
OBJ
 10
1.118187
 20
5.815025
 30
0.0
 11
1.118187
 21
5.595108
 31
0.0
  0
LINE
  8
OBJ
 10
1.363203
 20
5.753459
 30
0.0
 11
1.315395
 21
5.801267
 31
0.0
  0
LINE
  8
OBJ
 10
1.315395
 20
5.922593
 30
0.0
 11
1.315395
 21
5.48754
 31
0.0
  0
LINE
  8
0
 10
1.363203
 20
5.905262
 30
0.0
 11
1.363203
 21
5.50487
 31
0.0
  0
ARC
  8
OBJ
 10
1.297424
 20
5.705066
 30
0.0
 40
0.179237
 50
142.158498
 51
217.841502
  0
LINE
  8
0
 10
1.746882
 20
4.031066
 30
0.0
 11
2.348954
 21
4.031066
 31
0.0
  0
LINE
  8
0
 10
1.746882
 20
3.323066
 30
0.0
 11
2.348954
 21
3.323066
 31
0.0
  0
LINE
  8
0
 10
1.459953
 20
5.614546
 30
0.0
 11
1.459953
 21
1.739587
 31
0.0
  0
LINE
  8
OBJ
 10
0.333203
 20
3.329066
 30
0.0
 11
0.333203
 21
4.025066
 31
0.0
  0
LINE
  8
OBJ
 10
0.533203
 20
3.056066
 30
0.0
 11
0.533203
 21
4.298066
 31
0.0
  0
ARC
  8
0
 10
8.10408
 20
2.736744
 30
0.0
 40
7.551825
 50
157.677433
 51
180.908037
  0
LINE
  8
OBJ
  6
CONTINUOUS
 10
1.083203
 20
2.236864
 30
0.0
 11
0.924862
 21
2.236864
 31
0.0
  0
LINE
  8
OBJ
  6
CONTINUOUS
 10
1.083203
 20
2.034688
 30
0.0
 11
0.924862
 21
2.034688
 31
0.0
  0
LINE
  8
OBJ
  6
CONTINUOUS
 10
1.083203
 20
1.62135
 30
0.0
 11
0.924862
 21
1.62135
 31
0.0
  0
ARC
  8
0
 10
1.183203
 20
2.062194
 30
0.0
 40
0.1
 50
180.0
 51
270.0
  0
ARC
  8
0
 10
0.983203
 20
2.317066
 30
0.0
 40
0.1
 50
0.0
 51
90.0
  0
LINE
  8
OBJ
 10
0.85402
 20
2.190036
 30
0.0
 11
0.897662
 21
2.222276
 31
0.0
  0
ARC
  8
OBJ
 10
0.961565
 20
2.135776
 30
0.0
 40
0.107545
 50
109.954678
 51
250.045322
  0
ARC
  8
OBJ
 10
1.1909
 20
1.828019
 30
0.0
 40
0.33688
 50
142.158498
 51
217.841502
  0
ARC
  8
0
 10
0.753203
 20
2.617066
 30
0.0
 40
0.2
 50
180.0
 51
270.0
  0
LINE
  8
0
 10
0.983203
 20
2.417066
 30
0.0
 11
0.753203
 21
2.417066
 31
0.0
  0
LINE
  8
OBJ
  6
CONTINUOUS
 10
0.533203
 20
3.249066
 30
0.0
 11
0.413203
 21
3.249066
 31
0.0
  0
ARC
  8
OBJ
 10
0.413203
 20
3.329066
 30
0.0
 40
0.08
 50
180.0
 51
270.0
  0
ARC
  8
OBJ
 10
0.593203
 20
3.056066
 30
0.0
 40
0.06
 50
180.0
 51
233.045487
  0
ARC
  8
0
 10
1.399953
 20
1.739587
 30
0.0
 40
0.06
 50
281.171353
 51
0.0
  0
ARC
  8
0
 10
1.423203
 20
1.621861
 30
0.0
 40
0.06
 50
101.171353
 51
180.0
  0
LINE
  8
OBJ
  6
CONTINUOUS
 10
1.315395
 20
1.866593
 30
0.0
 11
1.155878
 21
1.866593
 31
0.0
  0
LINE
  8
0
 10
1.263203
 20
1.962194
 30
0.0
 11
1.183203
 21
1.962194
 31
0.0
  0
ARC
  8
0
 10
1.263203
 20
1.862194
 30
0.0
 40
0.1
 50
0.0
 51
90.0
  0
LINE
  8
OBJ
 10
1.118187
 20
1.841678
 30
0.0
 11
1.141406
 21
1.858832
 31
0.0
  0
LINE
  8
OBJ
 10
1.118187
 20
1.841678
 30
0.0
 11
1.118187
 21
1.759025
 31
0.0
  0
LINE
  8
OBJ
  6
CONTINUOUS
 10
1.315395
 20
1.866593
 30
0.0
 11
1.155878
 21
1.866593
 31
0.0
  0
LINE
  8
OBJ
  6
CONTINUOUS
 10
1.315395
 20
1.759025
 30
0.0
 11
1.155878
 21
1.759025
 31
0.0
  0
POINT
  8
OBJ
 10
1.285843
 20
1.801692
 30
0.0
  0
LINE
  8
OBJ
 10
1.363203
 20
1.697459
 30
0.0
 11
1.315395
 21
1.745267
 31
0.0
  0
LINE
  8
OBJ
  6
CENTER2
 10
1.363203
 20
1.849262
 30
0.0
 11
1.315395
 21
1.849262
 31
0.0
  0
ARC
  8
OBJ
 10
1.175406
 20
1.812809
 30
0.0
 40
0.057219
 50
109.954678
 51
250.045322
  0
ARC
  8
0
 10
1.174335
 20
5.191939
 30
0.0
 40
0.2
 50
90.0
 51
160.490868
  0
LINE
  8
OBJ
  6
CONTINUOUS
 10
0.533203
 20
4.105066
 30
0.0
 11
0.413203
 21
4.105066
 31
0.0
  0
ARC
  8
OBJ
 10
0.413203
 20
4.025066
 30
0.0
 40
0.08
 50
90.0
 51
180.0
  0
ARC
  8
OBJ
 10
0.593203
 20
4.298066
 30
0.0
 40
0.06
 50
90.0
 51
180.0
  0
LINE
  8
OBJ
  6
CONTINUOUS
 10
0.72835
 20
4.358066
 30
0.0
 11
0.593203
 21
4.358066
 31
0.0
  0
ARC
  8
0
 10
1.423203
 20
5.732272
 30
0.0
 40
0.06
 50
180.0
 51
258.828647
  0
ARC
  8
0
 10
1.399953
 20
5.614546
 30
0.0
 40
0.06
 50
0.0
 51
78.828647
  0
ARC
  8
0
 10
1.263203
 20
5.491939
 30
0.0
 40
0.1
 50
270.0
 51
0.0
  0
LINE
  8
0
 10
1.263203
 20
5.391939
 30
0.0
 11
1.174335
 21
5.391939
 31
0.0
  0
LINE
  8
OBJ
 10
1.118187
 20
5.595108
 30
0.0
 11
1.118187
 21
5.512455
 31
0.0
  0
LINE
  8
OBJ
 10
1.118187
 20
5.512455
 30
0.0
 11
1.141406
 21
5.495301
 31
0.0
  0
LINE
  8
OBJ
  6
CONTINUOUS
 10
1.315395
 20
5.595108
 30
0.0
 11
1.155878
 21
5.595108
 31
0.0
  0
LINE
  8
OBJ
  6
CONTINUOUS
 10
1.315395
 20
5.48754
 30
0.0
 11
1.155878
 21
5.48754
 31
0.0
  0
LINE
  8
OBJ
  6
CENTER2
 10
1.363203
 20
5.50487
 30
0.0
 11
1.315395
 21
5.50487
 31
0.0
  0
ARC
  8
OBJ
 10
1.175406
 20
5.541324
 30
0.0
 40
0.057219
 50
109.954678
 51
250.045322
  0
CIRCLE
  8
0
 10
3.843203
 20
3.677066
 30
0.0
 40
0.638464
  0
ARC
  8
0
 10
2.506771
 20
2.340635
 30
0.0
 40
0.193285
 50
19.395522
 51
40.604478
  0
ARC
  8
0
 10
2.506771
 20
2.340635
 30
0.0
 40
0.193285
 50
319.395522
 51
340.604478
  0
ARC
  8
0
 10
2.506771
 20
2.340635
 30
0.0
 40
0.193285
 50
259.395522
 51
280.604478
  0
ARC
  8
0
 10
2.506771
 20
2.340635
 30
0.0
 40
0.193285
 50
199.395522
 51
220.604478
  0
ARC
  8
0
 10
2.506771
 20
2.340635
 30
0.0
 40
0.193285
 50
139.395522
 51
160.604478
  0
LINE
  8
OBJ
 10
2.542471
 20
2.304935
 30
0.0
 11
2.542471
 21
2.233535
 31
0.0
  0
LINE
  8
OBJ
 10
2.542471
 20
2.304935
 30
0.0
 11
2.613871
 21
2.304935
 31
0.0
  0
LINE
  8
OBJ
 10
2.613871
 20
2.304935
 30
0.0
 11
2.613871
 21
2.376335
 31
0.0
  0
LINE
  8
OBJ
 10
2.542471
 20
2.376335
 30
0.0
 11
2.613871
 21
2.376335
 31
0.0
  0
LINE
  8
OBJ
 10
2.542471
 20
2.447735
 30
0.0
 11
2.542471
 21
2.376335
 31
0.0
  0
LINE
  8
OBJ
 10
2.399671
 20
2.304935
 30
0.0
 11
2.471071
 21
2.304935
 31
0.0
  0
LINE
  8
OBJ
 10
2.399671
 20
2.376335
 30
0.0
 11
2.471071
 21
2.376335
 31
0.0
  0
LINE
  8
OBJ
 10
2.399671
 20
2.376335
 30
0.0
 11
2.399671
 21
2.304935
 31
0.0
  0
LINE
  8
OBJ
 10
2.471071
 20
2.304935
 30
0.0
 11
2.471071
 21
2.233535
 31
0.0
  0
LINE
  8
OBJ
 10
2.471071
 20
2.447735
 30
0.0
 11
2.471071
 21
2.376335
 31
0.0
  0
LINE
  8
0
 10
2.471071
 20
2.376335
 30
0.0
 11
2.542471
 21
2.304935
 31
0.0
  0
LINE
  8
0
 10
2.471071
 20
2.304935
 30
0.0
 11
2.542471
 21
2.376335
 31
0.0
  0
LINE
  8
OBJ
 10
2.542471
 20
2.447735
 30
0.0
 11
2.471071
 21
2.447735
 31
0.0
  0
LINE
  8
OBJ
 10
2.471071
 20
2.233535
 30
0.0
 11
2.542471
 21
2.233535
 31
0.0
  0
ARC
  8
0
 10
2.506771
 20
2.340635
 30
0.0
 40
0.193285
 50
79.395522
 51
100.604478
  0
POLYLINE
  8
0
 66
     1
 10
0.0
 20
0.0
 30
0.0
 70
     1
  0
VERTEX
  8
0
 10
2.726146
 20
2.340635
 30
0.0
  0
VERTEX
  8
0
 10
2.616458
 20
2.15065
 30
0.0
  0
VERTEX
  8
0
 10
2.397083
 20
2.15065
 30
0.0
  0
VERTEX
  8
0
 10
2.287396
 20
2.340635
 30
0.0
  0
VERTEX
  8
0
 10
2.397083
 20
2.530619
 30
0.0
  0
VERTEX
  8
0
 10
2.616458
 20
2.530619
 30
0.0
  0
SEQEND
  8
0
  0
CIRCLE
  8
0
 10
2.506771
 20
2.340635
 30
0.0
 40
0.186787
  0
CIRCLE
  8
OBJ
 10
2.506771
 20
2.340635
 30
0.0
 40
0.16065
  0
ARC
  8
0
 10
2.348954
 20
3.243066
 30
0.0
 40
0.08
 50
16.195776
 51
90.0
  0
ARC
  8
0
 10
2.348954
 20
4.111066
 30
0.0
 40
0.08
 50
270.0
 51
343.804224
  0
ARC
  8
0
 10
2.506771
 20
5.013498
 30
0.0
 40
0.193285
 50
229.395522
 51
250.604478
  0
ARC
  8
0
 10
2.506771
 20
5.013498
 30
0.0
 40
0.193285
 50
289.395522
 51
310.604478
  0
ARC
  8
0
 10
2.506771
 20
5.013498
 30
0.0
 40
0.193285
 50
349.395522
 51
10.604478
  0
ARC
  8
0
 10
2.506771
 20
5.013498
 30
0.0
 40
0.193285
 50
49.395522
 51
70.604478
  0
ARC
  8
0
 10
2.506771
 20
5.013498
 30
0.0
 40
0.193285
 50
109.395522
 51
130.604478
  0
LINE
  8
OBJ
 10
2.471071
 20
4.977798
 30
0.0
 11
2.399671
 21
4.977798
 31
0.0
  0
LINE
  8
OBJ
 10
2.471071
 20
4.977798
 30
0.0
 11
2.471071
 21
4.906398
 31
0.0
  0
LINE
  8
OBJ
 10
2.471071
 20
4.906398
 30
0.0
 11
2.542471
 21
4.906398
 31
0.0
  0
LINE
  8
OBJ
 10
2.542471
 20
4.977798
 30
0.0
 11
2.542471
 21
4.906398
 31
0.0
  0
LINE
  8
OBJ
 10
2.613871
 20
4.977798
 30
0.0
 11
2.542471
 21
4.977798
 31
0.0
  0
LINE
  8
OBJ
 10
2.471071
 20
5.120598
 30
0.0
 11
2.471071
 21
5.049198
 31
0.0
  0
LINE
  8
OBJ
 10
2.542471
 20
5.120598
 30
0.0
 11
2.542471
 21
5.049198
 31
0.0
  0
LINE
  8
OBJ
 10
2.542471
 20
5.120598
 30
0.0
 11
2.471071
 21
5.120598
 31
0.0
  0
LINE
  8
OBJ
 10
2.471071
 20
5.049198
 30
0.0
 11
2.399671
 21
5.049198
 31
0.0
  0
LINE
  8
OBJ
 10
2.613871
 20
5.049198
 30
0.0
 11
2.542471
 21
5.049198
 31
0.0
  0
LINE
  8
0
 10
2.542471
 20
5.049198
 30
0.0
 11
2.471071
 21
4.977798
 31
0.0
  0
LINE
  8
0
 10
2.471071
 20
5.049198
 30
0.0
 11
2.542471
 21
4.977798
 31
0.0
  0
LINE
  8
OBJ
 10
2.613871
 20
4.977798
 30
0.0
 11
2.613871
 21
5.049198
 31
0.0
  0
LINE
  8
OBJ
 10
2.399671
 20
5.049198
 30
0.0
 11
2.399671
 21
4.977798
 31
0.0
  0
ARC
  8
0
 10
2.506771
 20
5.013498
 30
0.0
 40
0.193285
 50
169.395522
 51
190.604478
  0
POLYLINE
  8
0
 66
     1
 10
0.0
 20
0.0
 30
0.0
 70
     1
  0
VERTEX
  8
0
 10
2.506771
 20
4.794123
 30
0.0
  0
VERTEX
  8
0
 10
2.316787
 20
4.903811
 30
0.0
  0
VERTEX
  8
0
 10
2.316787
 20
5.123186
 30
0.0
  0
VERTEX
  8
0
 10
2.506771
 20
5.232873
 30
0.0
  0
VERTEX
  8
0
 10
2.696755
 20
5.123186
 30
0.0
  0
VERTEX
  8
0
 10
2.696755
 20
4.903811
 30
0.0
  0
SEQEND
  8
0
  0
CIRCLE
  8
0
 10
2.506771
 20
5.013498
 30
0.0
 40
0.186787
  0
CIRCLE
  8
OBJ
 10
2.506771
 20
5.013498
 30
0.0
 40
0.16065
  0
LINE
  8
0
 10
1.777203
 20
9.715749
 30
0.0
 11
2.289244
 21
9.715749
 31
0.0
  0
LINE
  8
0
 10
1.678203
 20
6.078066
 30
0.0
 11
1.443203
 21
6.078066
 31
0.0
  0
LINE
  8
OBJ
 10
1.118187
 20
5.897678
 30
0.0
 11
1.141406
 21
5.914832
 31
0.0
  0
LINE
  8
OBJ
 10
1.118187
 20
5.897678
 30
0.0
 11
1.118187
 21
5.815025
 31
0.0
  0
LINE
  8
OBJ
  6
CONTINUOUS
 10
1.315395
 20
5.922593
 30
0.0
 11
1.155878
 21
5.922593
 31
0.0
  0
LINE
  8
OBJ
  6
CONTINUOUS
 10
1.315395
 20
5.815025
 30
0.0
 11
1.155878
 21
5.815025
 31
0.0
  0
LINE
  8
OBJ
  6
CENTER2
 10
1.363203
 20
5.905262
 30
0.0
 11
1.315395
 21
5.905262
 31
0.0
  0
ARC
  8
OBJ
 10
1.175406
 20
5.868809
 30
0.0
 40
0.057219
 50
109.954678
 51
250.045322
  0
ARC
  8
0
 10
1.443203
 20
5.998066
 30
0.0
 40
0.08
 50
90.0
 51
180.0
  0
ARC
  8
0
 10
1.777203
 20
9.775749
 30
0.0
 40
0.06
 50
180.0
 51
270.0
  0
ARC
  8
0
 10
1.777203
 20
9.932749
 30
0.0
 40
0.06
 50
180.0
 51
270.0
  0
LINE
  8
0
 10
3.018203
 20
9.519749
 30
0.0
 11
4.668203
 21
9.519749
 31
0.0
  0
LINE
  8
OBJ
 10
2.699382
 20
9.627733
 30
0.0
 11
2.716536
 21
9.650953
 31
0.0
  0
LINE
  8
OBJ
 10
2.616729
 20
9.627733
 30
0.0
 11
2.699382
 21
9.627733
 31
0.0
  0
ARC
  8
OBJ
 10
2.670513
 20
9.684953
 30
0.0
 40
0.057219
 50
199.954678
 51
340.045322
  0
LINE
  8
OBJ
 10
2.314159
 20
9.627733
 30
0.0
 11
2.396812
 21
9.627733
 31
0.0
  0
ARC
  8
OBJ
 10
2.506771
 20
9.806971
 30
0.0
 40
0.179237
 50
232.158498
 51
307.841502
  0
LINE
  8
OBJ
 10
2.396812
 20
9.627733
 30
0.0
 11
2.616729
 21
9.627733
 31
0.0
  0
LINE
  8
OBJ
  6
CENTER2
 10
2.706967
 20
9.872749
 30
0.0
 11
2.706967
 21
9.824941
 31
0.0
  0
LINE
  8
OBJ
 10
2.458378
 20
9.872749
 30
0.0
 11
2.41057
 21
9.824941
 31
0.0
  0
LINE
  8
OBJ
  6
CONTINUOUS
 10
2.396812
 20
9.824941
 30
0.0
 11
2.396812
 21
9.665425
 31
0.0
  0
LINE
  8
OBJ
  6
CONTINUOUS
 10
2.724297
 20
9.824941
 30
0.0
 11
2.724297
 21
9.665425
 31
0.0
  0
LINE
  8
OBJ
  6
CONTINUOUS
 10
2.616729
 20
9.824941
 30
0.0
 11
2.616729
 21
9.665425
 31
0.0
  0
LINE
  8
OBJ
  6
CENTER2
 10
2.306575
 20
9.872749
 30
0.0
 11
2.306575
 21
9.824941
 31
0.0
  0
LINE
  8
OBJ
  6
CONTINUOUS
 10
2.289244
 20
9.824941
 30
0.0
 11
2.289244
 21
9.665425
 31
0.0
  0
LINE
  8
0
 10
2.306575
 20
9.872749
 30
0.0
 11
2.706967
 21
9.872749
 31
0.0
  0
LINE
  8
OBJ
 10
2.289244
 20
9.824941
 30
0.0
 11
2.724297
 21
9.824941
 31
0.0
  0
ARC
  8
OBJ
 10
2.343028
 20
9.684953
 30
0.0
 40
0.057219
 50
199.954678
 51
340.045322
  0
LINE
  8
OBJ
 10
2.314159
 20
9.627733
 30
0.0
 11
2.297006
 21
9.650953
 31
0.0
  0
ARC
  8
0
 10
3.018203
 20
9.579749
 30
0.0
 40
0.06
 50
180.0
 51
270.0
  0
ARC
  8
0
 10
2.898203
 20
9.655749
 30
0.0
 40
0.06
 50
0.0
 51
90.0
  0
LINE
  8
0
 10
2.958203
 20
9.579749
 30
0.0
 11
2.958203
 21
9.655749
 31
0.0
  0
LINE
  8
OBJ
  6
CENTER2
 10
7.937203
 20
6.589396
 30
0.0
 11
7.937203
 21
4.019595
 31
0.0
  0
LINE
  8
OBJ
 10
7.385458
 20
5.955966
 30
0.0
 11
7.385458
 21
5.724066
 31
0.0
  0
LINE
  8
OBJ
 10
6.833713
 20
5.955966
 30
0.0
 11
6.833713
 21
5.724066
 31
0.0
  0
LINE
  8
OBJ
 10
9.040693
 20
5.955966
 30
0.0
 11
9.040693
 21
5.724066
 31
0.0
  0
LINE
  8
OBJ
 10
8.488948
 20
5.955966
 30
0.0
 11
8.488948
 21
5.724066
 31
0.0
  0
ARC
  8
0
 10
8.547888
 20
8.680241
 30
0.0
 40
3.584737
 50
245.491572
 51
273.671218
  0
LINE
  8
0
 10
8.14188
 20
3.607066
 30
0.0
 11
6.062702
 21
3.607066
 31
0.0
  0
LINE
  8
0
 10
8.14188
 20
3.747066
 30
0.0
 11
6.062702
 21
3.747066
 31
0.0
  0
LINE
  8
OBJ
  6
CONTINUOUS
 10
9.040693
 20
5.724066
 30
0.0
 11
6.833713
 21
5.724066
 31
0.0
  0
LINE
  8
0
 10
8.823203
 20
5.724066
 30
0.0
 11
7.051203
 21
5.724066
 31
0.0
  0
LINE
  8
0
 10
5.939523
 20
3.323066
 30
0.0
 11
5.337452
 21
3.323066
 31
0.0
  0
POLYLINE
  8
0
 66
     1
 10
0.0
 20
0.0
 30
0.0
 70
     1
  0
VERTEX
  8
0
 10
5.179634
 20
2.56001
 30
0.0
  0
VERTEX
  8
0
 10
5.369619
 20
2.450322
 30
0.0
  0
VERTEX
  8
0
 10
5.369619
 20
2.230947
 30
0.0
  0
VERTEX
  8
0
 10
5.179634
 20
2.12126
 30
0.0
  0
VERTEX
  8
0
 10
4.98965
 20
2.230947
 30
0.0
  0
VERTEX
  8
0
 10
4.98965
 20
2.450322
 30
0.0
  0
SEQEND
  8
0
  0
CIRCLE
  8
0
 10
5.179634
 20
2.340635
 30
0.0
 40
0.186787
  0
CIRCLE
  8
OBJ
 10
5.179634
 20
2.340635
 30
0.0
 40
0.16065
  0
ARC
  8
0
 10
5.179634
 20
2.340635
 30
0.0
 40
0.193285
 50
289.395522
 51
310.604478
  0
ARC
  8
0
 10
5.179634
 20
2.340635
 30
0.0
 40
0.193285
 50
229.395522
 51
250.604478
  0
ARC
  8
0
 10
5.179634
 20
2.340635
 30
0.0
 40
0.193285
 50
169.395522
 51
190.604478
  0
ARC
  8
0
 10
5.179634
 20
2.340635
 30
0.0
 40
0.193285
 50
109.395522
 51
130.604478
  0
LINE
  8
OBJ
 10
5.215334
 20
2.376335
 30
0.0
 11
5.286734
 21
2.376335
 31
0.0
  0
LINE
  8
OBJ
 10
5.215334
 20
2.376335
 30
0.0
 11
5.215334
 21
2.447735
 31
0.0
  0
LINE
  8
OBJ
 10
5.215334
 20
2.447735
 30
0.0
 11
5.143934
 21
2.447735
 31
0.0
  0
LINE
  8
OBJ
 10
5.143934
 20
2.376335
 30
0.0
 11
5.143934
 21
2.447735
 31
0.0
  0
LINE
  8
OBJ
 10
5.072534
 20
2.376335
 30
0.0
 11
5.143934
 21
2.376335
 31
0.0
  0
LINE
  8
OBJ
 10
5.215334
 20
2.233535
 30
0.0
 11
5.215334
 21
2.304935
 31
0.0
  0
LINE
  8
OBJ
 10
5.143934
 20
2.233535
 30
0.0
 11
5.143934
 21
2.304935
 31
0.0
  0
LINE
  8
OBJ
 10
5.143934
 20
2.233535
 30
0.0
 11
5.215334
 21
2.233535
 31
0.0
  0
LINE
  8
OBJ
 10
5.215334
 20
2.304935
 30
0.0
 11
5.286734
 21
2.304935
 31
0.0
  0
LINE
  8
OBJ
 10
5.072534
 20
2.304935
 30
0.0
 11
5.143934
 21
2.304935
 31
0.0
  0
LINE
  8
0
 10
5.143934
 20
2.304935
 30
0.0
 11
5.215334
 21
2.376335
 31
0.0
  0
LINE
  8
0
 10
5.215334
 20
2.304935
 30
0.0
 11
5.143934
 21
2.376335
 31
0.0
  0
LINE
  8
OBJ
 10
5.072534
 20
2.376335
 30
0.0
 11
5.072534
 21
2.304935
 31
0.0
  0
LINE
  8
OBJ
 10
5.286734
 20
2.304935
 30
0.0
 11
5.286734
 21
2.376335
 31
0.0
  0
ARC
  8
0
 10
5.179634
 20
2.340635
 30
0.0
 40
0.193285
 50
49.395522
 51
70.604478
  0
ARC
  8
0
 10
5.179634
 20
2.340635
 30
0.0
 40
0.193285
 50
349.395522
 51
10.604478
  0
ARC
  8
0
 10
5.337452
 20
3.243066
 30
0.0
 40
0.08
 50
90.0
 51
163.804224
  0
ARC
  8
0
 10
6.062702
 20
3.507066
 30
0.0
 40
0.1
 50
90.0
 51
175.620047
  0
LINE
  8
0
 10
5.939523
 20
4.031066
 30
0.0
 11
5.337452
 21
4.031066
 31
0.0
  0
ARC
  8
0
 10
5.337452
 20
4.111066
 30
0.0
 40
0.08
 50
196.195776
 51
270.0
  0
CIRCLE
  8
OBJ
 10
5.179634
 20
5.013498
 30
0.0
 40
0.16065
  0
CIRCLE
  8
0
 10
5.179634
 20
5.013498
 30
0.0
 40
0.186787
  0
POLYLINE
  8
0
 66
     1
 10
0.0
 20
0.0
 30
0.0
 70
     1
  0
VERTEX
  8
0
 10
4.960259
 20
5.013498
 30
0.0
  0
VERTEX
  8
0
 10
5.069947
 20
5.203482
 30
0.0
  0
VERTEX
  8
0
 10
5.289322
 20
5.203482
 30
0.0
  0
VERTEX
  8
0
 10
5.399009
 20
5.013498
 30
0.0
  0
VERTEX
  8
0
 10
5.289322
 20
4.823514
 30
0.0
  0
VERTEX
  8
0
 10
5.069947
 20
4.823514
 30
0.0
  0
SEQEND
  8
0
  0
ARC
  8
0
 10
5.179634
 20
5.013498
 30
0.0
 40
0.193285
 50
259.395522
 51
280.604478
  0
ARC
  8
0
 10
5.179634
 20
5.013498
 30
0.0
 40
0.193285
 50
199.395522
 51
220.604478
  0
ARC
  8
0
 10
5.179634
 20
5.013498
 30
0.0
 40
0.193285
 50
139.395522
 51
160.604478
  0
LINE
  8
OBJ
 10
5.215334
 20
5.120598
 30
0.0
 11
5.143934
 21
5.120598
 31
0.0
  0
LINE
  8
OBJ
 10
5.215334
 20
4.906398
 30
0.0
 11
5.215334
 21
4.977798
 31
0.0
  0
LINE
  8
OBJ
 10
5.143934
 20
4.906398
 30
0.0
 11
5.215334
 21
4.906398
 31
0.0
  0
LINE
  8
OBJ
 10
5.143934
 20
4.906398
 30
0.0
 11
5.143934
 21
4.977798
 31
0.0
  0
LINE
  8
OBJ
 10
5.143934
 20
4.977798
 30
0.0
 11
5.072534
 21
4.977798
 31
0.0
  0
LINE
  8
OBJ
 10
5.072534
 20
5.049198
 30
0.0
 11
5.072534
 21
4.977798
 31
0.0
  0
LINE
  8
OBJ
 10
5.143934
 20
5.049198
 30
0.0
 11
5.072534
 21
5.049198
 31
0.0
  0
LINE
  8
0
 10
5.215334
 20
5.049198
 30
0.0
 11
5.143934
 21
4.977798
 31
0.0
  0
LINE
  8
0
 10
5.215334
 20
4.977798
 30
0.0
 11
5.143934
 21
5.049198
 31
0.0
  0
LINE
  8
OBJ
 10
5.143934
 20
5.049198
 30
0.0
 11
5.143934
 21
5.120598
 31
0.0
  0
LINE
  8
OBJ
 10
5.215334
 20
5.049198
 30
0.0
 11
5.215334
 21
5.120598
 31
0.0
  0
LINE
  8
OBJ
 10
5.286734
 20
4.977798
 30
0.0
 11
5.286734
 21
5.049198
 31
0.0
  0
LINE
  8
OBJ
 10
5.286734
 20
4.977798
 30
0.0
 11
5.215334
 21
4.977798
 31
0.0
  0
LINE
  8
OBJ
 10
5.286734
 20
5.049198
 30
0.0
 11
5.215334
 21
5.049198
 31
0.0
  0
ARC
  8
0
 10
5.179634
 20
5.013498
 30
0.0
 40
0.193285
 50
79.395522
 51
100.604478
  0
ARC
  8
0
 10
5.179634
 20
5.013498
 30
0.0
 40
0.193285
 50
19.395522
 51
40.604478
  0
ARC
  8
0
 10
5.179634
 20
5.013498
 30
0.0
 40
0.193285
 50
319.395522
 51
340.604478
  0
ARC
  8
0
 10
6.062702
 20
3.847066
 30
0.0
 40
0.1
 50
184.379953
 51
270.0
  0
LINE
  8
OBJ
 10
7.115203
 20
5.724066
 30
0.0
 11
7.115203
 21
5.723066
 31
0.0
  0
ARC
  8
0
 10
6.951203
 20
5.579052
 30
0.0
 40
0.1
 50
260.591004
 51
0.0
  0
LINE
  8
0
 10
7.051203
 20
5.724066
 30
0.0
 11
7.051203
 21
5.579052
 31
0.0
  0
LINE
  8
0
 10
8.766053
 20
4.497066
 30
0.0
 11
8.766053
 21
2.857066
 31
0.0
  0
LINE
  8
0
 10
9.553203
 20
4.977066
 30
0.0
 11
9.553203
 21
2.274089
 31
0.0
  0
ARC
  8
0
 10
8.473203
 20
2.857066
 30
0.0
 40
0.4
 50
180.0
 51
270.0
  0
ARC
  8
0
 10
8.14188
 20
3.507066
 30
0.0
 40
0.1
 50
0.0
 51
90.0
  0
ARC
  8
0
 10
7.973203
 20
3.507066
 30
0.0
 40
0.1
 50
0.0
 51
90.0
  0
LINE
  8
0
 10
8.073203
 20
3.507066
 30
0.0
 11
8.073203
 21
2.857066
 31
0.0
  0
ARC
  8
0
 10
9.166053
 20
2.857066
 30
0.0
 40
0.4
 50
180.0
 51
270.0
  0
ARC
  8
0
 10
-1.547139
 20
53.059423
 30
0.0
 40
51.883705
 50
281.352084
 51
282.353733
  0
LINE
  8
0
 10
9.553203
 20
2.457066
 30
0.0
 11
8.473203
 21
2.457066
 31
0.0
  0
ARC
  8
0
 10
8.685203
 20
2.133519
 30
0.0
 40
0.1
 50
101.352084
 51
180.0
  0
ARC
  8
0
 10
8.685203
 20
2.09272
 30
0.0
 40
0.1
 50
101.352084
 51
180.0
  0
LINE
  8
0
 10
9.039479
 20
2.274089
 30
0.0
 11
9.553203
 21
2.274089
 31
0.0
  0
ARC
  8
0
 10
8.473203
 20
4.497066
 30
0.0
 40
0.4
 50
90.0
 51
180.0
  0
ARC
  8
0
 10
8.14188
 20
3.847066
 30
0.0
 40
0.1
 50
270.0
 51
0.0
  0
ARC
  8
0
 10
7.973203
 20
3.847066
 30
0.0
 40
0.1
 50
270.0
 51
0.0
  0
LINE
  8
0
 10
8.073203
 20
4.497066
 30
0.0
 11
8.073203
 21
3.847066
 31
0.0
  0
ARC
  8
0
 10
9.166053
 20
4.497066
 30
0.0
 40
0.4
 50
90.0
 51
180.0
  0
ARC
  8
0
 10
-1.547139
 20
-45.70529
 30
0.0
 40
51.883705
 50
77.646267
 51
78.380235
  0
LINE
  8
0
 10
9.553203
 20
4.897066
 30
0.0
 11
8.473203
 21
4.897066
 31
0.0
  0
LINE
  8
OBJ
 10
8.759203
 20
5.724066
 30
0.0
 11
8.759203
 21
5.723066
 31
0.0
  0
ARC
  8
0
 10
8.923203
 20
5.213052
 30
0.0
 40
0.1
 50
180.0
 51
258.380235
  0
LINE
  8
0
 10
8.823203
 20
5.724066
 30
0.0
 11
8.823203
 21
5.213052
 31
0.0
  0
LINE
  8
OBJ
  6
CONTINUOUS
 10
7.385458
 20
6.084066
 30
0.0
 11
6.957204
 21
6.084066
 31
0.0
  0
ARC
  8
OBJ
 10
7.109585
 20
5.722961
 30
0.0
 40
0.361106
 50
40.184879
 51
139.815121
  0
LINE
  8
OBJ
 10
6.833713
 20
5.955966
 30
0.0
 11
6.957204
 21
6.084066
 31
0.0
  0
ARC
  8
0
 10
5.909203
 20
9.775749
 30
0.0
 40
0.06
 50
270.0
 51
0.0
  0
ARC
  8
0
 10
5.909203
 20
9.932749
 30
0.0
 40
0.06
 50
270.0
 51
0.0
  0
ARC
  8
OBJ
 10
5.343377
 20
9.684953
 30
0.0
 40
0.057219
 50
199.954678
 51
340.045322
  0
LINE
  8
OBJ
 10
5.372246
 20
9.627733
 30
0.0
 11
5.289593
 21
9.627733
 31
0.0
  0
LINE
  8
OBJ
 10
5.397161
 20
9.824941
 30
0.0
 11
4.962108
 21
9.824941
 31
0.0
  0
LINE
  8
0
 10
5.37983
 20
9.872749
 30
0.0
 11
4.979438
 21
9.872749
 31
0.0
  0
ARC
  8
OBJ
 10
5.015892
 20
9.684953
 30
0.0
 40
0.057219
 50
199.954678
 51
340.045322
  0
LINE
  8
OBJ
 10
5.069676
 20
9.627733
 30
0.0
 11
4.987023
 21
9.627733
 31
0.0
  0
LINE
  8
OBJ
 10
4.987023
 20
9.627733
 30
0.0
 11
4.969869
 21
9.650953
 31
0.0
  0
LINE
  8
OBJ
 10
5.289593
 20
9.627733
 30
0.0
 11
5.069676
 21
9.627733
 31
0.0
  0
ARC
  8
OBJ
 10
5.179634
 20
9.806971
 30
0.0
 40
0.179237
 50
232.158498
 51
307.841502
  0
LINE
  8
OBJ
 10
5.228027
 20
9.872749
 30
0.0
 11
5.275835
 21
9.824941
 31
0.0
  0
LINE
  8
OBJ
  6
CENTER2
 10
4.979438
 20
9.872749
 30
0.0
 11
4.979438
 21
9.824941
 31
0.0
  0
LINE
  8
OBJ
  6
CONTINUOUS
 10
5.069676
 20
9.824941
 30
0.0
 11
5.069676
 21
9.665425
 31
0.0
  0
LINE
  8
OBJ
  6
CONTINUOUS
 10
4.962108
 20
9.824941
 30
0.0
 11
4.962108
 21
9.665425
 31
0.0
  0
LINE
  8
OBJ
  6
CONTINUOUS
 10
5.289593
 20
9.824941
 30
0.0
 11
5.289593
 21
9.665425
 31
0.0
  0
LINE
  8
0
 10
4.728203
 20
9.579749
 30
0.0
 11
4.728203
 21
9.655749
 31
0.0
  0
ARC
  8
0
 10
4.788203
 20
9.655749
 30
0.0
 40
0.06
 50
90.0
 51
180.0
  0
LINE
  8
0
 10
5.397161
 20
9.715749
 30
0.0
 11
5.909203
 21
9.715749
 31
0.0
  0
LINE
  8
OBJ
 10
5.372246
 20
9.627733
 30
0.0
 11
5.389399
 21
9.650953
 31
0.0
  0
LINE
  8
OBJ
  6
CENTER2
 10
5.37983
 20
9.872749
 30
0.0
 11
5.37983
 21
9.824941
 31
0.0
  0
LINE
  8
OBJ
  6
CONTINUOUS
 10
5.397161
 20
9.824941
 30
0.0
 11
5.397161
 21
9.665425
 31
0.0
  0
ARC
  8
OBJ
 10
7.937203
 20
2.112595
 30
0.0
 40
4.120471
 50
79.786344
 51
100.213656
  0
LINE
  8
OBJ
  6
CONTINUOUS
 10
8.488948
 20
6.084066
 30
0.0
 11
7.385458
 21
6.084066
 31
0.0
  0
ARC
  8
OBJ
 10
7.937203
 20
4.831794
 30
0.0
 40
1.252272
 50
63.858144
 51
116.141856
  0
LINE
  8
OBJ
 10
7.157203
 20
6.084066
 30
0.0
 11
7.157203
 21
6.108722
 31
0.0
  0
ARC
  8
OBJ
 10
7.217203
 20
6.108722
 30
0.0
 40
0.06
 50
100.213656
 51
180.0
  0
ARC
  8
OBJ
 10
8.76482
 20
5.722961
 30
0.0
 40
0.361106
 50
40.184879
 51
139.815121
  0
LINE
  8
OBJ
 10
9.040693
 20
5.955966
 30
0.0
 11
8.917201
 21
6.084066
 31
0.0
  0
ARC
  8
OBJ
 10
8.657203
 20
6.108722
 30
0.0
 40
0.06
 50
0.0
 51
79.786344
  0
LINE
  8
OBJ
 10
8.717203
 20
6.084066
 30
0.0
 11
8.717203
 21
6.108722
 31
0.0
  0
LINE
  8
OBJ
  6
CONTINUOUS
 10
8.917201
 20
6.084066
 30
0.0
 11
8.488948
 21
6.084066
 31
0.0
  0
LINE
  8
0
 10
2.724297
 20
16.091749
 30
0.0
 11
4.962108
 21
16.091749
 31
0.0
  0
ARC
  8
0
 10
4.668203
 20
16.227749
 30
0.0
 40
0.06
 50
0.0
 51
90.0
  0
LINE
  8
0
 10
1.777203
 20
15.934749
 30
0.0
 11
5.909203
 21
15.934749
 31
0.0
  0
LINE
  8
0
 10
1.717203
 20
10.108749
 30
0.0
 11
5.969203
 21
10.108749
 31
0.0
  0
LINE
  8
0
 10
4.193915
 20
10.407419
 30
0.0
 11
7.968713
 21
10.615003
 31
0.0
  0
LINE
  8
0
 10
4.193915
 20
15.40008
 30
0.0
 11
7.968713
 21
15.192496
 31
0.0
  0
LINE
  8
0
 10
1.717203
 20
15.698749
 30
0.0
 11
5.969203
 21
15.698749
 31
0.0
  0
LINE
  8
0
 10
1.459953
 20
15.039229
 30
0.0
 11
1.459953
 21
10.76827
 31
0.0
  0
ARC
  8
0
 10
4.863206
 20
13.6668
 30
0.0
 40
4.270792
 50
161.609925
 51
181.100831
  0
LINE
  8
0
 10
1.363203
 20
10.384749
 30
0.0
 11
1.363203
 21
15.422749
 31
0.0
  0
LINE
  8
0
 10
1.678203
 20
10.304749
 30
0.0
 11
1.678203
 21
15.502749
 31
0.0
  0
LINE
  8
0
 10
1.678203
 20
10.304749
 30
0.0
 11
3.49249
 21
10.304749
 31
0.0
  0
ARC
  8
0
 10
4.863206
 20
12.140699
 30
0.0
 40
4.270792
 50
178.899169
 51
198.390075
  0
ARC
  8
0
 10
1.142647
 20
10.903749
 30
0.0
 40
0.35
 50
198.390075
 51
265.992584
  0
LINE
  8
0
 10
1.678203
 20
10.304749
 30
0.0
 11
1.443203
 21
10.304749
 31
0.0
  0
ARC
  8
0
 10
1.423203
 20
10.650544
 30
0.0
 40
0.06
 50
101.171353
 51
180.0
  0
ARC
  8
0
 10
1.399953
 20
10.76827
 30
0.0
 40
0.06
 50
281.171353
 51
0.0
  0
LINE
  8
OBJ
  6
CENTER2
 10
1.363203
 20
10.879945
 30
0.0
 11
1.315395
 21
10.879945
 31
0.0
  0
LINE
  8
OBJ
 10
1.363203
 20
10.728142
 30
0.0
 11
1.315395
 21
10.77595
 31
0.0
  0
LINE
  8
OBJ
  6
CENTER2
 10
1.363203
 20
10.479553
 30
0.0
 11
1.315395
 21
10.479553
 31
0.0
  0
LINE
  8
0
 10
1.363203
 20
10.879945
 30
0.0
 11
1.363203
 21
10.479553
 31
0.0
  0
LINE
  8
OBJ
 10
1.315395
 20
10.897276
 30
0.0
 11
1.315395
 21
10.462223
 31
0.0
  0
ARC
  8
OBJ
 10
1.297424
 20
10.679749
 30
0.0
 40
0.179237
 50
142.158498
 51
217.841502
  0
ARC
  8
OBJ
 10
1.175406
 20
10.843492
 30
0.0
 40
0.057219
 50
109.954678
 51
250.045322
  0
LINE
  8
OBJ
 10
1.118187
 20
10.789708
 30
0.0
 11
1.118187
 21
10.569791
 31
0.0
  0
LINE
  8
OBJ
 10
1.118187
 20
10.872361
 30
0.0
 11
1.118187
 21
10.789708
 31
0.0
  0
LINE
  8
OBJ
 10
1.118187
 20
10.872361
 30
0.0
 11
1.141406
 21
10.889515
 31
0.0
  0
LINE
  8
OBJ
 10
1.118187
 20
10.487138
 30
0.0
 11
1.141406
 21
10.469984
 31
0.0
  0
ARC
  8
OBJ
 10
1.175406
 20
10.516007
 30
0.0
 40
0.057219
 50
109.954678
 51
250.045322
  0
LINE
  8
OBJ
 10
1.118187
 20
10.569791
 30
0.0
 11
1.118187
 21
10.487138
 31
0.0
  0
LINE
  8
OBJ
  6
CONTINUOUS
 10
1.315395
 20
10.462223
 30
0.0
 11
1.155878
 21
10.462223
 31
0.0
  0
LINE
  8
OBJ
  6
CONTINUOUS
 10
1.315395
 20
10.569791
 30
0.0
 11
1.155878
 21
10.569791
 31
0.0
  0
LINE
  8
OBJ
  6
CONTINUOUS
 10
1.315395
 20
10.789708
 30
0.0
 11
1.155878
 21
10.789708
 31
0.0
  0
LINE
  8
OBJ
  6
CONTINUOUS
 10
1.315395
 20
10.897276
 30
0.0
 11
1.155878
 21
10.897276
 31
0.0
  0
ARC
  8
0
 10
1.443203
 20
10.384749
 30
0.0
 40
0.08
 50
180.0
 51
270.0
  0
LINE
  8
0
 10
1.678203
 20
10.304749
 30
0.0
 11
1.682203
 21
10.304749
 31
0.0
  0
ARC
  8
0
 10
1.682203
 20
10.269749
 30
0.0
 40
0.035
 50
360.0
 51
90.0
  0
LINE
  8
0
 10
1.717203
 20
10.269749
 30
0.0
 11
1.717203
 21
10.108749
 31
0.0
  0
LINE
  8
0
 10
1.678203
 20
10.304749
 30
0.0
 11
1.682203
 21
10.304749
 31
0.0
  0
LINE
  8
0
 10
1.717203
 20
10.108749
 30
0.0
 11
1.717203
 21
10.269749
 31
0.0
  0
ARC
  8
OBJ
 10
-4.056867
 20
12.903749
 30
0.0
 40
4.865069
 50
0.0
 51
3.797744
  0
LINE
  8
OBJ
 10
0.333203
 20
12.555749
 30
0.0
 11
0.333203
 21
13.251749
 31
0.0
  0
LINE
  8
OBJ
 10
0.533203
 20
12.282749
 30
0.0
 11
0.533203
 21
13.524749
 31
0.0
  0
LINE
  8
OBJ
  6
CONTINUOUS
 10
0.533203
 20
12.475749
 30
0.0
 11
0.413203
 21
12.475749
 31
0.0
  0
ARC
  8
OBJ
 10
0.413203
 20
12.555749
 30
0.0
 40
0.08
 50
180.0
 51
270.0
  0
ARC
  8
OBJ
 10
-1.689404
 20
12.746596
 30
0.0
 40
2.492397
 50
350.895399
 51
356.202256
  0
ARC
  8
OBJ
 10
0.683203
 20
12.158792
 30
0.0
 40
0.035043
 50
270.0
 51
338.848885
  0
ARC
  8
OBJ
 10
0.683203
 20
12.158792
 30
0.0
 40
0.035043
 50
201.151115
 51
270.0
  0
ARC
  8
OBJ
 10
1.599112
 20
12.513151
 30
0.0
 40
1.017112
 50
196.589699
 51
201.151115
  0
LINE
  8
OBJ
  6
CONTINUOUS
 10
0.742067
 20
12.222749
 30
0.0
 11
0.593203
 21
12.222749
 31
0.0
  0
ARC
  8
OBJ
 10
0.593203
 20
12.282749
 30
0.0
 40
0.06
 50
180.0
 51
270.0
  0
ARC
  8
OBJ
 10
-0.232707
 20
12.513151
 30
0.0
 40
1.017112
 50
338.848885
 51
350.895399
  0
ARC
  8
OBJ
 10
-4.056867
 20
12.903749
 30
0.0
 40
4.865069
 50
356.202256
 51
0.0
  0
LINE
  8
OBJ
  6
CONTINUOUS
 10
0.533203
 20
13.331749
 30
0.0
 11
0.413203
 21
13.331749
 31
0.0
  0
ARC
  8
OBJ
 10
0.413203
 20
13.251749
 30
0.0
 40
0.08
 50
90.0
 51
180.0
  0
ARC
  8
OBJ
 10
1.599112
 20
13.294348
 30
0.0
 40
1.017112
 50
158.848885
 51
163.410301
  0
ARC
  8
OBJ
 10
0.683203
 20
13.648707
 30
0.0
 40
0.035043
 50
90.0
 51
158.848885
  0
ARC
  8
OBJ
 10
0.683203
 20
13.648707
 30
0.0
 40
0.035043
 50
21.151115
 51
90.0
  0
LINE
  8
OBJ
  6
CONTINUOUS
 10
0.742067
 20
13.584749
 30
0.0
 11
0.593203
 21
13.584749
 31
0.0
  0
ARC
  8
OBJ
 10
0.593203
 20
13.524749
 30
0.0
 40
0.06
 50
90.0
 51
180.0
  0
ARC
  8
OBJ
 10
-0.232707
 20
13.294348
 30
0.0
 40
1.017112
 50
9.104601
 51
21.151115
  0
ARC
  8
OBJ
 10
-1.689404
 20
13.060903
 30
0.0
 40
2.492397
 50
3.797744
 51
9.104601
  0
ARC
  8
0
 10
3.494922
 20
9.947155
 30
0.0
 40
0.357603
 50
47.433525
 51
90.389748
  0
ARC
  8
0
 10
4.191483
 20
10.049824
 30
0.0
 40
0.357603
 50
89.610252
 51
132.566475
  0
LINE
  8
0
 10
1.118187
 20
15.402749
 30
0.0
 11
2.70348
 21
15.402749
 31
0.0
  0
LINE
  8
0
 10
1.777203
 20
16.091749
 30
0.0
 11
2.289244
 21
16.091749
 31
0.0
  0
LINE
  8
0
 10
1.678203
 20
15.502749
 30
0.0
 11
3.49249
 21
15.502749
 31
0.0
  0
ARC
  8
0
 10
1.142647
 20
14.903749
 30
0.0
 40
0.35
 50
94.007416
 51
161.609925
  0
LINE
  8
0
 10
1.363203
 20
14.927553
 30
0.0
 11
1.363203
 21
15.327945
 31
0.0
  0
LINE
  8
OBJ
 10
1.315395
 20
14.910223
 30
0.0
 11
1.315395
 21
15.345276
 31
0.0
  0
ARC
  8
OBJ
 10
1.297424
 20
15.127749
 30
0.0
 40
0.179237
 50
142.158498
 51
217.841502
  0
LINE
  8
OBJ
 10
1.118187
 20
15.017791
 30
0.0
 11
1.118187
 21
15.237708
 31
0.0
  0
ARC
  8
0
 10
1.399953
 20
15.039229
 30
0.0
 40
0.06
 50
0.0
 51
78.828647
  0
ARC
  8
0
 10
1.423203
 20
15.156955
 30
0.0
 40
0.06
 50
180.0
 51
258.828647
  0
LINE
  8
OBJ
  6
CENTER2
 10
1.363203
 20
14.929553
 30
0.0
 11
1.315395
 21
14.929553
 31
0.0
  0
LINE
  8
OBJ
 10
1.363203
 20
15.079357
 30
0.0
 11
1.315395
 21
15.031549
 31
0.0
  0
ARC
  8
OBJ
 10
1.175406
 20
14.964007
 30
0.0
 40
0.057219
 50
109.954678
 51
250.045322
  0
LINE
  8
OBJ
 10
1.118187
 20
14.935138
 30
0.0
 11
1.118187
 21
15.017791
 31
0.0
  0
LINE
  8
OBJ
 10
1.118187
 20
14.935138
 30
0.0
 11
1.141406
 21
14.917984
 31
0.0
  0
LINE
  8
OBJ
  6
CONTINUOUS
 10
1.315395
 20
15.017791
 30
0.0
 11
1.155878
 21
15.017791
 31
0.0
  0
LINE
  8
OBJ
  6
CONTINUOUS
 10
1.315395
 20
14.910223
 30
0.0
 11
1.155878
 21
14.910223
 31
0.0
  0
LINE
  8
0
 10
1.678203
 20
15.502749
 30
0.0
 11
1.443203
 21
15.502749
 31
0.0
  0
LINE
  8
OBJ
  6
CENTER2
 10
1.363203
 20
15.327945
 30
0.0
 11
1.315395
 21
15.327945
 31
0.0
  0
LINE
  8
OBJ
 10
1.118187
 20
15.320361
 30
0.0
 11
1.141406
 21
15.337515
 31
0.0
  0
ARC
  8
OBJ
 10
1.175406
 20
15.291492
 30
0.0
 40
0.057219
 50
109.954678
 51
250.045322
  0
LINE
  8
OBJ
 10
1.118187
 20
15.237708
 30
0.0
 11
1.118187
 21
15.320361
 31
0.0
  0
LINE
  8
OBJ
  6
CONTINUOUS
 10
1.315395
 20
15.345276
 30
0.0
 11
1.155878
 21
15.345276
 31
0.0
  0
LINE
  8
OBJ
  6
CONTINUOUS
 10
1.315395
 20
15.237708
 30
0.0
 11
1.155878
 21
15.237708
 31
0.0
  0
ARC
  8
0
 10
1.443203
 20
15.422749
 30
0.0
 40
0.08
 50
90.0
 51
180.0
  0
LINE
  8
0
 10
1.717203
 20
16.031749
 30
0.0
 11
1.717203
 21
15.697032
 31
0.0
  0
ARC
  8
0
 10
1.777203
 20
15.874749
 30
0.0
 40
0.06
 50
90.0
 51
180.0
  0
ARC
  8
0
 10
1.777203
 20
16.031749
 30
0.0
 40
0.06
 50
90.0
 51
180.0
  0
ARC
  8
0
 10
1.682203
 20
15.537749
 30
0.0
 40
0.035
 50
270.0
 51
0.0
  0
LINE
  8
0
 10
1.717203
 20
15.537749
 30
0.0
 11
1.717203
 21
15.698749
 31
0.0
  0
LINE
  8
0
 10
1.678203
 20
15.502749
 30
0.0
 11
1.682203
 21
15.502749
 31
0.0
  0
LINE
  8
0
 10
2.958203
 20
16.227749
 30
0.0
 11
2.958203
 21
16.151749
 31
0.0
  0
ARC
  8
0
 10
3.494922
 20
15.860344
 30
0.0
 40
0.357603
 50
269.610252
 51
312.566475
  0
LINE
  8
OBJ
 10
2.458378
 20
15.934749
 30
0.0
 11
2.41057
 21
15.982557
 31
0.0
  0
LINE
  8
OBJ
  6
CENTER2
 10
2.706967
 20
15.934749
 30
0.0
 11
2.706967
 21
15.982557
 31
0.0
  0
LINE
  8
OBJ
  6
CENTER2
 10
2.306575
 20
15.934749
 30
0.0
 11
2.306575
 21
15.982557
 31
0.0
  0
LINE
  8
OBJ
 10
2.289244
 20
15.982557
 30
0.0
 11
2.724297
 21
15.982557
 31
0.0
  0
LINE
  8
0
 10
2.306575
 20
15.934749
 30
0.0
 11
2.706967
 21
15.934749
 31
0.0
  0
LINE
  8
OBJ
 10
2.396812
 20
16.179765
 30
0.0
 11
2.616729
 21
16.179765
 31
0.0
  0
ARC
  8
OBJ
 10
2.506771
 20
16.000528
 30
0.0
 40
0.179237
 50
52.158498
 51
127.841502
  0
LINE
  8
OBJ
 10
2.616729
 20
16.179765
 30
0.0
 11
2.699382
 21
16.179765
 31
0.0
  0
ARC
  8
OBJ
 10
2.670513
 20
16.122546
 30
0.0
 40
0.057219
 50
19.954678
 51
160.045322
  0
LINE
  8
OBJ
 10
2.699382
 20
16.179765
 30
0.0
 11
2.716536
 21
16.156546
 31
0.0
  0
LINE
  8
OBJ
 10
2.314159
 20
16.179765
 30
0.0
 11
2.297006
 21
16.156546
 31
0.0
  0
LINE
  8
OBJ
 10
2.314159
 20
16.179765
 30
0.0
 11
2.396812
 21
16.179765
 31
0.0
  0
ARC
  8
OBJ
 10
2.343028
 20
16.122546
 30
0.0
 40
0.057219
 50
19.954678
 51
160.045322
  0
LINE
  8
OBJ
  6
CONTINUOUS
 10
2.289244
 20
15.982557
 30
0.0
 11
2.289244
 21
16.142074
 31
0.0
  0
LINE
  8
OBJ
  6
CONTINUOUS
 10
2.396812
 20
15.982557
 30
0.0
 11
2.396812
 21
16.142074
 31
0.0
  0
LINE
  8
OBJ
  6
CONTINUOUS
 10
2.616729
 20
15.982557
 30
0.0
 11
2.616729
 21
16.142074
 31
0.0
  0
LINE
  8
OBJ
  6
CONTINUOUS
 10
2.724297
 20
15.982557
 30
0.0
 11
2.724297
 21
16.142074
 31
0.0
  0
ARC
  8
0
 10
2.898203
 20
16.151749
 30
0.0
 40
0.06
 50
270.0
 51
0.0
  0
ARC
  8
0
 10
4.191483
 20
15.757675
 30
0.0
 40
0.357603
 50
227.433525
 51
270.389748
  0
LINE
  8
0
 10
3.371203
 20
17.643749
 30
0.0
 11
3.686203
 21
17.643749
 31
0.0
  0
LINE
  8
0
 10
3.331203
 20
16.373749
 30
0.0
 11
4.355203
 21
16.373749
 31
0.0
  0
LINE
  8
0
 10
3.431203
 20
17.703749
 30
0.0
 11
4.255203
 21
17.703749
 31
0.0
  0
LINE
  8
0
 10
3.018203
 20
16.287749
 30
0.0
 11
4.668203
 21
16.287749
 31
0.0
  0
LINE
  8
0
 10
3.371203
 20
16.373749
 30
0.0
 11
3.371203
 21
17.643749
 31
0.0
  0
LINE
  8
0
 10
3.331203
 20
16.287749
 30
0.0
 11
3.331203
 21
16.373749
 31
0.0
  0
ARC
  8
0
 10
3.018203
 20
16.227749
 30
0.0
 40
0.06
 50
90.0
 51
180.0
  0
LINE
  8
0
 10
3.371203
 20
17.643749
 30
0.0
 11
3.431203
 21
17.703749
 31
0.0
  0
LINE
  8
0
 10
4.000203
 20
16.552754
 30
0.0
 11
4.000203
 21
17.703749
 31
0.0
  0
LINE
  8
0
 10
3.686203
 20
16.552754
 30
0.0
 11
3.686203
 21
17.703749
 31
0.0
  0
LINE
  8
0
 10
4.315203
 20
16.373749
 30
0.0
 11
4.315203
 21
17.643749
 31
0.0
  0
ARC
  8
0
 10
3.843203
 20
16.552754
 30
0.0
 40
0.157
 50
180.0
 51
0.0
  0
LINE
  8
0
 10
4.355203
 20
16.287749
 30
0.0
 11
4.355203
 21
16.373749
 31
0.0
  0
LINE
  8
0
 10
4.000203
 20
17.643749
 30
0.0
 11
4.315203
 21
17.643749
 31
0.0
  0
LINE
  8
0
 10
4.315203
 20
17.643749
 30
0.0
 11
4.255203
 21
17.703749
 31
0.0
  0
LINE
  8
0
 10
9.553203
 20
9.990749
 30
0.0
 11
9.553203
 21
15.816749
 31
0.0
  0
LINE
  8
OBJ
 10
7.374703
 20
13.878028
 30
0.0
 11
6.812203
 21
12.903749
 31
0.0
  0
LINE
  8
OBJ
 10
6.812203
 20
12.903749
 30
0.0
 11
7.374703
 21
11.929471
 31
0.0
  0
CIRCLE
  8
OBJ
 10
7.937203
 20
12.903749
 30
0.0
 40
0.864576
  0
LINE
  8
0
 10
6.094203
 20
10.366132
 30
0.0
 11
8.304887
 21
10.366132
 31
0.0
  0
ARC
  8
0
 10
6.094203
 20
10.241132
 30
0.0
 40
0.125
 50
90.0
 51
180.0
  0
LINE
  8
0
 10
5.969203
 20
10.386731
 30
0.0
 11
5.969203
 21
10.108749
 31
0.0
  0
ARC
  8
0
 10
6.094203
 20
10.386731
 30
0.0
 40
0.125
 50
93.147657
 51
180.0
  0
LINE
  8
OBJ
 10
8.499703
 20
11.929471
 30
0.0
 11
9.062203
 21
12.903749
 31
0.0
  0
LINE
  8
OBJ
 10
7.374703
 20
11.929471
 30
0.0
 11
8.499703
 21
11.929471
 31
0.0
  0
ARC
  8
0
 10
8.304887
 20
10.241132
 30
0.0
 40
0.125
 50
47.720147
 51
90.0
  0
LINE
  8
0
 10
8.150628
 20
10.550347
 30
0.0
 11
8.623011
 21
10.120816
 31
0.0
  0
ARC
  8
0
 10
7.98244
 20
10.36538
 30
0.0
 40
0.25
 50
47.720147
 51
93.147657
  0
LINE
  8
0
 10
8.959387
 20
9.990749
 30
0.0
 11
9.553203
 21
9.990749
 31
0.0
  0
ARC
  8
0
 10
8.959387
 20
10.490749
 30
0.0
 40
0.5
 50
227.720147
 51
270.0
  0
LINE
  8
OBJ
 10
8.499703
 20
13.878028
 30
0.0
 11
7.374703
 21
13.878028
 31
0.0
  0
CIRCLE
  8
OBJ
 10
7.937203
 20
12.903749
 30
0.0
 40
0.055
  0
LINE
  8
OBJ
 10
9.062203
 20
12.903749
 30
0.0
 11
8.499703
 21
13.878028
 31
0.0
  0
LINE
  8
0
 10
6.094203
 20
15.441367
 30
0.0
 11
8.304887
 21
15.441367
 31
0.0
  0
LINE
  8
0
 10
4.728203
 20
16.227749
 30
0.0
 11
4.728203
 21
16.151749
 31
0.0
  0
ARC
  8
0
 10
5.909203
 20
15.874749
 30
0.0
 40
0.06
 50
0.0
 51
90.0
  0
ARC
  8
0
 10
5.909203
 20
16.031749
 30
0.0
 40
0.06
 50
0.0
 51
90.0
  0
LINE
  8
OBJ
 10
5.372246
 20
16.179765
 30
0.0
 11
5.289593
 21
16.179765
 31
0.0
  0
LINE
  8
0
 10
5.37983
 20
15.934749
 30
0.0
 11
4.979438
 21
15.934749
 31
0.0
  0
LINE
  8
OBJ
 10
5.397161
 20
15.982557
 30
0.0
 11
4.962108
 21
15.982557
 31
0.0
  0
ARC
  8
OBJ
 10
5.343377
 20
16.122546
 30
0.0
 40
0.057219
 50
19.954678
 51
160.045322
  0
LINE
  8
OBJ
 10
4.987023
 20
16.179765
 30
0.0
 11
4.969869
 21
16.156546
 31
0.0
  0
LINE
  8
OBJ
 10
5.069676
 20
16.179765
 30
0.0
 11
4.987023
 21
16.179765
 31
0.0
  0
ARC
  8
OBJ
 10
5.015892
 20
16.122546
 30
0.0
 40
0.057219
 50
19.954678
 51
160.045322
  0
ARC
  8
OBJ
 10
5.179634
 20
16.000528
 30
0.0
 40
0.179237
 50
52.158498
 51
127.841502
  0
LINE
  8
OBJ
 10
5.289593
 20
16.179765
 30
0.0
 11
5.069676
 21
16.179765
 31
0.0
  0
LINE
  8
OBJ
  6
CENTER2
 10
4.979438
 20
15.934749
 30
0.0
 11
4.979438
 21
15.982557
 31
0.0
  0
LINE
  8
OBJ
 10
5.228027
 20
15.934749
 30
0.0
 11
5.275835
 21
15.982557
 31
0.0
  0
LINE
  8
OBJ
  6
CONTINUOUS
 10
5.289593
 20
15.982557
 30
0.0
 11
5.289593
 21
16.142074
 31
0.0
  0
LINE
  8
OBJ
  6
CONTINUOUS
 10
4.962108
 20
15.982557
 30
0.0
 11
4.962108
 21
16.142074
 31
0.0
  0
LINE
  8
OBJ
  6
CONTINUOUS
 10
5.069676
 20
15.982557
 30
0.0
 11
5.069676
 21
16.142074
 31
0.0
  0
ARC
  8
0
 10
4.788203
 20
16.151749
 30
0.0
 40
0.06
 50
180.0
 51
270.0
  0
LINE
  8
0
 10
5.397161
 20
16.091749
 30
0.0
 11
5.909203
 21
16.091749
 31
0.0
  0
LINE
  8
OBJ
  6
CENTER2
 10
5.37983
 20
15.934749
 30
0.0
 11
5.37983
 21
15.982557
 31
0.0
  0
LINE
  8
OBJ
  6
CONTINUOUS
 10
5.397161
 20
15.982557
 30
0.0
 11
5.397161
 21
16.142074
 31
0.0
  0
LINE
  8
OBJ
 10
5.372246
 20
16.179765
 30
0.0
 11
5.389399
 21
16.156546
 31
0.0
  0
LINE
  8
0
 10
5.969203
 20
16.031749
 30
0.0
 11
5.969203
 21
15.698749
 31
0.0
  0
ARC
  8
0
 10
6.094203
 20
15.566367
 30
0.0
 40
0.125
 50
180.0
 51
270.0
  0
ARC
  8
0
 10
6.094203
 20
15.420768
 30
0.0
 40
0.125
 50
180.0
 51
266.852343
  0
LINE
  8
0
 10
5.969203
 20
15.420768
 30
0.0
 11
5.969203
 21
15.698749
 31
0.0
  0
ARC
  8
0
 10
8.304887
 20
15.566367
 30
0.0
 40
0.125
 50
270.0
 51
312.279853
  0
LINE
  8
0
 10
8.150628
 20
15.257152
 30
0.0
 11
8.623011
 21
15.686683
 31
0.0
  0
ARC
  8
0
 10
7.98244
 20
15.442118
 30
0.0
 40
0.25
 50
266.852343
 51
312.279853
  0
LINE
  8
0
 10
8.959387
 20
15.816749
 30
0.0
 11
9.553203
 21
15.816749
 31
0.0
  0
ARC
  8
0
 10
8.959387
 20
15.316749
 30
0.0
 40
0.5
 50
90.0
 51
132.279853
  0
LINE
  8
0
 10
11.127203
 20
9.86181
 30
0.0
 11
11.127203
 21
11.04245
 31
0.0
  0
LINE
  8
0
 10
12.228203
 20
9.92562
 30
0.0
 11
12.228203
 21
10.871285
 31
0.0
  0
LINE
  8
0
 10
13.051927
 20
2.516066
 30
0.0
 11
14.772854
 21
2.516066
 31
0.0
  0
LINE
  8
0
 10
12.912203
 20
5.768066
 30
0.0
 11
12.912203
 21
5.928066
 31
0.0
  0
LINE
  8
0
 10
11.544203
 20
5.768066
 30
0.0
 11
11.544203
 21
5.928066
 31
0.0
  0
LINE
  8
0
 10
11.982425
 20
2.516066
 30
0.0
 11
12.92809
 21
2.516066
 31
0.0
  0
LINE
  8
0
 10
11.807655
 20
1.735066
 30
0.0
 11
12.531793
 21
1.735066
 31
0.0
  0
LINE
  8
0
 10
11.511406
 20
4.861066
 30
0.0
 11
12.96098
 21
4.861066
 31
0.0
  0
LINE
  8
0
 10
11.462203
 20
5.768066
 30
0.0
 11
12.994203
 21
5.768066
 31
0.0
  0
ARC
  8
0
 10
12.228203
 20
4.861066
 30
0.0
 40
0.59
 50
200.864355
 51
339.135645
  0
CIRCLE
  8
0
 10
12.228203
 20
4.861066
 30
0.0
 40
0.563171
  0
CIRCLE
  8
0
 10
12.228203
 20
4.861066
 30
0.0
 40
0.267503
  0
CIRCLE
  8
0
 10
12.228203
 20
4.861066
 30
0.0
 40
0.335
  0
ARC
  8
0
 10
12.228203
 20
4.861066
 30
0.0
 40
0.59
 50
0.0
 51
180.0
  0
LINE
  8
0
 10
11.638203
 20
4.861066
 30
0.0
 11
11.638203
 21
3.677066
 31
0.0
  0
LINE
  8
0
 10
10.738543
 20
4.597066
 30
0.0
 11
10.738543
 21
3.175353
 31
0.0
  0
LINE
  8
0
 10
10.753203
 20
4.611726
 30
0.0
 11
10.753203
 21
3.172751
 31
0.0
  0
LINE
  8
0
 10
10.433203
 20
4.597066
 30
0.0
 11
10.433203
 21
2.940066
 31
0.0
  0
LINE
  8
0
 10
10.353203
 20
4.677066
 30
0.0
 11
10.353203
 21
2.970197
 31
0.0
  0
LINE
  8
0
 10
9.850203
 20
4.913066
 30
0.0
 11
9.850203
 21
2.441066
 31
0.0
  0
LINE
  8
0
 10
10.372542
 20
2.516066
 30
0.0
 11
10.879149
 21
2.516066
 31
0.0
  0
CIRCLE
  8
0
 10
11.127203
 20
2.516066
 30
0.0
 40
0.371391
  0
CIRCLE
  8
0
 10
11.127203
 20
2.516066
 30
0.0
 40
0.55
  0
CIRCLE
  8
0
 10
11.127203
 20
2.516066
 30
0.0
 40
0.62
  0
CIRCLE
  8
0
 10
11.127203
 20
2.516066
 30
0.0
 40
0.423
  0
LINE
  8
0
 10
10.308654
 20
2.614066
 30
0.0
 11
10.308654
 21
3.008066
 31
0.0
  0
LINE
  8
0
 10
10.273454
 20
2.614066
 30
0.0
 11
10.273454
 21
3.008066
 31
0.0
  0
LINE
  8
0
 10
10.220203
 20
2.528731
 30
0.0
 11
10.220203
 21
3.093402
 31
0.0
  0
ARC
  8
0
 10
9.682083
 20
2.811066
 30
0.0
 40
0.65681
 50
342.546337
 51
17.453663
  0
LINE
  8
0
 10
10.238285
 20
2.614066
 30
0.0
 11
10.238285
 21
3.008066
 31
0.0
  0
ARC
  8
0
 10
9.903026
 20
2.577066
 30
0.0
 40
0.090383
 50
300.345464
 51
59.654536
  0
LINE
  8
0
 10
9.915203
 20
2.441066
 30
0.0
 11
9.915203
 21
3.181066
 31
0.0
  0
ARC
  8
0
 10
10.12982
 20
2.577066
 30
0.0
 40
0.090383
 50
300.345464
 51
59.654536
  0
LINE
  8
0
 10
10.44969
 20
2.816476
 30
0.0
 11
10.515367
 21
2.415782
 31
0.0
  0
LINE
  8
0
 10
9.695463
 20
2.116929
 30
0.0
 11
10.355463
 21
2.116929
 31
0.0
  0
LINE
  8
0
 10
9.948689
 20
2.499066
 30
0.0
 11
10.175482
 21
2.499066
 31
0.0
  0
LINE
  8
0
 10
9.575463
 20
2.432808
 30
0.0
 11
9.575463
 21
2.236929
 31
0.0
  0
LINE
  8
0
 10
9.915203
 20
2.441066
 30
0.0
 11
9.948689
 21
2.499066
 31
0.0
  0
LINE
  8
0
 10
9.850203
 20
2.441066
 30
0.0
 11
9.915203
 21
2.441066
 31
0.0
  0
ARC
  8
0
 10
9.790203
 20
2.493743
 30
0.0
 40
0.06
 50
270.0
 51
0.0
  0
ARC
  8
0
 10
9.790203
 20
2.517066
 30
0.0
 40
0.06
 50
270.0
 51
360.0
  0
ARC
  8
0
 10
10.355463
 20
2.236929
 30
0.0
 40
0.12
 50
270.0
 51
0.0
  0
LINE
  8
0
 10
10.475463
 20
2.529932
 30
0.0
 11
10.475463
 21
2.236929
 31
0.0
  0
ARC
  8
0
 10
10.390616
 20
2.445073
 30
0.0
 40
0.12
 50
5.505249
 51
90.0
  0
LINE
  8
0
 10
10.220203
 20
2.565073
 30
0.0
 11
10.390616
 21
2.565073
 31
0.0
  0
LINE
  8
0
 10
10.220203
 20
2.614066
 30
0.0
 11
10.308654
 21
2.614066
 31
0.0
  0
LINE
  8
0
 10
10.175482
 20
2.499066
 30
0.0
 11
10.220203
 21
2.528731
 31
0.0
  0
LINE
  8
0
 10
9.948689
 20
2.655066
 30
0.0
 11
10.175482
 21
2.655066
 31
0.0
  0
LINE
  8
0
 10
9.948689
 20
3.123066
 30
0.0
 11
10.175482
 21
3.123066
 31
0.0
  0
LINE
  8
0
 10
9.948689
 20
2.967066
 30
0.0
 11
10.175482
 21
2.967066
 31
0.0
  0
LINE
  8
0
 10
9.970203
 20
3.542066
 30
0.0
 11
10.279758
 21
3.542066
 31
0.0
  0
LINE
  8
0
 10
9.915203
 20
3.181066
 30
0.0
 11
9.948689
 21
3.123066
 31
0.0
  0
ARC
  8
0
 10
9.903026
 20
3.045066
 30
0.0
 40
0.090383
 50
300.345464
 51
59.654536
  0
LINE
  8
0
 10
9.850203
 20
3.181066
 30
0.0
 11
9.915203
 21
3.181066
 31
0.0
  0
ARC
  8
0
 10
9.698958
 20
2.811066
 30
0.0
 40
0.294451
 50
328.00811
 51
31.99189
  0
ARC
  8
0
 10
9.970203
 20
3.422066
 30
0.0
 40
0.12
 50
90.0
 51
180.0
  0
LINE
  8
0
 10
10.220203
 20
3.008066
 30
0.0
 11
10.308654
 21
3.008066
 31
0.0
  0
ARC
  8
0
 10
9.925751
 20
2.811066
 30
0.0
 40
0.294451
 50
328.00811
 51
31.99189
  0
ARC
  8
0
 10
10.12982
 20
3.045066
 30
0.0
 40
0.090383
 50
300.345464
 51
59.654536
  0
LINE
  8
0
 10
10.175482
 20
3.123066
 30
0.0
 11
10.220203
 21
3.093402
 31
0.0
  0
ARC
  8
0
 10
10.279758
 20
3.482066
 30
0.0
 40
0.06
 50
0.0
 51
90.0
  0
ARC
  8
0
 10
10.618543
 20
3.175353
 30
0.0
 40
0.12
 50
305.714731
 51
0.0
  0
ARC
  8
0
 10
10.633203
 20
3.172751
 30
0.0
 40
0.12
 50
305.714731
 51
0.0
  0
LINE
  8
0
 10
10.688593
 20
3.077921
 30
0.0
 11
10.684772
 21
3.075175
 31
0.0
  0
ARC
  8
0
 10
10.33127
 20
2.797066
 30
0.0
 40
0.12
 50
9.30843
 51
90.0
  0
LINE
  8
0
 10
10.330284
 20
2.917066
 30
0.0
 11
10.33127
 21
2.917066
 31
0.0
  0
LINE
  8
0
 10
11.351981
 20
2.516066
 30
0.0
 11
11.869846
 21
2.516066
 31
0.0
  0
LINE
  8
0
 10
11.250128
 20
1.657066
 30
0.0
 11
11.734892
 21
1.657066
 31
0.0
  0
LINE
  8
0
 10
11.181332
 20
1.787823
 30
0.0
 11
11.190291
 21
1.712642
 31
0.0
  0
LINE
  8
0
 10
10.991728
 20
2.516066
 30
0.0
 11
11.273176
 21
2.516066
 31
0.0
  0
LINE
  8
0
 10
11.127203
 20
2.640986
 30
0.0
 11
11.127203
 21
2.377066
 31
0.0
  0
ARC
  8
0
 10
11.250128
 20
1.717066
 30
0.0
 40
0.06
 50
184.2285
 51
270.0
  0
ARC
  8
0
 10
11.061659
 20
1.778975
 30
0.0
 40
0.12
 50
4.2285
 51
84.918486
  0
LINE
  8
0
 10
11.567215
 20
1.932085
 30
0.0
 11
11.711223
 21
1.783646
 31
0.0
  0
ARC
  8
0
 10
11.470783
 20
1.860664
 30
0.0
 40
0.12
 50
36.524979
 51
117.66478
  0
ARC
  8
0
 10
11.807655
 20
1.855066
 30
0.0
 40
0.12
 50
216.524979
 51
270.0
  0
ARC
  8
0
 10
11.734892
 20
1.717066
 30
0.0
 40
0.06
 50
270.0
 51
325.481892
  0
ARC
  8
0
 10
11.883203
 20
1.615066
 30
0.0
 40
0.12
 50
90.0
 51
145.481892
  0
ARC
  8
0
 10
13.081823
 20
3.715972
 30
0.0
 40
1.444144
 50
181.543746
 51
213.112098
  0
LINE
  8
0
 10
10.753203
 20
4.611726
 30
0.0
 11
11.342203
 21
4.611726
 31
0.0
  0
LINE
  8
0
 10
10.308654
 20
4.740066
 30
0.0
 11
10.308654
 21
4.346066
 31
0.0
  0
LINE
  8
0
 10
10.273454
 20
4.740066
 30
0.0
 11
10.273454
 21
4.346066
 31
0.0
  0
ARC
  8
0
 10
9.682083
 20
4.543066
 30
0.0
 40
0.65681
 50
342.546337
 51
17.453663
  0
LINE
  8
0
 10
10.238285
 20
4.740066
 30
0.0
 11
10.238285
 21
4.346066
 31
0.0
  0
ARC
  8
0
 10
9.903026
 20
4.777066
 30
0.0
 40
0.090383
 50
300.345464
 51
59.654536
  0
ARC
  8
0
 10
10.12982
 20
4.777066
 30
0.0
 40
0.090383
 50
300.345464
 51
59.654536
  0
LINE
  8
0
 10
10.220203
 20
4.825402
 30
0.0
 11
10.220203
 21
4.260731
 31
0.0
  0
LINE
  8
0
 10
9.915203
 20
4.913066
 30
0.0
 11
9.915203
 21
4.173066
 31
0.0
  0
LINE
  8
0
 10
9.948689
 20
4.231066
 30
0.0
 11
10.175482
 21
4.231066
 31
0.0
  0
LINE
  8
0
 10
9.948689
 20
4.387066
 30
0.0
 11
10.175482
 21
4.387066
 31
0.0
  0
LINE
  8
0
 10
9.948689
 20
4.699066
 30
0.0
 11
10.175482
 21
4.699066
 31
0.0
  0
LINE
  8
0
 10
9.970203
 20
3.812066
 30
0.0
 11
10.279758
 21
3.812066
 31
0.0
  0
ARC
  8
0
 10
9.903026
 20
4.309066
 30
0.0
 40
0.090383
 50
300.345464
 51
59.654536
  0
ARC
  8
0
 10
9.698958
 20
4.543066
 30
0.0
 40
0.294451
 50
328.00811
 51
31.99189
  0
LINE
  8
0
 10
9.915203
 20
4.173066
 30
0.0
 11
9.948689
 21
4.231066
 31
0.0
  0
LINE
  8
0
 10
9.850203
 20
4.173066
 30
0.0
 11
9.915203
 21
4.173066
 31
0.0
  0
ARC
  8
0
 10
9.970203
 20
3.932066
 30
0.0
 40
0.12
 50
180.0
 51
270.0
  0
LINE
  8
0
 10
10.220203
 20
4.346066
 30
0.0
 11
10.308654
 21
4.346066
 31
0.0
  0
LINE
  8
0
 10
10.175482
 20
4.231066
 30
0.0
 11
10.220203
 21
4.260731
 31
0.0
  0
ARC
  8
0
 10
10.12982
 20
4.309066
 30
0.0
 40
0.090383
 50
300.345464
 51
59.654536
  0
ARC
  8
0
 10
9.925751
 20
4.543066
 30
0.0
 40
0.294451
 50
328.00811
 51
31.99189
  0
ARC
  8
0
 10
10.279758
 20
3.872066
 30
0.0
 40
0.06
 50
270.0
 51
0.0
  0
LINE
  8
0
 10
10.753203
 20
4.611726
 30
0.0
 11
10.738543
 21
4.597066
 31
0.0
  0
LINE
  8
0
 10
10.353203
 20
4.677066
 30
0.0
 11
10.433203
 21
4.597066
 31
0.0
  0
LINE
  8
0
 10
10.325079
 20
4.677066
 30
0.0
 11
10.353203
 21
4.677066
 31
0.0
  0
LINE
  8
0
 10
10.433203
 20
4.597066
 30
0.0
 11
10.738543
 21
4.597066
 31
0.0
  0
LINE
  8
0
 10
9.948689
 20
4.855066
 30
0.0
 11
10.175482
 21
4.855066
 31
0.0
  0
LINE
  8
0
 10
9.915203
 20
4.913066
 30
0.0
 11
9.948689
 21
4.855066
 31
0.0
  0
LINE
  8
0
 10
9.850203
 20
4.913066
 30
0.0
 11
9.915203
 21
4.913066
 31
0.0
  0
ARC
  8
0
 10
9.693194
 20
4.971332
 30
0.0
 40
0.06
 50
208.840566
 51
270.0
  0
ARC
  8
0
 10
9.790203
 20
4.851332
 30
0.0
 40
0.06
 50
0.0
 51
90.0
  0
LINE
  8
0
 10
9.693194
 20
4.911332
 30
0.0
 11
9.790203
 21
4.911332
 31
0.0
  0
ARC
  8
0
 10
9.612434
 20
4.917066
 30
0.0
 40
0.06
 50
28.840566
 51
90.0
  0
LINE
  8
0
 10
9.664992
 20
4.946009
 30
0.0
 11
9.683668
 21
4.912093
 31
0.0
  0
ARC
  8
0
 10
9.790203
 20
4.837066
 30
0.0
 40
0.06
 50
0.0
 51
90.0
  0
LINE
  8
0
 10
10.220203
 20
4.740066
 30
0.0
 11
10.308654
 21
4.740066
 31
0.0
  0
LINE
  8
0
 10
10.175482
 20
4.855066
 30
0.0
 11
10.220203
 21
4.825402
 31
0.0
  0
LINE
  8
0
 10
11.402203
 20
5.708066
 30
0.0
 11
11.402203
 21
4.671726
 31
0.0
  0
ARC
  8
0
 10
11.724148
 20
4.621461
 30
0.0
 40
0.322831
 50
185.245504
 51
247.590254
  0
ARC
  8
0
 10
11.342203
 20
4.671726
 30
0.0
 40
0.06
 50
270.0
 51
0.0
  0
ARC
  8
0
 10
11.578203
 20
4.267542
 30
0.0
 40
0.06
 50
0.0
 51
67.590254
  0
ARC
  8
0
 10
11.658203
 20
4.643811
 30
0.0
 40
0.02
 50
20.864355
 51
180.0
  0
LINE
  8
0
 10
11.402203
 20
5.708066
 30
0.0
 11
11.462203
 21
5.768066
 31
0.0
  0
LINE
  8
0
 10
12.818203
 20
4.861066
 30
0.0
 11
12.818203
 21
3.677066
 31
0.0
  0
LINE
  8
0
 10
13.253203
 20
4.347594
 30
0.0
 11
13.253203
 21
1.735066
 31
0.0
  0
ARC
  8
0
 10
13.185008
 20
1.768066
 30
0.0
 40
0.06
 50
270.0
 51
343.074089
  0
ARC
  8
0
 10
13.185008
 20
1.717066
 30
0.0
 40
0.06
 50
270.0
 51
343.074089
  0
LINE
  8
0
 10
12.584203
 20
2.766675
 30
0.0
 11
12.584203
 21
1.78124
 31
0.0
  0
ARC
  8
0
 10
12.644203
 20
1.768066
 30
0.0
 40
0.06
 50
200.487315
 51
270.0
  0
ARC
  8
0
 10
12.644203
 20
1.717066
 30
0.0
 40
0.06
 50
200.487315
 51
270.0
  0
ARC
  8
0
 10
12.531793
 20
1.675066
 30
0.0
 40
0.06
 50
20.487315
 51
90.0
  0
LINE
  8
0
 10
12.644203
 20
1.708066
 30
0.0
 11
13.185008
 21
1.708066
 31
0.0
  0
LINE
  8
0
 10
12.644203
 20
1.657066
 30
0.0
 11
13.185008
 21
1.657066
 31
0.0
  0
ARC
  8
0
 10
11.374582
 20
3.715972
 30
0.0
 40
1.444144
 50
326.887902
 51
358.456254
  0
ARC
  8
0
 10
12.544203
 20
2.766675
 30
0.0
 40
0.04
 50
0.0
 51
51.647475
  0
ARC
  8
0
 10
12.531793
 20
2.750991
 30
0.0
 40
0.06
 50
51.647475
 51
67.559458
  0
LINE
  8
0
 10
13.443203
 20
3.170066
 30
0.0
 11
13.443203
 21
1.862066
 31
0.0
  0
ARC
  8
0
 10
13.179058
 20
2.516066
 30
0.0
 40
0.699145
 50
334.589813
 51
25.410187
  0
LINE
  8
0
 10
13.878203
 20
3.063188
 30
0.0
 11
13.878203
 21
1.968945
 31
0.0
  0
LINE
  8
0
 10
13.810567
 20
1.916066
 30
0.0
 11
13.878203
 21
1.968945
 31
0.0
  0
ARC
  8
0
 10
13.678053
 20
2.066066
 30
0.0
 40
0.20015
 50
311.458173
 51
48.541827
  0
LINE
  8
0
 10
13.253203
 20
1.786066
 30
0.0
 11
13.242409
 21
1.750598
 31
0.0
  0
ARC
  8
0
 10
13.413203
 20
1.862066
 30
0.0
 40
0.03
 50
270.0
 51
360.0
  0
LINE
  8
0
 10
13.253203
 20
1.832066
 30
0.0
 11
13.413203
 21
1.832066
 31
0.0
  0
ARC
  8
0
 10
13.453203
 20
1.906066
 30
0.0
 40
0.01
 50
90.0
 51
180.0
  0
ARC
  8
0
 10
13.453203
 20
2.226066
 30
0.0
 40
0.01
 50
180.0
 51
270.0
  0
ARC
  8
0
 10
13.453203
 20
2.206066
 30
0.0
 40
0.01
 50
90.0
 51
180.0
  0
LINE
  8
0
 10
13.453203
 20
1.916066
 30
0.0
 11
13.810567
 21
1.916066
 31
0.0
  0
LINE
  8
0
 10
13.453203
 20
2.216066
 30
0.0
 11
13.810567
 21
2.216066
 31
0.0
  0
LINE
  8
0
 10
13.253203
 20
1.735066
 30
0.0
 11
13.242409
 21
1.699598
 31
0.0
  0
LINE
  8
0
 10
13.810567
 20
3.116066
 30
0.0
 11
13.878203
 21
3.063188
 31
0.0
  0
ARC
  8
0
 10
13.678053
 20
2.966066
 30
0.0
 40
0.20015
 50
311.458173
 51
48.541827
  0
ARC
  8
0
 10
13.453203
 20
2.826066
 30
0.0
 40
0.01
 50
180.0
 51
270.0
  0
ARC
  8
0
 10
13.453203
 20
2.806066
 30
0.0
 40
0.01
 50
90.0
 51
180.0
  0
ARC
  8
0
 10
13.453203
 20
3.126066
 30
0.0
 40
0.01
 50
180.0
 51
270.0
  0
LINE
  8
0
 10
13.253203
 20
3.200066
 30
0.0
 11
13.413203
 21
3.200066
 31
0.0
  0
ARC
  8
0
 10
13.413203
 20
3.170066
 30
0.0
 40
0.03
 50
0.0
 51
90.0
  0
LINE
  8
0
 10
13.453203
 20
2.816066
 30
0.0
 11
13.810567
 21
2.816066
 31
0.0
  0
LINE
  8
0
 10
13.453203
 20
3.116066
 30
0.0
 11
13.810567
 21
3.116066
 31
0.0
  0
ARC
  8
0
 10
13.133203
 20
4.347594
 30
0.0
 40
0.12
 50
0.0
 51
80.163726
  0
LINE
  8
0
 10
12.228203
 20
5.582444
 30
0.0
 11
12.228203
 21
4.140614
 31
0.0
  0
LINE
  8
0
 10
13.054203
 20
5.708066
 30
0.0
 11
13.054203
 21
4.584066
 31
0.0
  0
ARC
  8
0
 10
12.938203
 20
4.099778
 30
0.0
 40
0.12
 50
120.998295
 51
180.0
  0
ARC
  8
0
 10
12.688684
 20
4.515074
 30
0.0
 40
0.36449
 50
300.998295
 51
345.922584
  0
ARC
  8
0
 10
13.174203
 20
4.584066
 30
0.0
 40
0.12
 50
180.0
 51
260.163726
  0
ARC
  8
0
 10
12.798203
 20
4.643811
 30
0.0
 40
0.02
 50
0.0
 51
159.135645
  0
LINE
  8
0
 10
13.054203
 20
5.708066
 30
0.0
 11
12.994203
 21
5.768066
 31
0.0
  0
ARC
  8
0
 10
12.228203
 20
5.693922
 30
0.0
 40
0.699145
 50
64.589813
 51
115.410187
  0
LINE
  8
0
 10
11.574203
 20
5.958066
 30
0.0
 11
12.882203
 21
5.958066
 31
0.0
  0
LINE
  8
0
 10
11.681081
 20
6.393066
 30
0.0
 11
12.775325
 21
6.393066
 31
0.0
  0
LINE
  8
0
 10
11.628203
 20
6.32543
 30
0.0
 11
11.681081
 21
6.393066
 31
0.0
  0
ARC
  8
0
 10
11.778203
 20
6.192917
 30
0.0
 40
0.20015
 50
41.458173
 51
138.541827
  0
ARC
  8
0
 10
11.938203
 20
5.968066
 30
0.0
 40
0.01
 50
180.0
 51
270.0
  0
ARC
  8
0
 10
11.918203
 20
5.968066
 30
0.0
 40
0.01
 50
270.0
 51
0.0
  0
ARC
  8
0
 10
11.618203
 20
5.968066
 30
0.0
 40
0.01
 50
270.0
 51
0.0
  0
LINE
  8
0
 10
11.628203
 20
5.968066
 30
0.0
 11
11.628203
 21
6.32543
 31
0.0
  0
LINE
  8
0
 10
11.928203
 20
5.968066
 30
0.0
 11
11.928203
 21
6.32543
 31
0.0
  0
ARC
  8
0
 10
11.574203
 20
5.928066
 30
0.0
 40
0.03
 50
90.0
 51
180.0
  0
ARC
  8
0
 10
12.678203
 20
6.192917
 30
0.0
 40
0.20015
 50
41.458173
 51
138.541827
  0
LINE
  8
0
 10
12.228203
 20
5.859251
 30
0.0
 11
12.228203
 21
6.791829
 31
0.0
  0
ARC
  8
0
 10
12.538203
 20
5.968066
 30
0.0
 40
0.01
 50
180.0
 51
270.0
  0
ARC
  8
0
 10
12.518203
 20
5.968066
 30
0.0
 40
0.01
 50
270.0
 51
0.0
  0
LINE
  8
0
 10
12.528203
 20
5.968066
 30
0.0
 11
12.528203
 21
6.32543
 31
0.0
  0
LINE
  8
0
 10
12.828203
 20
6.32543
 30
0.0
 11
12.775325
 21
6.393066
 31
0.0
  0
ARC
  8
0
 10
12.838203
 20
5.968066
 30
0.0
 40
0.01
 50
180.0
 51
270.0
  0
LINE
  8
0
 10
12.828203
 20
5.968066
 30
0.0
 11
12.828203
 21
6.32543
 31
0.0
  0
ARC
  8
0
 10
12.882203
 20
5.928066
 30
0.0
 40
0.03
 50
0.0
 51
90.0
  0
ARC
  8
0
 10
19.090568
 20
5.743066
 30
0.0
 40
0.06
 50
90.0
 51
180.0
  0
LINE
  8
0
 10
19.266568
 20
5.803066
 30
0.0
 11
19.266568
 21
4.82803
 31
0.0
  0
LINE
  8
0
 10
18.677568
 20
4.502066
 30
0.0
 11
18.677568
 21
2.852066
 31
0.0
  0
LINE
  8
0
 10
18.873568
 20
4.795972
 30
0.0
 11
18.873568
 21
2.558161
 31
0.0
  0
LINE
  8
0
 10
19.146568
 20
3.877066
 30
0.0
 11
19.146568
 21
3.477066
 31
0.0
  0
LINE
  8
0
 10
19.146568
 20
3.877066
 30
0.0
 11
19.146568
 21
3.477066
 31
0.0
  0
LINE
  8
0
 10
19.148568
 20
4.435437
 30
0.0
 11
19.148568
 21
2.918695
 31
0.0
  0
LINE
  8
0
 10
19.030568
 20
3.293066
 30
0.0
 11
19.030568
 21
1.611066
 31
0.0
  0
LINE
  8
OBJ
  6
CENTER2
 10
19.030568
 20
2.140439
 30
0.0
 11
18.98276
 21
2.140439
 31
0.0
  0
LINE
  8
OBJ
 10
19.030568
 20
2.292242
 30
0.0
 11
18.98276
 21
2.244434
 31
0.0
  0
LINE
  8
OBJ
  6
CENTER2
 10
19.030568
 20
2.540831
 30
0.0
 11
18.98276
 21
2.540831
 31
0.0
  0
LINE
  8
OBJ
 10
18.98276
 20
2.123108
 30
0.0
 11
18.98276
 21
2.558161
 31
0.0
  0
LINE
  8
0
 10
19.030568
 20
2.140439
 30
0.0
 11
19.030568
 21
2.540831
 31
0.0
  0
LINE
  8
OBJ
 10
18.785552
 20
2.230676
 30
0.0
 11
18.785552
 21
2.450593
 31
0.0
  0
ARC
  8
OBJ
 10
18.964789
 20
2.340635
 30
0.0
 40
0.179237
 50
142.158498
 51
217.841502
  0
LINE
  8
OBJ
 10
18.785552
 20
2.148023
 30
0.0
 11
18.808772
 21
2.13087
 31
0.0
  0
ARC
  8
OBJ
 10
18.842771
 20
2.176892
 30
0.0
 40
0.057219
 50
109.954678
 51
250.045322
  0
LINE
  8
OBJ
 10
18.785552
 20
2.148023
 30
0.0
 11
18.785552
 21
2.230676
 31
0.0
  0
LINE
  8
OBJ
 10
18.785552
 20
2.533246
 30
0.0
 11
18.808772
 21
2.5504
 31
0.0
  0
ARC
  8
OBJ
 10
18.842771
 20
2.504377
 30
0.0
 40
0.057219
 50
109.954678
 51
250.045322
  0
LINE
  8
OBJ
 10
18.785552
 20
2.450593
 30
0.0
 11
18.785552
 21
2.533246
 31
0.0
  0
LINE
  8
OBJ
  6
CONTINUOUS
 10
18.98276
 20
2.123108
 30
0.0
 11
18.823243
 21
2.123108
 31
0.0
  0
LINE
  8
OBJ
  6
CONTINUOUS
 10
18.98276
 20
2.450593
 30
0.0
 11
18.823243
 21
2.450593
 31
0.0
  0
LINE
  8
OBJ
  6
CONTINUOUS
 10
18.98276
 20
2.558161
 30
0.0
 11
18.823243
 21
2.558161
 31
0.0
  0
LINE
  8
OBJ
  6
CONTINUOUS
 10
18.98276
 20
2.230676
 30
0.0
 11
18.823243
 21
2.230676
 31
0.0
  0
ARC
  8
0
 10
18.737568
 20
2.852066
 30
0.0
 40
0.06
 50
180.0
 51
270.0
  0
ARC
  8
0
 10
18.813568
 20
2.732066
 30
0.0
 40
0.06
 50
0.0
 51
90.0
  0
LINE
  8
0
 10
18.737568
 20
2.792066
 30
0.0
 11
18.813568
 21
2.792066
 31
0.0
  0
ARC
  8
0
 10
19.000568
 20
3.293066
 30
0.0
 40
0.03
 50
360.0
 51
90.0
  0
LINE
  8
0
 10
19.146568
 20
3.477066
 30
0.0
 11
19.148568
 21
3.477066
 31
0.0
  0
LINE
  8
0
 10
19.146568
 20
3.477066
 30
0.0
 11
19.148568
 21
3.477066
 31
0.0
  0
ARC
  8
0
 10
18.933568
 20
3.383066
 30
0.0
 40
0.06
 50
180.0
 51
270.0
  0
LINE
  8
0
 10
18.933568
 20
3.323066
 30
0.0
 11
19.000568
 21
3.323066
 31
0.0
  0
LINE
  8
0
 10
19.030568
 20
5.743066
 30
0.0
 11
19.030568
 21
4.061066
 31
0.0
  0
ARC
  8
0
 10
18.737568
 20
4.502066
 30
0.0
 40
0.06
 50
90.0
 51
180.0
  0
ARC
  8
0
 10
19.000568
 20
4.061066
 30
0.0
 40
0.03
 50
270.0
 51
0.0
  0
LINE
  8
0
 10
19.146568
 20
3.877066
 30
0.0
 11
19.148568
 21
3.877066
 31
0.0
  0
LINE
  8
0
 10
19.146568
 20
3.877066
 30
0.0
 11
19.148568
 21
3.877066
 31
0.0
  0
ARC
  8
0
 10
18.933568
 20
3.971066
 30
0.0
 40
0.06
 50
90.0
 51
180.0
  0
LINE
  8
0
 10
18.933568
 20
4.031066
 30
0.0
 11
19.000568
 21
4.031066
 31
0.0
  0
LINE
  8
0
 10
18.737568
 20
4.562066
 30
0.0
 11
18.813568
 21
4.562066
 31
0.0
  0
ARC
  8
0
 10
18.813568
 20
4.622066
 30
0.0
 40
0.06
 50
270.0
 51
0.0
  0
LINE
  8
OBJ
  6
CENTER2
 10
19.030568
 20
4.813302
 30
0.0
 11
18.98276
 21
4.813302
 31
0.0
  0
LINE
  8
OBJ
 10
18.785552
 20
4.820887
 30
0.0
 11
18.808772
 21
4.803733
 31
0.0
  0
LINE
  8
OBJ
 10
18.785552
 20
4.90354
 30
0.0
 11
18.785552
 21
4.820887
 31
0.0
  0
ARC
  8
OBJ
 10
18.842771
 20
4.849756
 30
0.0
 40
0.057219
 50
109.954678
 51
250.045322
  0
LINE
  8
OBJ
  6
CONTINUOUS
 10
18.98276
 20
4.795972
 30
0.0
 11
18.823243
 21
4.795972
 31
0.0
  0
LINE
  8
OBJ
  6
CONTINUOUS
 10
18.98276
 20
4.90354
 30
0.0
 11
18.823243
 21
4.90354
 31
0.0
  0
LINE
  8
OBJ
  6
CENTER2
 10
19.030568
 20
5.213694
 30
0.0
 11
18.98276
 21
5.213694
 31
0.0
  0
LINE
  8
OBJ
 10
19.030568
 20
5.061891
 30
0.0
 11
18.98276
 21
5.109699
 31
0.0
  0
ARC
  8
OBJ
 10
18.842771
 20
5.177241
 30
0.0
 40
0.057219
 50
109.954678
 51
250.045322
  0
LINE
  8
OBJ
 10
18.785552
 20
5.20611
 30
0.0
 11
18.808772
 21
5.223263
 31
0.0
  0
LINE
  8
OBJ
 10
18.785552
 20
5.20611
 30
0.0
 11
18.785552
 21
5.123457
 31
0.0
  0
LINE
  8
OBJ
  6
CONTINUOUS
 10
18.98276
 20
5.231025
 30
0.0
 11
18.823243
 21
5.231025
 31
0.0
  0
LINE
  8
OBJ
  6
CONTINUOUS
 10
18.98276
 20
5.123457
 30
0.0
 11
18.823243
 21
5.123457
 31
0.0
  0
LINE
  8
0
 10
19.030568
 20
5.213694
 30
0.0
 11
19.030568
 21
4.813302
 31
0.0
  0
LINE
  8
OBJ
 10
18.98276
 20
5.231025
 30
0.0
 11
18.98276
 21
4.795972
 31
0.0
  0
ARC
  8
OBJ
 10
18.964789
 20
5.013498
 30
0.0
 40
0.179237
 50
142.158498
 51
217.841502
  0
LINE
  8
OBJ
 10
18.785552
 20
5.123457
 30
0.0
 11
18.785552
 21
4.90354
 31
0.0
  0
LINE
  8
0
 10
19.090568
 20
5.803066
 30
0.0
 11
19.268285
 21
5.803066
 31
0.0
  0
LINE
  8
0
 10
10.753243
 20
10.552049
 30
0.0
 11
10.753243
 21
15.255449
 31
0.0
  0
LINE
  8
0
 10
10.353203
 20
10.486749
 30
0.0
 11
10.353203
 21
15.320749
 31
0.0
  0
LINE
  8
0
 10
10.433203
 20
10.566749
 30
0.0
 11
10.433203
 21
15.240749
 31
0.0
  0
LINE
  8
0
 10
10.738543
 20
10.566749
 30
0.0
 11
10.738543
 21
15.240749
 31
0.0
  0
LINE
  8
0
 10
9.638279
 20
10.893257
 30
0.0
 11
9.638279
 21
14.914242
 31
0.0
  0
LINE
  8
0
 10
9.850203
 20
9.974749
 30
0.0
 11
9.850203
 21
15.832749
 31
0.0
  0
LINE
  8
0
 10
13.253203
 20
10.708749
 30
0.0
 11
13.253203
 21
15.098749
 31
0.0
  0
ARC
  8
0
 10
12.228203
 20
14.320749
 30
0.0
 40
0.808
 50
90.0
 51
227.047722
  0
ARC
  8
0
 10
12.228203
 20
14.320749
 30
0.0
 40
0.738862
 50
90.0
 51
235.581237
  0
ARC
  8
0
 10
12.228203
 20
14.320749
 30
0.0
 40
0.808
 50
312.952278
 51
90.0
  0
ARC
  8
0
 10
12.228203
 20
14.320749
 30
0.0
 40
0.738862
 50
304.418763
 51
90.0
  0
CIRCLE
  8
0
 10
12.228203
 20
14.320749
 30
0.0
 40
0.227982
  0
CIRCLE
  8
0
 10
12.228203
 20
14.320749
 30
0.0
 40
0.33
  0
POLYLINE
  8
0
 66
     1
 10
0.0
 20
0.0
 30
0.0
 70
     1
  0
VERTEX
  8
0
 10
11.628203
 20
14.320749
 30
0.0
  0
VERTEX
  8
0
 10
11.928203
 20
13.801134
 30
0.0
  0
VERTEX
  8
0
 10
12.528203
 20
13.801134
 30
0.0
  0
VERTEX
  8
0
 10
12.828203
 20
14.320749
 30
0.0
  0
VERTEX
  8
0
 10
12.528203
 20
14.840365
 30
0.0
  0
VERTEX
  8
0
 10
11.928203
 20
14.840365
 30
0.0
  0
SEQEND
  8
0
  0
CIRCLE
  8
0
 10
12.228203
 20
14.320749
 30
0.0
 40
0.509392
  0
CIRCLE
  8
0
 10
12.228203
 20
14.320749
 30
0.0
 40
0.684
  0
LINE
  8
0
 10
13.443203
 20
14.974749
 30
0.0
 11
13.443203
 21
13.666749
 31
0.0
  0
ARC
  8
0
 10
13.179058
 20
14.320749
 30
0.0
 40
0.699145
 50
334.589813
 51
25.410187
  0
LINE
  8
0
 10
13.878203
 20
14.867871
 30
0.0
 11
13.878203
 21
13.773628
 31
0.0
  0
LINE
  8
0
 10
12.758203
 20
10.438749
 30
0.0
 11
11.698203
 21
10.438749
 31
0.0
  0
LINE
  8
0
 10
12.806937
 20
10.463749
 30
0.0
 11
11.649469
 21
10.463749
 31
0.0
  0
ARC
  8
0
 10
12.228203
 20
11.486749
 30
0.0
 40
0.808
 50
132.952278
 51
270.0
  0
ARC
  8
0
 10
12.228203
 20
11.486749
 30
0.0
 40
0.738862
 50
124.418763
 51
270.0
  0
CIRCLE
  8
0
 10
12.228203
 20
12.903749
 30
0.0
 40
0.33
  0
CIRCLE
  8
0
 10
12.228203
 20
12.903749
 30
0.0
 40
0.509392
  0
POLYLINE
  8
0
 66
     1
 10
0.0
 20
0.0
 30
0.0
 70
     1
  0
VERTEX
  8
0
 10
11.628203
 20
12.903749
 30
0.0
  0
VERTEX
  8
0
 10
11.928203
 20
12.384134
 30
0.0
  0
VERTEX
  8
0
 10
12.528203
 20
12.384134
 30
0.0
  0
VERTEX
  8
0
 10
12.828203
 20
12.903749
 30
0.0
  0
VERTEX
  8
0
 10
12.528203
 20
13.423365
 30
0.0
  0
VERTEX
  8
0
 10
11.928203
 20
13.423365
 30
0.0
  0
SEQEND
  8
0
  0
CIRCLE
  8
0
 10
12.228203
 20
11.486749
 30
0.0
 40
0.33
  0
CIRCLE
  8
0
 10
12.228203
 20
11.486749
 30
0.0
 40
0.509392
  0
POLYLINE
  8
0
 66
     1
 10
0.0
 20
0.0
 30
0.0
 70
     1
  0
VERTEX
  8
0
 10
11.628203
 20
11.486749
 30
0.0
  0
VERTEX
  8
0
 10
11.928203
 20
10.967134
 30
0.0
  0
VERTEX
  8
0
 10
12.528203
 20
10.967134
 30
0.0
  0
VERTEX
  8
0
 10
12.828203
 20
11.486749
 30
0.0
  0
VERTEX
  8
0
 10
12.528203
 20
12.006365
 30
0.0
  0
VERTEX
  8
0
 10
11.928203
 20
12.006365
 30
0.0
  0
SEQEND
  8
0
  0
CIRCLE
  8
0
 10
12.228203
 20
11.486749
 30
0.0
 40
0.684
  0
CIRCLE
  8
0
 10
12.228203
 20
12.903749
 30
0.0
 40
0.684
  0
LINE
  8
0
 10
11.578203
 20
10.552049
 30
0.0
 11
10.753243
 21
10.552049
 31
0.0
  0
LINE
  8
0
 10
9.948689
 20
10.188749
 30
0.0
 11
10.175482
 21
10.188749
 31
0.0
  0
LINE
  8
0
 10
9.948689
 20
10.500749
 30
0.0
 11
10.175482
 21
10.500749
 31
0.0
  0
LINE
  8
0
 10
9.948689
 20
10.656749
 30
0.0
 11
10.175482
 21
10.656749
 31
0.0
  0
LINE
  8
0
 10
9.948689
 20
10.032749
 30
0.0
 11
10.175482
 21
10.032749
 31
0.0
  0
ARC
  8
0
 10
9.790203
 20
10.713257
 30
0.0
 40
0.06
 50
0.0
 51
90.0
  0
ARC
  8
0
 10
9.758279
 20
10.893257
 30
0.0
 40
0.12
 50
180.0
 51
270.0
  0
LINE
  8
0
 10
9.758279
 20
10.773257
 30
0.0
 11
9.790203
 21
10.773257
 31
0.0
  0
ARC
  8
0
 10
9.903026
 20
10.110749
 30
0.0
 40
0.090383
 50
300.345464
 51
59.654536
  0
LINE
  8
0
 10
9.915203
 20
10.714749
 30
0.0
 11
9.948689
 21
10.656749
 31
0.0
  0
LINE
  8
0
 10
9.850203
 20
10.714749
 30
0.0
 11
9.915203
 21
10.714749
 31
0.0
  0
ARC
  8
0
 10
9.903026
 20
10.578749
 30
0.0
 40
0.090383
 50
300.345464
 51
59.654536
  0
ARC
  8
0
 10
9.698958
 20
10.344749
 30
0.0
 40
0.294451
 50
328.00811
 51
31.99189
  0
LINE
  8
0
 10
9.915203
 20
9.974749
 30
0.0
 11
9.915203
 21
10.714749
 31
0.0
  0
LINE
  8
0
 10
9.850203
 20
9.974749
 30
0.0
 11
9.915203
 21
9.974749
 31
0.0
  0
LINE
  8
0
 10
9.915203
 20
9.974749
 30
0.0
 11
9.948689
 21
10.032749
 31
0.0
  0
ARC
  8
0
 10
9.790203
 20
10.050749
 30
0.0
 40
0.06
 50
270.0
 51
360.0
  0
LINE
  8
0
 10
10.353203
 20
10.486749
 30
0.0
 11
10.32336
 21
10.486749
 31
0.0
  0
LINE
  8
0
 10
10.738543
 20
10.566749
 30
0.0
 11
10.753243
 21
10.552049
 31
0.0
  0
LINE
  8
0
 10
10.433203
 20
10.566749
 30
0.0
 11
10.738543
 21
10.566749
 31
0.0
  0
LINE
  8
0
 10
10.353203
 20
10.486749
 30
0.0
 11
10.433203
 21
10.566749
 31
0.0
  0
ARC
  8
0
 10
10.12982
 20
10.110749
 30
0.0
 40
0.090383
 50
300.345464
 51
59.654536
  0
LINE
  8
0
 10
10.220203
 20
10.541749
 30
0.0
 11
10.308654
 21
10.541749
 31
0.0
  0
LINE
  8
0
 10
10.175482
 20
10.656749
 30
0.0
 11
10.220203
 21
10.627085
 31
0.0
  0
ARC
  8
0
 10
10.12982
 20
10.578749
 30
0.0
 40
0.090383
 50
300.345464
 51
59.654536
  0
LINE
  8
0
 10
10.308654
 20
10.147749
 30
0.0
 11
10.308654
 21
10.541749
 31
0.0
  0
LINE
  8
0
 10
10.273454
 20
10.147749
 30
0.0
 11
10.273454
 21
10.541749
 31
0.0
  0
ARC
  8
0
 10
9.682083
 20
10.344749
 30
0.0
 40
0.65681
 50
342.546337
 51
17.453663
  0
LINE
  8
0
 10
10.238285
 20
10.147749
 30
0.0
 11
10.238285
 21
10.541749
 31
0.0
  0
ARC
  8
0
 10
9.925751
 20
10.344749
 30
0.0
 40
0.294451
 50
328.00811
 51
31.99189
  0
LINE
  8
0
 10
10.220203
 20
10.062414
 30
0.0
 11
10.220203
 21
10.627085
 31
0.0
  0
LINE
  8
0
 10
10.220203
 20
10.147749
 30
0.0
 11
10.308654
 21
10.147749
 31
0.0
  0
LINE
  8
0
 10
10.175482
 20
10.032749
 30
0.0
 11
10.220203
 21
10.062414
 31
0.0
  0
CIRCLE
  8
0
 10
10.107676
 20
11.486749
 30
0.0
 40
0.104029
  0
LINE
  8
0
 10
11.638203
 20
10.498749
 30
0.0
 11
11.638203
 21
10.506749
 31
0.0
  0
ARC
  8
0
 10
11.578203
 20
10.492049
 30
0.0
 40
0.06
 50
0.0
 51
90.0
  0
ARC
  8
0
 10
11.698203
 20
10.498749
 30
0.0
 40
0.06
 50
180.0
 51
270.0
  0
LINE
  8
0
 10
11.638203
 20
10.498749
 30
0.0
 11
11.638203
 21
10.934695
 31
0.0
  0
LINE
  8
0
 10
11.598165
 20
12.195249
 30
0.0
 11
10.426816
 21
12.195249
 31
0.0
  0
LINE
  8
0
 10
11.598165
 20
13.612249
 30
0.0
 11
10.426816
 21
13.612249
 31
0.0
  0
CIRCLE
  8
0
 10
10.107676
 20
12.903749
 30
0.0
 40
0.104029
  0
ARC
  8
0
 10
12.228203
 20
12.903749
 30
0.0
 40
0.808
 50
132.952278
 51
227.047722
  0
ARC
  8
0
 10
12.228203
 20
12.903749
 30
0.0
 40
0.738862
 50
124.418763
 51
235.581237
  0
ARC
  8
0
 10
11.568618
 20
12.195249
 30
0.0
 40
0.16
 50
312.952278
 51
47.047722
  0
ARC
  8
0
 10
11.742742
 20
12.195249
 30
0.0
 40
0.12
 50
304.418763
 51
55.581237
  0
ARC
  8
0
 10
11.568618
 20
13.612249
 30
0.0
 40
0.16
 50
312.952278
 51
47.047722
  0
ARC
  8
0
 10
11.742742
 20
13.612249
 30
0.0
 40
0.12
 50
304.418763
 51
55.581237
  0
ARC
  8
0
 10
13.067602
 20
11.927198
 30
0.0
 40
0.139945
 50
104.18289
 51
208.237655
  0
ARC
  8
0
 10
12.228203
 20
11.486749
 30
0.0
 40
0.808
 50
270.0
 51
47.047722
  0
ARC
  8
0
 10
12.228203
 20
11.486749
 30
0.0
 40
0.738862
 50
270.0
 51
55.581237
  0
LINE
  8
0
 10
13.443203
 20
12.140749
 30
0.0
 11
13.443203
 21
10.832749
 31
0.0
  0
ARC
  8
0
 10
13.678053
 20
11.936749
 30
0.0
 40
0.20015
 50
311.458173
 51
48.541827
  0
LINE
  8
0
 10
13.810567
 20
12.086749
 30
0.0
 11
13.878203
 21
12.033871
 31
0.0
  0
LINE
  8
0
 10
13.223203
 20
10.678749
 30
0.0
 11
12.818203
 21
10.678749
 31
0.0
  0
ARC
  8
0
 10
12.758203
 20
10.498749
 30
0.0
 40
0.06
 50
270.0
 51
0.0
  0
LINE
  8
0
 10
12.818203
 20
10.498749
 30
0.0
 11
12.818203
 21
10.934695
 31
0.0
  0
CIRCLE
  8
0
 10
12.228203
 20
11.486749
 30
0.0
 40
0.159588
  0
CIRCLE
  8
0
 10
12.228203
 20
11.486749
 30
0.0
 40
0.227982
  0
LINE
  8
0
 10
13.878203
 20
12.033871
 30
0.0
 11
13.878203
 21
10.939628
 31
0.0
  0
ARC
  8
0
 10
13.678053
 20
11.036749
 30
0.0
 40
0.20015
 50
311.458173
 51
48.541827
  0
LINE
  8
0
 10
13.810567
 20
10.886749
 30
0.0
 11
13.878203
 21
10.939628
 31
0.0
  0
LINE
  8
0
 10
13.253203
 20
10.708749
 30
0.0
 11
13.223203
 21
10.678749
 31
0.0
  0
ARC
  8
0
 10
13.413203
 20
10.832749
 30
0.0
 40
0.03
 50
270.0
 51
360.0
  0
ARC
  8
0
 10
13.453203
 20
10.876749
 30
0.0
 40
0.01
 50
90.0
 51
180.0
  0
LINE
  8
0
 10
13.253203
 20
10.802749
 30
0.0
 11
13.413203
 21
10.802749
 31
0.0
  0
ARC
  8
0
 10
13.453203
 20
10.876749
 30
0.0
 40
0.01
 50
90.0
 51
180.0
  0
LINE
  8
0
 10
13.453203
 20
10.886749
 30
0.0
 11
13.810567
 21
10.886749
 31
0.0
  0
ARC
  8
0
 10
13.179058
 20
11.486749
 30
0.0
 40
0.699145
 50
334.589813
 51
25.410187
  0
ARC
  8
0
 10
13.453203
 20
11.196749
 30
0.0
 40
0.01
 50
180.0
 51
270.0
  0
ARC
  8
0
 10
13.453203
 20
11.176749
 30
0.0
 40
0.01
 50
90.0
 51
180.0
  0
LINE
  8
0
 10
13.453203
 20
11.186749
 30
0.0
 11
13.810567
 21
11.186749
 31
0.0
  0
ARC
  8
0
 10
13.453203
 20
11.796749
 30
0.0
 40
0.01
 50
180.0
 51
270.0
  0
LINE
  8
0
 10
13.453203
 20
11.786749
 30
0.0
 11
13.810567
 21
11.786749
 31
0.0
  0
ARC
  8
0
 10
13.453203
 20
11.776749
 30
0.0
 40
0.01
 50
90.0
 51
180.0
  0
ARC
  8
0
 10
12.228203
 20
12.903749
 30
0.0
 40
0.808
 50
312.952278
 51
47.047722
  0
ARC
  8
0
 10
12.228203
 20
12.903749
 30
0.0
 40
0.738862
 50
304.418763
 51
55.581237
  0
CIRCLE
  8
0
 10
12.228203
 20
12.903749
 30
0.0
 40
0.227982
  0
ARC
  8
0
 10
12.713664
 20
12.195249
 30
0.0
 40
0.12
 50
124.418763
 51
235.581237
  0
CIRCLE
  8
0
 10
12.228203
 20
12.903749
 30
0.0
 40
0.159588
  0
LINE
  8
0
 10
13.036368
 20
12.062878
 30
0.0
 11
13.173768
 21
12.062878
 31
0.0
  0
LINE
  8
0
 10
13.036368
 20
12.327621
 30
0.0
 11
13.173768
 21
12.327621
 31
0.0
  0
ARC
  8
0
 10
13.067602
 20
12.463301
 30
0.0
 40
0.139945
 50
151.762345
 51
255.81711
  0
ARC
  8
0
 10
12.887787
 20
12.195249
 30
0.0
 40
0.16
 50
132.952278
 51
227.047722
  0
LINE
  8
OBJ
 10
13.209203
 20
12.081749
 30
0.0
 11
13.208203
 21
12.081749
 31
0.0
  0
ARC
  8
0
 10
12.713664
 20
13.612249
 30
0.0
 40
0.12
 50
124.418763
 51
235.581237
  0
LINE
  8
0
 10
13.036368
 20
13.479878
 30
0.0
 11
13.173768
 21
13.479878
 31
0.0
  0
ARC
  8
0
 10
13.067602
 20
13.344198
 30
0.0
 40
0.139945
 50
104.18289
 51
208.237655
  0
LINE
  8
0
 10
13.036368
 20
13.744621
 30
0.0
 11
13.173768
 21
13.744621
 31
0.0
  0
ARC
  8
0
 10
13.067602
 20
13.880301
 30
0.0
 40
0.139945
 50
151.762345
 51
255.81711
  0
ARC
  8
0
 10
12.887787
 20
13.612249
 30
0.0
 40
0.16
 50
132.952278
 51
227.047722
  0
LINE
  8
0
 10
13.878203
 20
13.450871
 30
0.0
 11
13.878203
 21
12.356628
 31
0.0
  0
ARC
  8
0
 10
13.179058
 20
12.903749
 30
0.0
 40
0.699145
 50
334.589813
 51
25.410187
  0
LINE
  8
0
 10
13.443203
 20
13.557749
 30
0.0
 11
13.443203
 21
12.249749
 31
0.0
  0
ARC
  8
0
 10
13.678053
 20
12.453749
 30
0.0
 40
0.20015
 50
311.458173
 51
48.541827
  0
LINE
  8
0
 10
13.810567
 20
12.303749
 30
0.0
 11
13.878203
 21
12.356628
 31
0.0
  0
ARC
  8
0
 10
13.413203
 20
12.249749
 30
0.0
 40
0.03
 50
270.0
 51
360.0
  0
ARC
  8
0
 10
13.453203
 20
12.293749
 30
0.0
 40
0.01
 50
90.0
 51
180.0
  0
LINE
  8
0
 10
13.453203
 20
12.303749
 30
0.0
 11
13.810567
 21
12.303749
 31
0.0
  0
ARC
  8
0
 10
13.453203
 20
12.613749
 30
0.0
 40
0.01
 50
180.0
 51
270.0
  0
ARC
  8
0
 10
13.453203
 20
12.593749
 30
0.0
 40
0.01
 50
90.0
 51
180.0
  0
LINE
  8
0
 10
13.453203
 20
12.603749
 30
0.0
 11
13.810567
 21
12.603749
 31
0.0
  0
LINE
  8
0
 10
13.253203
 20
12.219749
 30
0.0
 11
13.413203
 21
12.219749
 31
0.0
  0
ARC
  8
0
 10
13.413203
 20
12.140749
 30
0.0
 40
0.03
 50
0.0
 51
90.0
  0
LINE
  8
0
 10
13.253203
 20
12.170749
 30
0.0
 11
13.413203
 21
12.170749
 31
0.0
  0
ARC
  8
0
 10
13.453203
 20
12.096749
 30
0.0
 40
0.01
 50
180.0
 51
270.0
  0
LINE
  8
0
 10
13.453203
 20
12.086749
 30
0.0
 11
13.810567
 21
12.086749
 31
0.0
  0
ARC
  8
0
 10
13.678053
 20
13.870749
 30
0.0
 40
0.20015
 50
311.458173
 51
48.541827
  0
LINE
  8
0
 10
13.810567
 20
13.720749
 30
0.0
 11
13.878203
 21
13.773628
 31
0.0
  0
ARC
  8
0
 10
13.678053
 20
13.353749
 30
0.0
 40
0.20015
 50
311.458173
 51
48.541827
  0
LINE
  8
0
 10
13.810567
 20
13.503749
 30
0.0
 11
13.878203
 21
13.450871
 31
0.0
  0
LINE
  8
0
 10
13.453203
 20
13.720749
 30
0.0
 11
13.810567
 21
13.720749
 31
0.0
  0
ARC
  8
0
 10
13.453203
 20
14.010749
 30
0.0
 40
0.01
 50
90.0
 51
180.0
  0
ARC
  8
0
 10
13.453203
 20
14.030749
 30
0.0
 40
0.01
 50
180.0
 51
270.0
  0
LINE
  8
0
 10
13.453203
 20
14.020749
 30
0.0
 11
13.810567
 21
14.020749
 31
0.0
  0
ARC
  8
0
 10
13.453203
 20
13.710749
 30
0.0
 40
0.01
 50
90.0
 51
180.0
  0
ARC
  8
0
 10
13.413203
 20
13.666749
 30
0.0
 40
0.03
 50
270.0
 51
360.0
  0
ARC
  8
0
 10
13.413203
 20
13.557749
 30
0.0
 40
0.03
 50
0.0
 51
90.0
  0
ARC
  8
0
 10
13.453203
 20
13.513749
 30
0.0
 40
0.01
 50
180.0
 51
270.0
  0
LINE
  8
0
 10
13.253203
 20
13.636749
 30
0.0
 11
13.413203
 21
13.636749
 31
0.0
  0
LINE
  8
0
 10
13.253203
 20
13.587749
 30
0.0
 11
13.413203
 21
13.587749
 31
0.0
  0
ARC
  8
0
 10
13.453203
 20
13.213749
 30
0.0
 40
0.01
 50
180.0
 51
270.0
  0
ARC
  8
0
 10
13.453203
 20
13.193749
 30
0.0
 40
0.01
 50
90.0
 51
180.0
  0
LINE
  8
0
 10
13.453203
 20
13.203749
 30
0.0
 11
13.810567
 21
13.203749
 31
0.0
  0
LINE
  8
0
 10
13.453203
 20
13.503749
 30
0.0
 11
13.810567
 21
13.503749
 31
0.0
  0
LINE
  8
0
 10
12.758203
 20
15.368749
 30
0.0
 11
11.698203
 21
15.368749
 31
0.0
  0
LINE
  8
0
 10
12.806937
 20
15.343749
 30
0.0
 11
11.649469
 21
15.343749
 31
0.0
  0
LINE
  8
0
 10
11.578203
 20
15.255449
 30
0.0
 11
10.753243
 21
15.255449
 31
0.0
  0
LINE
  8
0
 10
10.175482
 20
15.150749
 30
0.0
 11
10.220203
 21
15.180414
 31
0.0
  0
LINE
  8
0
 10
9.915203
 20
15.832749
 30
0.0
 11
9.915203
 21
15.092749
 31
0.0
  0
ARC
  8
0
 10
9.903026
 20
15.228749
 30
0.0
 40
0.090383
 50
300.345464
 51
59.654536
  0
ARC
  8
0
 10
10.12982
 20
15.228749
 30
0.0
 40
0.090383
 50
300.345464
 51
59.654536
  0
CIRCLE
  8
0
 10
10.107676
 20
14.320749
 30
0.0
 40
0.104029
  0
LINE
  8
0
 10
9.948689
 20
15.150749
 30
0.0
 11
10.175482
 21
15.150749
 31
0.0
  0
ARC
  8
0
 10
9.790203
 20
15.094242
 30
0.0
 40
0.06
 50
270.0
 51
0.0
  0
ARC
  8
0
 10
9.758279
 20
14.914242
 30
0.0
 40
0.12
 50
90.0
 51
180.0
  0
LINE
  8
0
 10
9.758279
 20
15.034242
 30
0.0
 11
9.790203
 21
15.034242
 31
0.0
  0
LINE
  8
0
 10
9.915203
 20
15.092749
 30
0.0
 11
9.948689
 21
15.150749
 31
0.0
  0
LINE
  8
0
 10
9.850203
 20
15.092749
 30
0.0
 11
9.915203
 21
15.092749
 31
0.0
  0
LINE
  8
0
 10
9.948689
 20
15.306749
 30
0.0
 11
10.175482
 21
15.306749
 31
0.0
  0
LINE
  8
0
 10
9.948689
 20
15.774749
 30
0.0
 11
10.175482
 21
15.774749
 31
0.0
  0
LINE
  8
0
 10
9.948689
 20
15.618749
 30
0.0
 11
10.175482
 21
15.618749
 31
0.0
  0
LINE
  8
0
 10
9.850203
 20
15.832749
 30
0.0
 11
9.915203
 21
15.832749
 31
0.0
  0
ARC
  8
0
 10
9.698958
 20
15.462749
 30
0.0
 40
0.294451
 50
328.00811
 51
31.99189
  0
ARC
  8
0
 10
9.903026
 20
15.696749
 30
0.0
 40
0.090383
 50
300.345464
 51
59.654536
  0
LINE
  8
0
 10
9.915203
 20
15.832749
 30
0.0
 11
9.948689
 21
15.774749
 31
0.0
  0
ARC
  8
0
 10
9.790203
 20
15.756749
 30
0.0
 40
0.06
 50
0.0
 51
90.0
  0
LINE
  8
0
 10
10.738543
 20
15.240749
 30
0.0
 11
10.753243
 21
15.255449
 31
0.0
  0
LINE
  8
0
 10
10.433203
 20
15.240749
 30
0.0
 11
10.738543
 21
15.240749
 31
0.0
  0
LINE
  8
0
 10
10.353203
 20
15.320749
 30
0.0
 11
10.433203
 21
15.240749
 31
0.0
  0
LINE
  8
0
 10
10.353203
 20
15.320749
 30
0.0
 11
10.32336
 21
15.320749
 31
0.0
  0
LINE
  8
0
 10
10.308654
 20
15.659749
 30
0.0
 11
10.308654
 21
15.265749
 31
0.0
  0
LINE
  8
0
 10
10.273454
 20
15.659749
 30
0.0
 11
10.273454
 21
15.265749
 31
0.0
  0
ARC
  8
0
 10
9.682083
 20
15.462749
 30
0.0
 40
0.65681
 50
342.546337
 51
17.453663
  0
LINE
  8
0
 10
10.238285
 20
15.659749
 30
0.0
 11
10.238285
 21
15.265749
 31
0.0
  0
ARC
  8
0
 10
9.925751
 20
15.462749
 30
0.0
 40
0.294451
 50
328.00811
 51
31.99189
  0
LINE
  8
0
 10
10.220203
 20
15.265749
 30
0.0
 11
10.308654
 21
15.265749
 31
0.0
  0
LINE
  8
0
 10
10.220203
 20
15.659749
 30
0.0
 11
10.308654
 21
15.659749
 31
0.0
  0
LINE
  8
0
 10
10.175482
 20
15.774749
 30
0.0
 11
10.220203
 21
15.745085
 31
0.0
  0
ARC
  8
0
 10
10.12982
 20
15.696749
 30
0.0
 40
0.090383
 50
300.345464
 51
59.654536
  0
LINE
  8
0
 10
10.220203
 20
15.745085
 30
0.0
 11
10.220203
 21
15.180414
 31
0.0
  0
LINE
  8
0
 10
11.127203
 20
15.945689
 30
0.0
 11
11.127203
 21
14.765049
 31
0.0
  0
LINE
  8
0
 10
11.638203
 20
15.308749
 30
0.0
 11
11.638203
 21
14.896009
 31
0.0
  0
ARC
  8
0
 10
11.578203
 20
14.896009
 30
0.0
 40
0.06
 50
318.49068
 51
0.0
  0
ARC
  8
0
 10
11.578203
 20
15.315449
 30
0.0
 40
0.06
 50
270.0
 51
0.0
  0
LINE
  8
0
 10
11.638203
 20
15.308749
 30
0.0
 11
11.638203
 21
15.300749
 31
0.0
  0
ARC
  8
0
 10
11.698203
 20
15.308749
 30
0.0
 40
0.06
 50
90.0
 51
180.0
  0
LINE
  8
0
 10
13.223203
 20
15.128749
 30
0.0
 11
12.818203
 21
15.128749
 31
0.0
  0
LINE
  8
0
 10
12.818203
 20
15.308749
 30
0.0
 11
12.818203
 21
14.872804
 31
0.0
  0
LINE
  8
0
 10
12.228203
 20
15.881879
 30
0.0
 11
12.228203
 21
14.936214
 31
0.0
  0
CIRCLE
  8
0
 10
12.228203
 20
14.320749
 30
0.0
 40
0.159588
  0
ARC
  8
0
 10
12.758203
 20
15.308749
 30
0.0
 40
0.06
 50
0.0
 51
90.0
  0
ARC
  8
0
 10
13.678053
 20
14.770749
 30
0.0
 40
0.20015
 50
311.458173
 51
48.541827
  0
LINE
  8
0
 10
13.810567
 20
14.920749
 30
0.0
 11
13.878203
 21
14.867871
 31
0.0
  0
LINE
  8
0
 10
13.253203
 20
15.098749
 30
0.0
 11
13.223203
 21
15.128749
 31
0.0
  0
ARC
  8
0
 10
13.413203
 20
14.974749
 30
0.0
 40
0.03
 50
0.0
 51
90.0
  0
LINE
  8
0
 10
13.253203
 20
15.004749
 30
0.0
 11
13.413203
 21
15.004749
 31
0.0
  0
ARC
  8
0
 10
13.453203
 20
14.930749
 30
0.0
 40
0.01
 50
180.0
 51
270.0
  0
ARC
  8
0
 10
13.453203
 20
14.610749
 30
0.0
 40
0.01
 50
90.0
 51
180.0
  0
ARC
  8
0
 10
13.453203
 20
14.630749
 30
0.0
 40
0.01
 50
180.0
 51
270.0
  0
LINE
  8
0
 10
13.453203
 20
14.920749
 30
0.0
 11
13.810567
 21
14.920749
 31
0.0
  0
LINE
  8
0
 10
13.453203
 20
14.620749
 30
0.0
 11
13.810567
 21
14.620749
 31
0.0
  0
ARC
  8
0
 10
25.032568
 20
1.611066
 30
0.0
 40
0.06
 50
270.0
 51
0.0
  0
LINE
  8
0
 10
24.091568
 20
1.896066
 30
0.0
 11
24.091568
 21
1.187066
 31
0.0
  0
LINE
  8
0
 10
23.242568
 20
1.693073
 30
0.0
 11
23.242568
 21
0.527066
 31
0.0
  0
ARC
  8
0
 10
23.478568
 20
2.516066
 30
0.0
 40
0.808
 50
222.952278
 51
0.0
  0
ARC
  8
0
 10
23.478568
 20
2.516066
 30
0.0
 40
0.738862
 50
214.418763
 51
0.0
  0
LINE
  8
0
 10
24.856568
 20
2.526103
 30
0.0
 11
24.856568
 21
1.551066
 31
0.0
  0
LINE
  8
0
 10
22.271568
 20
1.664537
 30
0.0
 11
22.271568
 21
0.942066
 31
0.0
  0
LINE
  8
0
 10
21.851568
 20
1.664537
 30
0.0
 11
21.851568
 21
0.942066
 31
0.0
  0
LINE
  8
0
 10
20.880568
 20
1.693073
 30
0.0
 11
20.880568
 21
0.527066
 31
0.0
  0
LINE
  8
0
 10
20.031568
 20
1.896066
 30
0.0
 11
20.031568
 21
1.187066
 31
0.0
  0
ARC
  8
0
 10
20.644568
 20
2.516066
 30
0.0
 40
0.808
 50
180.0
 51
317.047722
  0
ARC
  8
0
 10
20.644568
 20
2.516066
 30
0.0
 40
0.738862
 50
180.0
 51
325.581237
  0
ARC
  8
0
 10
22.578214
 20
15.120163
 30
0.0
 40
13.853734
 50
276.271389
 51
277.18813
  0
LINE
  8
0
 10
21.435638
 20
0.942066
 30
0.0
 11
22.687497
 21
0.942066
 31
0.0
  0
LINE
  8
0
 10
20.191568
 20
0.527066
 30
0.0
 11
20.880568
 21
0.527066
 31
0.0
  0
LINE
  8
0
 10
20.191568
 20
1.187066
 30
0.0
 11
20.191568
 21
0.527066
 31
0.0
  0
ARC
  8
0
 10
21.544921
 20
15.120163
 30
0.0
 40
13.853734
 50
262.81187
 51
263.728611
  0
ARC
  8
0
 10
19.635477
 20
1.451316
 30
0.0
 40
0.099928
 50
40.170821
 51
86.585396
  0
ARC
  8
0
 10
19.837568
 20
1.649066
 30
0.0
 40
0.275
 50
200.877042
 51
264.547201
  0
LINE
  8
0
 10
20.031568
 20
1.187066
 30
0.0
 11
20.191568
 21
1.187066
 31
0.0
  0
LINE
  8
0
 10
20.930568
 20
0.665934
 30
0.0
 11
21.385638
 21
0.928669
 31
0.0
  0
ARC
  8
0
 10
20.980568
 20
0.579331
 30
0.0
 40
0.1
 50
120.0
 51
180.0
  0
ARC
  8
0
 10
21.435638
 20
0.842066
 30
0.0
 40
0.1
 50
90.0
 51
120.0
  0
LINE
  8
0
 10
23.192568
 20
0.665934
 30
0.0
 11
22.737497
 21
0.928669
 31
0.0
  0
ARC
  8
0
 10
22.687497
 20
0.842066
 30
0.0
 40
0.1
 50
60.0
 51
90.0
  0
LINE
  8
0
 10
23.931568
 20
1.187066
 30
0.0
 11
23.931568
 21
0.527066
 31
0.0
  0
LINE
  8
0
 10
23.931568
 20
0.527066
 30
0.0
 11
23.242568
 21
0.527066
 31
0.0
  0
ARC
  8
0
 10
23.142568
 20
0.579331
 30
0.0
 40
0.1
 50
0.0
 51
60.0
  0
LINE
  8
0
 10
24.091568
 20
1.187066
 30
0.0
 11
23.931568
 21
1.187066
 31
0.0
  0
LINE
  8
0
 10
24.85485
 20
1.551066
 30
0.0
 11
24.481706
 21
1.551066
 31
0.0
  0
ARC
  8
0
 10
24.487658
 20
1.451316
 30
0.0
 40
0.099928
 50
93.414604
 51
139.829179
  0
ARC
  8
0
 10
24.285568
 20
1.649066
 30
0.0
 40
0.275
 50
275.452799
 51
339.122958
  0
LINE
  8
0
 10
25.032568
 20
1.551066
 30
0.0
 11
24.856568
 21
1.551066
 31
0.0
  0
ARC
  8
0
 10
24.131568
 20
1.956066
 30
0.0
 40
0.06
 50
270.0
 51
0.0
  0
LINE
  8
0
 10
24.689782
 20
2.516066
 30
0.0
 11
23.744117
 21
2.516066
 31
0.0
  0
ARC
  8
0
 10
24.404779
 20
4.722256
 30
0.0
 40
0.375
 50
180.0
 51
226.642747
  0
ARC
  8
0
 10
23.84243
 20
3.972594
 30
0.0
 40
0.375
 50
0.0
 51
90.0
  0
LINE
  8
0
 10
23.776781
 20
4.861066
 30
0.0
 11
25.226354
 21
4.861066
 31
0.0
  0
CIRCLE
  8
0
 10
23.478568
 20
2.516066
 30
0.0
 40
0.684
  0
ARC
  8
0
 10
24.132568
 20
5.928066
 30
0.0
 40
0.03
 50
0.0
 51
90.0
  0
ARC
  8
0
 10
22.578214
 20
-7.76603
 30
0.0
 40
13.853734
 50
82.81187
 51
83.782696
  0
LINE
  8
0
 10
19.896568
 20
5.768066
 30
0.0
 11
24.226568
 21
5.768066
 31
0.0
  0
ARC
  8
0
 10
24.830265
 20
4.860267
 30
0.0
 40
0.800488
 50
134.022776
 51
180.13838
  0
LINE
  8
0
 10
22.745568
 20
5.768066
 30
0.0
 11
22.745568
 21
5.928066
 31
0.0
  0
LINE
  8
0
 10
22.794568
 20
5.768066
 30
0.0
 11
22.794568
 21
5.928066
 31
0.0
  0
LINE
  8
0
 10
21.328568
 20
5.768066
 30
0.0
 11
21.328568
 21
5.928066
 31
0.0
  0
LINE
  8
0
 10
21.377568
 20
5.768066
 30
0.0
 11
21.377568
 21
5.928066
 31
0.0
  0
LINE
  8
0
 10
19.960568
 20
5.768066
 30
0.0
 11
19.960568
 21
5.928066
 31
0.0
  0
ARC
  8
0
 10
22.061568
 20
2.516066
 30
0.0
 40
0.808
 50
222.952278
 51
317.047722
  0
ARC
  8
0
 10
22.061568
 20
6.087631
 30
0.0
 40
1.546613
 50
253.998596
 51
286.001404
  0
ARC
  8
0
 10
21.728068
 20
3.972594
 30
0.0
 40
0.375
 50
90.0
 51
138.590378
  0
CIRCLE
  8
0
 10
22.061568
 20
2.516066
 30
0.0
 40
0.509392
  0
POLYLINE
  8
0
 66
     1
 10
0.0
 20
0.0
 30
0.0
 70
     1
  0
VERTEX
  8
0
 10
22.061568
 20
3.116066
 30
0.0
  0
VERTEX
  8
0
 10
21.541952
 20
2.816066
 30
0.0
  0
VERTEX
  8
0
 10
21.541952
 20
2.216066
 30
0.0
  0
VERTEX
  8
0
 10
22.061568
 20
1.916066
 30
0.0
  0
VERTEX
  8
0
 10
22.581183
 20
2.216066
 30
0.0
  0
VERTEX
  8
0
 10
22.581183
 20
2.816066
 30
0.0
  0
SEQEND
  8
0
  0
CIRCLE
  8
0
 10
22.061568
 20
2.516066
 30
0.0
 40
0.684
  0
ARC
  8
0
 10
22.061568
 20
2.516066
 30
0.0
 40
0.738862
 50
214.418763
 51
325.581237
  0
LINE
  8
0
 10
19.905705
 20
2.516066
 30
0.0
 11
19.905705
 21
3.972594
 31
0.0
  0
LINE
  8
0
 10
19.596568
 20
3.464059
 30
0.0
 11
19.596568
 21
4.663811
 31
0.0
  0
LINE
  8
0
 10
19.836568
 20
2.516066
 30
0.0
 11
19.836605
 21
4.126699
 31
0.0
  0
LINE
  8
0
 10
20.825574
 20
1.657066
 30
0.0
 11
20.463561
 21
1.657066
 31
0.0
  0
CIRCLE
  8
0
 10
20.644568
 20
2.516066
 30
0.0
 40
0.33
  0
CIRCLE
  8
0
 10
20.644568
 20
2.516066
 30
0.0
 40
0.227982
  0
CIRCLE
  8
0
 10
20.644568
 20
2.516066
 30
0.0
 40
0.159588
  0
POLYLINE
  8
0
 66
     1
 10
0.0
 20
0.0
 30
0.0
 70
     1
  0
VERTEX
  8
0
 10
20.644568
 20
3.116066
 30
0.0
  0
VERTEX
  8
0
 10
20.124952
 20
2.816066
 30
0.0
  0
VERTEX
  8
0
 10
20.124952
 20
2.216066
 30
0.0
  0
VERTEX
  8
0
 10
20.644568
 20
1.916066
 30
0.0
  0
VERTEX
  8
0
 10
21.164183
 20
2.216066
 30
0.0
  0
VERTEX
  8
0
 10
21.164183
 20
2.816066
 30
0.0
  0
SEQEND
  8
0
  0
CIRCLE
  8
0
 10
20.644568
 20
2.516066
 30
0.0
 40
0.509392
  0
CIRCLE
  8
0
 10
20.644568
 20
2.516066
 30
0.0
 40
0.684
  0
CIRCLE
  8
0
 10
19.502568
 20
2.811066
 30
0.0
 40
0.164073
  0
CIRCLE
  8
0
 10
19.502568
 20
2.811066
 30
0.0
 40
0.197
  0
LINE
  8
0
 10
19.433353
 20
2.516066
 30
0.0
 11
20.379018
 21
2.516066
 31
0.0
  0
LINE
  8
0
 10
19.838725
 20
2.457066
 30
0.0
 11
19.610197
 21
2.457066
 31
0.0
  0
ARC
  8
0
 10
20.463561
 20
1.717066
 30
0.0
 40
0.06
 50
187.425504
 51
270.0
  0
ARC
  8
0
 10
20.344568
 20
1.701558
 30
0.0
 40
0.06
 50
7.425504
 51
69.780223
  0
ARC
  8
0
 10
19.991568
 20
1.956066
 30
0.0
 40
0.06
 50
180.0
 51
270.0
  0
LINE
  8
0
 10
19.991568
 20
1.896066
 30
0.0
 11
20.126432
 21
1.896066
 31
0.0
  0
LINE
  8
0
 10
19.931568
 20
2.135941
 30
0.0
 11
19.931568
 21
1.956066
 31
0.0
  0
ARC
  8
0
 10
19.971568
 20
3.464059
 30
0.0
 40
0.375
 50
180.0
 51
208.518159
  0
LINE
  8
0
 10
19.836568
 20
2.927066
 30
0.0
 11
19.642068
 21
3.28502
 31
0.0
  0
ARC
  8
0
 10
20.825574
 20
1.717066
 30
0.0
 40
0.06
 50
270.0
 51
352.574496
  0
ARC
  8
0
 10
20.944568
 20
1.701558
 30
0.0
 40
0.06
 50
110.219777
 51
172.574496
  0
ARC
  8
0
 10
21.353068
 20
1.856482
 30
0.0
 40
0.16
 50
42.952278
 51
137.047722
  0
ARC
  8
0
 10
21.353068
 20
2.030606
 30
0.0
 40
0.12
 50
34.418763
 51
145.581237
  0
LINE
  8
0
 10
20.280705
 20
4.347594
 30
0.0
 11
20.978068
 21
4.347594
 31
0.0
  0
ARC
  8
0
 10
20.644568
 20
6.087631
 30
0.0
 40
1.546613
 50
257.93258
 51
286.001404
  0
LINE
  8
0
 10
20.093356
 20
4.858334
 30
0.0
 11
20.093356
 21
4.722256
 31
0.0
  0
ARC
  8
0
 10
19.502568
 20
4.543066
 30
0.0
 40
0.197
 50
52.838704
 51
298.499909
  0
LINE
  8
0
 10
19.621568
 20
4.663811
 30
0.0
 11
19.621568
 21
5.4398
 31
0.0
  0
ARC
  8
0
 10
20.280705
 20
3.972594
 30
0.0
 40
0.375
 50
90.0
 51
180.0
  0
ARC
  8
0
 10
20.280705
 20
4.126699
 30
0.0
 40
0.4441
 50
133.357253
 51
180.0
  0
LINE
  8
0
 10
19.596568
 20
4.663811
 30
0.0
 11
19.621568
 21
4.663811
 31
0.0
  0
LINE
  8
0
 10
19.596568
 20
4.663811
 30
0.0
 11
19.621568
 21
4.663811
 31
0.0
  0
ARC
  8
0
 10
19.502568
 20
4.543066
 30
0.0
 40
0.164073
 50
47.385015
 51
304.953871
  0
ARC
  8
0
 10
20.272796
 20
4.213598
 30
0.0
 40
0.364825
 50
82.371145
 51
120.467468
  0
ARC
  8
0
 10
19.718356
 20
4.722256
 30
0.0
 40
0.375
 50
313.357253
 51
0.0
  0
LINE
  8
0
 10
19.836568
 20
5.708066
 30
0.0
 11
19.896568
 21
5.768066
 31
0.0
  0
ARC
  8
0
 10
19.292871
 20
4.860267
 30
0.0
 40
0.800488
 50
359.86162
 51
45.977224
  0
LINE
  8
0
 10
19.621568
 20
4.897066
 30
0.0
 11
19.610197
 21
4.897066
 31
0.0
  0
LINE
  8
0
 10
19.656568
 20
5.451066
 30
0.0
 11
19.776568
 21
5.451066
 31
0.0
  0
ARC
  8
0
 10
19.656568
 20
5.391066
 30
0.0
 40
0.06
 50
90.0
 51
125.685335
  0
ARC
  8
0
 10
19.776568
 20
5.511066
 30
0.0
 40
0.06
 50
270.0
 51
0.0
  0
LINE
  8
0
 10
19.836568
 20
5.511066
 30
0.0
 11
19.836568
 21
5.708066
 31
0.0
  0
ARC
  8
0
 10
21.353068
 20
4.633548
 30
0.0
 40
0.125
 50
41.409622
 51
138.590378
  0
ARC
  8
0
 10
20.978068
 20
3.972594
 30
0.0
 40
0.375
 50
41.409622
 51
90.0
  0
ARC
  8
0
 10
20.978068
 20
4.964267
 30
0.0
 40
0.375
 50
284.334098
 51
318.590378
  0
ARC
  8
0
 10
21.353068
 20
4.303313
 30
0.0
 40
0.125
 50
221.409622
 51
318.590378
  0
ARC
  8
0
 10
21.728068
 20
4.964267
 30
0.0
 40
0.375
 50
221.409622
 51
255.665902
  0
LINE
  8
OBJ
 10
21.239568
 20
5.724066
 30
0.0
 11
21.239568
 21
5.723066
 31
0.0
  0
LINE
  8
OBJ
 10
21.239568
 20
5.724066
 30
0.0
 11
21.239568
 21
5.723066
 31
0.0
  0
LINE
  8
0
 10
21.353068
 20
4.785528
 30
0.0
 11
21.353068
 21
5.642056
 31
0.0
  0
CIRCLE
  8
0
 10
22.061568
 20
2.516066
 30
0.0
 40
0.159588
  0
CIRCLE
  8
0
 10
22.061568
 20
2.516066
 30
0.0
 40
0.227982
  0
CIRCLE
  8
0
 10
22.061568
 20
2.516066
 30
0.0
 40
0.33
  0
ARC
  8
0
 10
22.361568
 20
1.701558
 30
0.0
 40
0.06
 50
110.219777
 51
172.574496
  0
ARC
  8
0
 10
22.242574
 20
1.717066
 30
0.0
 40
0.06
 50
270.0
 51
352.574496
  0
ARC
  8
0
 10
21.880561
 20
1.717066
 30
0.0
 40
0.06
 50
187.425504
 51
270.0
  0
ARC
  8
0
 10
21.761568
 20
1.701558
 30
0.0
 40
0.06
 50
7.425504
 51
69.780223
  0
LINE
  8
0
 10
21.880561
 20
1.657066
 30
0.0
 11
22.242574
 21
1.657066
 31
0.0
  0
ARC
  8
0
 10
22.770068
 20
2.030606
 30
0.0
 40
0.12
 50
34.418763
 51
145.581237
  0
ARC
  8
0
 10
22.770068
 20
1.856482
 30
0.0
 40
0.16
 50
42.952278
 51
137.047722
  0
CIRCLE
  8
0
 10
23.478568
 20
2.516066
 30
0.0
 40
0.227982
  0
CIRCLE
  8
0
 10
23.478568
 20
2.516066
 30
0.0
 40
0.159588
  0
CIRCLE
  8
0
 10
23.478568
 20
2.516066
 30
0.0
 40
0.33
  0
POLYLINE
  8
0
 66
     1
 10
0.0
 20
0.0
 30
0.0
 70
     1
  0
VERTEX
  8
0
 10
23.478568
 20
3.116066
 30
0.0
  0
VERTEX
  8
0
 10
22.958952
 20
2.816066
 30
0.0
  0
VERTEX
  8
0
 10
22.958952
 20
2.216066
 30
0.0
  0
VERTEX
  8
0
 10
23.478568
 20
1.916066
 30
0.0
  0
VERTEX
  8
0
 10
23.998183
 20
2.216066
 30
0.0
  0
VERTEX
  8
0
 10
23.998183
 20
2.816066
 30
0.0
  0
SEQEND
  8
0
  0
CIRCLE
  8
0
 10
23.478568
 20
2.516066
 30
0.0
 40
0.509392
  0
LINE
  8
0
 10
23.297561
 20
1.657066
 30
0.0
 11
23.659574
 21
1.657066
 31
0.0
  0
ARC
  8
0
 10
23.297561
 20
1.717066
 30
0.0
 40
0.06
 50
187.425504
 51
270.0
  0
ARC
  8
0
 10
23.178568
 20
1.701558
 30
0.0
 40
0.06
 50
7.425504
 51
69.780223
  0
LINE
  8
0
 10
23.996703
 20
1.896066
 30
0.0
 11
24.131568
 21
1.896066
 31
0.0
  0
ARC
  8
0
 10
23.778568
 20
1.701558
 30
0.0
 40
0.06
 50
110.219777
 51
172.574496
  0
ARC
  8
0
 10
23.659574
 20
1.717066
 30
0.0
 40
0.06
 50
270.0
 51
352.574496
  0
ARC
  8
0
 10
23.145068
 20
3.972594
 30
0.0
 40
0.375
 50
90.0
 51
138.590378
  0
ARC
  8
0
 10
23.145068
 20
4.964267
 30
0.0
 40
0.375
 50
221.409622
 51
270.0
  0
ARC
  8
0
 10
22.770068
 20
4.633548
 30
0.0
 40
0.125
 50
41.409622
 51
138.590378
  0
LINE
  8
0
 10
21.728068
 20
4.347594
 30
0.0
 11
22.395068
 21
4.347594
 31
0.0
  0
ARC
  8
0
 10
22.770068
 20
4.303313
 30
0.0
 40
0.125
 50
221.409622
 51
318.590378
  0
ARC
  8
0
 10
22.395068
 20
3.972594
 30
0.0
 40
0.375
 50
41.409622
 51
90.0
  0
ARC
  8
0
 10
22.395068
 20
4.964267
 30
0.0
 40
0.375
 50
284.334098
 51
318.590378
  0
LINE
  8
OBJ
 10
22.883568
 20
5.724066
 30
0.0
 11
22.883568
 21
5.723066
 31
0.0
  0
LINE
  8
0
 10
22.770068
 20
4.785528
 30
0.0
 11
22.770068
 21
5.642056
 31
0.0
  0
LINE
  8
0
 10
24.029779
 20
4.858334
 30
0.0
 11
24.029779
 21
4.722256
 31
0.0
  0
LINE
  8
0
 10
23.145068
 20
4.347594
 30
0.0
 11
23.84243
 21
4.347594
 31
0.0
  0
ARC
  8
0
 10
23.478568
 20
6.087631
 30
0.0
 40
1.546613
 50
253.998596
 51
282.06742
  0
ARC
  8
0
 10
23.850339
 20
4.213598
 30
0.0
 40
0.364825
 50
59.532532
 51
97.628855
  0
LINE
  8
0
 10
21.514446
 20
6.393066
 30
0.0
 11
22.60869
 21
6.393066
 31
0.0
  0
ARC
  8
0
 10
21.611568
 20
6.192917
 30
0.0
 40
0.20015
 50
41.458173
 51
138.541827
  0
LINE
  8
0
 10
21.407568
 20
5.958066
 30
0.0
 11
22.715568
 21
5.958066
 31
0.0
  0
ARC
  8
0
 10
20.644568
 20
5.693922
 30
0.0
 40
0.699145
 50
64.589813
 51
115.410187
  0
LINE
  8
0
 10
19.990568
 20
5.958066
 30
0.0
 11
21.298568
 21
5.958066
 31
0.0
  0
LINE
  8
0
 10
20.097446
 20
6.393066
 30
0.0
 11
21.19169
 21
6.393066
 31
0.0
  0
ARC
  8
0
 10
21.544921
 20
-7.76603
 30
0.0
 40
13.853734
 50
96.217304
 51
97.18813
  0
ARC
  8
0
 10
19.635477
 20
5.902817
 30
0.0
 40
0.099928
 50
273.414604
 51
319.829179
  0
ARC
  8
0
 10
19.837568
 20
5.705066
 30
0.0
 40
0.275
 50
95.452799
 51
159.122958
  0
ARC
  8
0
 10
20.034568
 20
5.968066
 30
0.0
 40
0.01
 50
270.0
 51
0.0
  0
ARC
  8
0
 10
20.354568
 20
5.968066
 30
0.0
 40
0.01
 50
180.0
 51
270.0
  0
ARC
  8
0
 10
20.334568
 20
5.968066
 30
0.0
 40
0.01
 50
270.0
 51
0.0
  0
LINE
  8
0
 10
20.044568
 20
5.968066
 30
0.0
 11
20.044568
 21
6.32543
 31
0.0
  0
LINE
  8
0
 10
20.344568
 20
5.968066
 30
0.0
 11
20.344568
 21
6.32543
 31
0.0
  0
ARC
  8
0
 10
19.990568
 20
5.928066
 30
0.0
 40
0.03
 50
90.0
 51
180.0
  0
ARC
  8
0
 10
20.194568
 20
6.192917
 30
0.0
 40
0.20015
 50
41.458173
 51
138.541827
  0
LINE
  8
0
 10
20.044568
 20
6.32543
 30
0.0
 11
20.097446
 21
6.393066
 31
0.0
  0
ARC
  8
0
 10
21.094568
 20
6.192917
 30
0.0
 40
0.20015
 50
41.458173
 51
138.541827
  0
ARC
  8
0
 10
20.954568
 20
5.968066
 30
0.0
 40
0.01
 50
180.0
 51
270.0
  0
ARC
  8
0
 10
20.934568
 20
5.968066
 30
0.0
 40
0.01
 50
270.0
 51
0.0
  0
LINE
  8
0
 10
20.944568
 20
5.968066
 30
0.0
 11
20.944568
 21
6.32543
 31
0.0
  0
ARC
  8
0
 10
21.254568
 20
5.968066
 30
0.0
 40
0.01
 50
180.0
 51
270.0
  0
ARC
  8
0
 10
21.298568
 20
5.928066
 30
0.0
 40
0.03
 50
0.0
 51
90.0
  0
ARC
  8
0
 10
21.407568
 20
5.928066
 30
0.0
 40
0.03
 50
90.0
 51
180.0
  0
ARC
  8
0
 10
21.451568
 20
5.968066
 30
0.0
 40
0.01
 50
270.0
 51
0.0
  0
ARC
  8
OBJ
 10
21.23395
 20
5.722961
 30
0.0
 40
0.361106
 50
50.925153
 51
88.315103
  0
LINE
  8
OBJ
  6
CONTINUOUS
 10
21.461568
 20
6.084066
 30
0.0
 11
21.244568
 21
6.084066
 31
0.0
  0
LINE
  8
OBJ
 10
21.281568
 20
6.084066
 30
0.0
 11
21.281568
 21
6.108722
 31
0.0
  0
ARC
  8
OBJ
 10
21.341568
 20
6.108722
 30
0.0
 40
0.06
 50
100.213656
 51
180.0
  0
ARC
  8
OBJ
 10
22.061568
 20
2.112595
 30
0.0
 40
4.120471
 50
98.37286
 51
100.213656
  0
LINE
  8
0
 10
21.244568
 20
5.968066
 30
0.0
 11
21.244568
 21
6.32543
 31
0.0
  0
LINE
  8
0
 10
21.461568
 20
5.968066
 30
0.0
 11
21.461568
 21
6.32543
 31
0.0
  0
LINE
  8
0
 10
21.244568
 20
6.32543
 30
0.0
 11
21.19169
 21
6.393066
 31
0.0
  0
LINE
  8
0
 10
21.461568
 20
6.32543
 30
0.0
 11
21.514446
 21
6.393066
 31
0.0
  0
LINE
  8
0
 10
22.824568
 20
5.958066
 30
0.0
 11
24.132568
 21
5.958066
 31
0.0
  0
ARC
  8
0
 10
23.028568
 20
6.192917
 30
0.0
 40
0.20015
 50
41.458173
 51
138.541827
  0
LINE
  8
0
 10
22.878568
 20
6.32543
 30
0.0
 11
22.931446
 21
6.393066
 31
0.0
  0
ARC
  8
0
 10
22.061568
 20
5.693922
 30
0.0
 40
0.699145
 50
64.589813
 51
115.410187
  0
ARC
  8
0
 10
21.751568
 20
5.968066
 30
0.0
 40
0.01
 50
270.0
 51
0.0
  0
ARC
  8
0
 10
21.771568
 20
5.968066
 30
0.0
 40
0.01
 50
180.0
 51
270.0
  0
LINE
  8
0
 10
21.761568
 20
5.968066
 30
0.0
 11
21.761568
 21
6.32543
 31
0.0
  0
ARC
  8
0
 10
22.715568
 20
5.928066
 30
0.0
 40
0.03
 50
0.0
 51
90.0
  0
ARC
  8
0
 10
22.671568
 20
5.968066
 30
0.0
 40
0.01
 50
180.0
 51
270.0
  0
ARC
  8
0
 10
22.824568
 20
5.928066
 30
0.0
 40
0.03
 50
90.0
 51
180.0
  0
ARC
  8
0
 10
22.868568
 20
5.968066
 30
0.0
 40
0.01
 50
270.0
 51
0.0
  0
LINE
  8
OBJ
  6
CONTINUOUS
 10
22.878568
 20
6.084066
 30
0.0
 11
22.661568
 21
6.084066
 31
0.0
  0
ARC
  8
OBJ
 10
22.061568
 20
2.112595
 30
0.0
 40
4.120471
 50
79.786344
 51
81.62714
  0
ARC
  8
OBJ
 10
22.781568
 20
6.108722
 30
0.0
 40
0.06
 50
0.0
 51
79.786344
  0
LINE
  8
OBJ
 10
22.841568
 20
6.084066
 30
0.0
 11
22.841568
 21
6.108722
 31
0.0
  0
LINE
  8
0
 10
22.661568
 20
5.968066
 30
0.0
 11
22.661568
 21
6.32543
 31
0.0
  0
LINE
  8
0
 10
22.878568
 20
5.968066
 30
0.0
 11
22.878568
 21
6.32543
 31
0.0
  0
ARC
  8
0
 10
22.351568
 20
5.968066
 30
0.0
 40
0.01
 50
270.0
 51
0.0
  0
ARC
  8
0
 10
22.371568
 20
5.968066
 30
0.0
 40
0.01
 50
180.0
 51
270.0
  0
LINE
  8
0
 10
22.361568
 20
5.968066
 30
0.0
 11
22.361568
 21
6.32543
 31
0.0
  0
ARC
  8
OBJ
 10
22.889185
 20
5.722961
 30
0.0
 40
0.361106
 50
91.684897
 51
129.074847
  0
ARC
  8
0
 10
22.511568
 20
6.192917
 30
0.0
 40
0.20015
 50
41.458173
 51
138.541827
  0
LINE
  8
0
 10
22.661568
 20
6.32543
 30
0.0
 11
22.60869
 21
6.393066
 31
0.0
  0
LINE
  8
0
 10
22.931446
 20
6.393066
 30
0.0
 11
24.02569
 21
6.393066
 31
0.0
  0
ARC
  8
0
 10
23.478568
 20
5.693922
 30
0.0
 40
0.699145
 50
64.589813
 51
115.410187
  0
ARC
  8
0
 10
23.168568
 20
5.968066
 30
0.0
 40
0.01
 50
270.0
 51
0.0
  0
LINE
  8
0
 10
23.178568
 20
5.968066
 30
0.0
 11
23.178568
 21
6.32543
 31
0.0
  0
ARC
  8
0
 10
23.188568
 20
5.968066
 30
0.0
 40
0.01
 50
180.0
 51
270.0
  0
ARC
  8
0
 10
23.768568
 20
5.968066
 30
0.0
 40
0.01
 50
270.0
 51
0.0
  0
ARC
  8
0
 10
23.788568
 20
5.968066
 30
0.0
 40
0.01
 50
180.0
 51
270.0
  0
ARC
  8
0
 10
24.088568
 20
5.968066
 30
0.0
 40
0.01
 50
180.0
 51
270.0
  0
LINE
  8
0
 10
23.778568
 20
5.968066
 30
0.0
 11
23.778568
 21
6.32543
 31
0.0
  0
LINE
  8
0
 10
24.078568
 20
5.968066
 30
0.0
 11
24.078568
 21
6.32543
 31
0.0
  0
ARC
  8
0
 10
23.928568
 20
6.192917
 30
0.0
 40
0.20015
 50
41.458173
 51
138.541827
  0
LINE
  8
0
 10
24.078568
 20
6.32543
 30
0.0
 11
24.02569
 21
6.393066
 31
0.0
  0
ARC
  8
0
 10
25.032568
 20
5.743066
 30
0.0
 40
0.06
 50
0.0
 51
90.0
  0
LINE
  8
0
 10
24.162568
 20
5.768066
 30
0.0
 11
24.162568
 21
5.928066
 31
0.0
  0
LINE
  8
0
 10
24.856568
 20
5.803066
 30
0.0
 11
24.856568
 21
4.82803
 31
0.0
  0
LINE
  8
0
 10
25.531568
 20
3.205066
 30
0.0
 11
26.801568
 21
3.205066
 31
0.0
  0
LINE
  8
0
 10
25.710572
 20
3.834066
 30
0.0
 11
26.861568
 21
3.834066
 31
0.0
  0
LINE
  8
0
 10
25.710572
 20
3.520066
 30
0.0
 11
26.861568
 21
3.520066
 31
0.0
  0
LINE
  8
0
 10
25.531568
 20
4.149066
 30
0.0
 11
26.801568
 21
4.149066
 31
0.0
  0
ARC
  8
0
 10
25.710572
 20
3.677066
 30
0.0
 40
0.157
 50
90.0
 51
270.0
  0
LINE
  8
0
 10
25.249568
 20
4.795972
 30
0.0
 11
25.249568
 21
2.558161
 31
0.0
  0
LINE
  8
0
 10
25.445568
 20
4.502066
 30
0.0
 11
25.445568
 21
2.852066
 31
0.0
  0
LINE
  8
0
 10
25.531568
 20
4.189066
 30
0.0
 11
25.531568
 21
3.165066
 31
0.0
  0
LINE
  8
0
 10
24.976568
 20
3.877066
 30
0.0
 11
24.976568
 21
3.477066
 31
0.0
  0
LINE
  8
0
 10
24.974568
 20
4.435437
 30
0.0
 11
24.974568
 21
2.918695
 31
0.0
  0
LINE
  8
0
 10
24.286568
 20
2.516066
 30
0.0
 11
24.286568
 21
4.126699
 31
0.0
  0
LINE
  8
0
 10
24.21743
 20
2.516066
 30
0.0
 11
24.21743
 21
3.972594
 31
0.0
  0
LINE
  8
0
 10
24.526568
 20
3.464059
 30
0.0
 11
24.526568
 21
4.663811
 31
0.0
  0
LINE
  8
0
 10
25.385568
 20
2.792066
 30
0.0
 11
25.309568
 21
2.792066
 31
0.0
  0
ARC
  8
0
 10
24.620568
 20
2.811066
 30
0.0
 40
0.37
 50
205.484369
 51
132.018876
  0
POLYLINE
  8
0
 66
     1
 10
0.0
 20
0.0
 30
0.0
 70
     1
  0
VERTEX
  8
0
 10
24.891201
 20
2.967316
 30
0.0
  0
VERTEX
  8
0
 10
24.620568
 20
3.123566
 30
0.0
  0
VERTEX
  8
0
 10
24.349935
 20
2.967316
 30
0.0
  0
VERTEX
  8
0
 10
24.349935
 20
2.654816
 30
0.0
  0
VERTEX
  8
0
 10
24.620568
 20
2.498566
 30
0.0
  0
VERTEX
  8
0
 10
24.891201
 20
2.654816
 30
0.0
  0
SEQEND
  8
0
  0
CIRCLE
  8
0
 10
24.620568
 20
2.811066
 30
0.0
 40
0.258193
  0
CIRCLE
  8
0
 10
24.620568
 20
2.811066
 30
0.0
 40
0.197
  0
CIRCLE
  8
0
 10
24.620568
 20
2.811066
 30
0.0
 40
0.164073
  0
LINE
  8
0
 10
25.092568
 20
3.293066
 30
0.0
 11
25.092568
 21
1.611066
 31
0.0
  0
LINE
  8
0
 10
24.284411
 20
2.457066
 30
0.0
 11
24.512939
 21
2.457066
 31
0.0
  0
LINE
  8
0
 10
24.191568
 20
2.135941
 30
0.0
 11
24.191568
 21
1.956066
 31
0.0
  0
ARC
  8
OBJ
 10
25.158346
 20
2.340635
 30
0.0
 40
0.179237
 50
322.158498
 51
37.841502
  0
LINE
  8
OBJ
 10
25.337584
 20
2.230676
 30
0.0
 11
25.337584
 21
2.450593
 31
0.0
  0
LINE
  8
OBJ
 10
25.337584
 20
2.148023
 30
0.0
 11
25.337584
 21
2.230676
 31
0.0
  0
ARC
  8
OBJ
 10
25.280364
 20
2.176892
 30
0.0
 40
0.057219
 50
289.954678
 51
70.045322
  0
LINE
  8
OBJ
 10
25.337584
 20
2.148023
 30
0.0
 11
25.314364
 21
2.13087
 31
0.0
  0
LINE
  8
OBJ
 10
25.337584
 20
2.533246
 30
0.0
 11
25.314364
 21
2.5504
 31
0.0
  0
LINE
  8
OBJ
 10
25.337584
 20
2.450593
 30
0.0
 11
25.337584
 21
2.533246
 31
0.0
  0
ARC
  8
OBJ
 10
25.280364
 20
2.504377
 30
0.0
 40
0.057219
 50
289.954678
 51
70.045322
  0
LINE
  8
OBJ
 10
25.092568
 20
2.292242
 30
0.0
 11
25.140376
 21
2.244434
 31
0.0
  0
LINE
  8
OBJ
  6
CENTER2
 10
25.092568
 20
2.140439
 30
0.0
 11
25.140376
 21
2.140439
 31
0.0
  0
LINE
  8
OBJ
  6
CENTER2
 10
25.092568
 20
2.540831
 30
0.0
 11
25.140376
 21
2.540831
 31
0.0
  0
LINE
  8
0
 10
25.092568
 20
2.140439
 30
0.0
 11
25.092568
 21
2.540831
 31
0.0
  0
LINE
  8
OBJ
 10
25.140376
 20
2.123108
 30
0.0
 11
25.140376
 21
2.558161
 31
0.0
  0
LINE
  8
OBJ
  6
CONTINUOUS
 10
25.140376
 20
2.230676
 30
0.0
 11
25.299892
 21
2.230676
 31
0.0
  0
LINE
  8
OBJ
  6
CONTINUOUS
 10
25.140376
 20
2.558161
 30
0.0
 11
25.299892
 21
2.558161
 31
0.0
  0
LINE
  8
OBJ
  6
CONTINUOUS
 10
25.140376
 20
2.450593
 30
0.0
 11
25.299892
 21
2.450593
 31
0.0
  0
LINE
  8
OBJ
  6
CONTINUOUS
 10
25.140376
 20
2.123108
 30
0.0
 11
25.299892
 21
2.123108
 31
0.0
  0
ARC
  8
0
 10
24.151568
 20
3.464059
 30
0.0
 40
0.375
 50
331.481841
 51
0.0
  0
LINE
  8
0
 10
24.286568
 20
2.927066
 30
0.0
 11
24.481067
 21
3.28502
 31
0.0
  0
ARC
  8
0
 10
25.309568
 20
2.732066
 30
0.0
 40
0.06
 50
90.0
 51
180.0
  0
LINE
  8
0
 10
25.189568
 20
3.323066
 30
0.0
 11
25.122568
 21
3.323066
 31
0.0
  0
ARC
  8
0
 10
25.189568
 20
3.383066
 30
0.0
 40
0.06
 50
270.0
 51
0.0
  0
LINE
  8
0
 10
24.976568
 20
3.477066
 30
0.0
 11
24.974568
 21
3.477066
 31
0.0
  0
ARC
  8
0
 10
25.122568
 20
3.293066
 30
0.0
 40
0.03
 50
90.0
 51
180.0
  0
LINE
  8
0
 10
25.445568
 20
3.165066
 30
0.0
 11
25.531568
 21
3.165066
 31
0.0
  0
ARC
  8
0
 10
25.385568
 20
2.852066
 30
0.0
 40
0.06
 50
270.0
 51
0.0
  0
LINE
  8
0
 10
25.385568
 20
4.562066
 30
0.0
 11
25.309568
 21
4.562066
 31
0.0
  0
ARC
  8
0
 10
24.620568
 20
4.543066
 30
0.0
 40
0.37
 50
255.282459
 51
108.761022
  0
ARC
  8
0
 10
24.620568
 20
4.543066
 30
0.0
 40
0.258193
 50
248.649708
 51
117.444922
  0
POLYLINE
  8
0
 66
     1
 10
0.0
 20
0.0
 30
0.0
  0
VERTEX
  8
0
 10
24.891201
 20
4.699316
 30
0.0
  0
VERTEX
  8
0
 10
24.620568
 20
4.855566
 30
0.0
  0
VERTEX
  8
0
 10
24.501568
 20
4.786862
 30
0.0
  0
SEQEND
  8
0
  0
ARC
  8
0
 10
24.620568
 20
4.543066
 30
0.0
 40
0.197
 50
241.500091
 51
127.161296
  0
LINE
  8
0
 10
25.092568
 20
5.743066
 30
0.0
 11
25.092568
 21
4.061066
 31
0.0
  0
LINE
  8
0
 10
24.501568
 20
4.663811
 30
0.0
 11
24.501568
 21
5.4398
 31
0.0
  0
POLYLINE
  8
0
 66
     1
 10
0.0
 20
0.0
 30
0.0
  0
VERTEX
  8
0
 10
24.526568
 20
4.284837
 30
0.0
  0
VERTEX
  8
0
 10
24.620568
 20
4.230566
 30
0.0
  0
VERTEX
  8
0
 10
24.891201
 20
4.386816
 30
0.0
  0
VERTEX
  8
0
 10
24.891201
 20
4.699316
 30
0.0
  0
SEQEND
  8
0
  0
ARC
  8
0
 10
24.620568
 20
4.543066
 30
0.0
 40
0.164073
 50
235.046129
 51
132.614985
  0
LINE
  8
0
 10
24.526568
 20
4.663811
 30
0.0
 11
24.501568
 21
4.663811
 31
0.0
  0
ARC
  8
0
 10
23.84243
 20
4.126699
 30
0.0
 40
0.4441
 50
0.0
 51
46.642747
  0
LINE
  8
0
 10
25.189568
 20
4.031066
 30
0.0
 11
25.122568
 21
4.031066
 31
0.0
  0
ARC
  8
0
 10
25.189568
 20
3.971066
 30
0.0
 40
0.06
 50
0.0
 51
90.0
  0
ARC
  8
0
 10
25.122568
 20
4.061066
 30
0.0
 40
0.03
 50
180.0
 51
270.0
  0
LINE
  8
0
 10
24.976568
 20
3.877066
 30
0.0
 11
24.974568
 21
3.877066
 31
0.0
  0
ARC
  8
0
 10
25.309568
 20
4.622066
 30
0.0
 40
0.06
 50
180.0
 51
270.0
  0
LINE
  8
0
 10
24.501568
 20
4.897066
 30
0.0
 11
24.512939
 21
4.897066
 31
0.0
  0
ARC
  8
0
 10
24.466568
 20
5.391066
 30
0.0
 40
0.06
 50
54.314665
 51
90.0
  0
ARC
  8
0
 10
24.346568
 20
5.511066
 30
0.0
 40
0.06
 50
180.0
 51
270.0
  0
LINE
  8
0
 10
24.466568
 20
5.451066
 30
0.0
 11
24.346568
 21
5.451066
 31
0.0
  0
LINE
  8
0
 10
24.286568
 20
5.708066
 30
0.0
 11
24.226568
 21
5.768066
 31
0.0
  0
LINE
  8
0
 10
24.286568
 20
5.511066
 30
0.0
 11
24.286568
 21
5.708066
 31
0.0
  0
ARC
  8
OBJ
 10
25.280364
 20
4.849756
 30
0.0
 40
0.057219
 50
289.954678
 51
70.045322
  0
LINE
  8
OBJ
 10
25.337584
 20
4.90354
 30
0.0
 11
25.337584
 21
4.820887
 31
0.0
  0
LINE
  8
OBJ
 10
25.337584
 20
4.820887
 30
0.0
 11
25.314364
 21
4.803733
 31
0.0
  0
LINE
  8
OBJ
  6
CENTER2
 10
25.092568
 20
4.813302
 30
0.0
 11
25.140376
 21
4.813302
 31
0.0
  0
LINE
  8
OBJ
  6
CONTINUOUS
 10
25.140376
 20
4.90354
 30
0.0
 11
25.299892
 21
4.90354
 31
0.0
  0
LINE
  8
OBJ
  6
CONTINUOUS
 10
25.140376
 20
4.795972
 30
0.0
 11
25.299892
 21
4.795972
 31
0.0
  0
LINE
  8
OBJ
 10
25.337584
 20
5.20611
 30
0.0
 11
25.314364
 21
5.223263
 31
0.0
  0
ARC
  8
OBJ
 10
25.280364
 20
5.177241
 30
0.0
 40
0.057219
 50
289.954678
 51
70.045322
  0
LINE
  8
OBJ
 10
25.337584
 20
5.20611
 30
0.0
 11
25.337584
 21
5.123457
 31
0.0
  0
LINE
  8
OBJ
  6
CENTER2
 10
25.092568
 20
5.213694
 30
0.0
 11
25.140376
 21
5.213694
 31
0.0
  0
LINE
  8
OBJ
 10
25.092568
 20
5.061891
 30
0.0
 11
25.140376
 21
5.109699
 31
0.0
  0
LINE
  8
OBJ
  6
CONTINUOUS
 10
25.140376
 20
5.231025
 30
0.0
 11
25.299892
 21
5.231025
 31
0.0
  0
LINE
  8
OBJ
  6
CONTINUOUS
 10
25.140376
 20
5.123457
 30
0.0
 11
25.299892
 21
5.123457
 31
0.0
  0
LINE
  8
OBJ
 10
25.140376
 20
5.231025
 30
0.0
 11
25.140376
 21
4.795972
 31
0.0
  0
LINE
  8
0
 10
25.092568
 20
5.213694
 30
0.0
 11
25.092568
 21
4.813302
 31
0.0
  0
LINE
  8
OBJ
 10
25.337584
 20
5.123457
 30
0.0
 11
25.337584
 21
4.90354
 31
0.0
  0
ARC
  8
OBJ
 10
25.158346
 20
5.013498
 30
0.0
 40
0.179237
 50
322.158498
 51
37.841502
  0
LINE
  8
0
 10
25.445568
 20
4.189066
 30
0.0
 11
25.531568
 21
4.189066
 31
0.0
  0
ARC
  8
0
 10
25.385568
 20
4.502066
 30
0.0
 40
0.06
 50
0.0
 51
90.0
  0
LINE
  8
0
 10
26.861568
 20
4.089066
 30
0.0
 11
26.861568
 21
3.265066
 31
0.0
  0
LINE
  8
0
 10
26.801568
 20
3.205066
 30
0.0
 11
26.861568
 21
3.265066
 31
0.0
  0
LINE
  8
0
 10
26.801568
 20
3.520066
 30
0.0
 11
26.801568
 21
3.205066
 31
0.0
  0
LINE
  8
0
 10
26.801568
 20
4.149066
 30
0.0
 11
26.861568
 21
4.089066
 31
0.0
  0
LINE
  8
0
 10
26.801568
 20
4.149066
 30
0.0
 11
26.801568
 21
3.834066
 31
0.0
  0
LINE
  8
0
 10
24.85485
 20
5.803066
 30
0.0
 11
24.481706
 21
5.803066
 31
0.0
  0
ARC
  8
0
 10
24.487658
 20
5.902817
 30
0.0
 40
0.099928
 50
220.170821
 51
266.585396
  0
ARC
  8
0
 10
24.285568
 20
5.705066
 30
0.0
 40
0.275
 50
20.877042
 51
84.547201
  0
LINE
  8
0
 10
25.032568
 20
5.803066
 30
0.0
 11
24.85485
 21
5.803066
 31
0.0
  0
ENDSEC
  0
EOF
