  0
SECTION
  2
HEADER
  9
$ACADVER
  1
AC1009
  9
$INSBASE
 10
0.0
 20
0.0
 30
0.0
  9
$EXTMIN
 10
1.037124
 20
0.992177
 30
0.0
  9
$EXTMAX
 10
563.153073
 20
432.249566
 30
0.0
  9
$LIMMIN
 10
0.0
 20
0.0
  9
$LIMMAX
 10
12.0
 20
9.0
  9
$ORTHOMODE
 70
     1
  9
$REGENMODE
 70
     1
  9
$FILLMODE
 70
     1
  9
$QTEXTMODE
 70
     0
  9
$MIRRTEXT
 70
     1
  9
$DRAGMODE
 70
     2
  9
$LTSCALE
 40
1.0
  9
$OSMODE
 70
     0
  9
$ATTMODE
 70
     1
  9
$TEXTSIZE
 40
1.0
  9
$TRACEWID
 40
0.05
  9
$TEXTSTYLE
  7
ROMAND
  9
$CLAYER
  8
0
  9
$CELTYPE
  6
BYLAYER
  9
$CECOLOR
 62
   256
  9
$DIMSCALE
 40
1.0
  9
$DIMASZ
 40
1.0
  9
$DIMEXO
 40
0.38
  9
$DIMDLI
 40
2.0
  9
$DIMRND
 40
0.0
  9
$DIMDLE
 40
0.0
  9
$DIMEXE
 40
1.0
  9
$DIMTP
 40
0.0
  9
$DIMTM
 40
0.0
  9
$DIMTXT
 40
1.0
  9
$DIMCEN
 40
0.5
  9
$DIMTSZ
 40
0.0
  9
$DIMTOL
 70
     0
  9
$DIMLIM
 70
     0
  9
$DIMTIH
 70
     1
  9
$DIMTOH
 70
     1
  9
$DIMSE1
 70
     0
  9
$DIMSE2
 70
     0
  9
$DIMTAD
 70
     0
  9
$DIMZIN
 70
     0
  9
$DIMBLK
  1

  9
$DIMASO
 70
     1
  9
$DIMSHO
 70
     1
  9
$DIMPOST
  1

  9
$DIMAPOST
  1

  9
$DIMALT
 70
     0
  9
$DIMALTD
 70
     2
  9
$DIMALTF
 40
25.4
  9
$DIMLFAC
 40
1.0
  9
$DIMTOFL
 70
     0
  9
$DIMTVP
 40
0.0
  9
$DIMTIX
 70
     0
  9
$DIMSOXD
 70
     0
  9
$DIMSAH
 70
     0
  9
$DIMBLK1
  1

  9
$DIMBLK2
  1

  9
$DIMSTYLE
  2
*UNNAMED
  9
$DIMCLRD
 70
     0
  9
$DIMCLRE
 70
     0
  9
$DIMCLRT
 70
     0
  9
$DIMTFAC
 40
1.0
  9
$DIMGAP
 40
0.5
  9
$LUNITS
 70
     2
  9
$LUPREC
 70
     2
  9
$SKETCHINC
 40
0.1
  9
$FILLETRAD
 40
0.04
  9
$AUNITS
 70
     0
  9
$AUPREC
 70
     0
  9
$MENU
  1
acad
  9
$ELEVATION
 40
0.0
  9
$PELEVATION
 40
0.0
  9
$THICKNESS
 40
0.0
  9
$LIMCHECK
 70
     0
  9
$BLIPMODE
 70
     1
  9
$CHAMFERA
 40
0.0
  9
$CHAMFERB
 40
0.0
  9
$SKPOLY
 70
     0
  9
$TDCREATE
 40
2451337.460909375
  9
$TDUPDATE
 40
2451569.697154514
  9
$TDINDWG
 40
0.0075828704
  9
$TDUSRTIMER
 40
0.0075828704
  9
$USRTIMER
 70
     1
  9
$ANGBASE
 50
0.0
  9
$ANGDIR
 70
     0
  9
$PDMODE
 70
     0
  9
$PDSIZE
 40
0.0
  9
$PLINEWID
 40
0.0
  9
$COORDS
 70
     1
  9
$SPLFRAME
 70
     0
  9
$SPLINETYPE
 70
     6
  9
$SPLINESEGS
 70
     8
  9
$ATTDIA
 70
     0
  9
$ATTREQ
 70
     1
  9
$HANDLING
 70
     0
  9
$HANDSEED
  5
0
  9
$SURFTAB1
 70
     6
  9
$SURFTAB2
 70
     6
  9
$SURFTYPE
 70
     6
  9
$SURFU
 70
     6
  9
$SURFV
 70
     6
  9
$UCSNAME
  2

  9
$UCSORG
 10
0.0
 20
0.0
 30
0.0
  9
$UCSXDIR
 10
1.0
 20
0.0
 30
0.0
  9
$UCSYDIR
 10
0.0
 20
1.0
 30
0.0
  9
$PUCSNAME
  2

  9
$PUCSORG
 10
0.0
 20
0.0
 30
0.0
  9
$PUCSXDIR
 10
1.0
 20
0.0
 30
0.0
  9
$PUCSYDIR
 10
0.0
 20
1.0
 30
0.0
  9
$USERI1
 70
     0
  9
$USERI2
 70
     0
  9
$USERI3
 70
     0
  9
$USERI4
 70
     0
  9
$USERI5
 70
     0
  9
$USERR1
 40
0.0
  9
$USERR2
 40
0.0
  9
$USERR3
 40
0.0
  9
$USERR4
 40
0.0
  9
$USERR5
 40
0.0
  9
$WORLDVIEW
 70
     1
  9
$SHADEDGE
 70
     3
  9
$SHADEDIF
 70
    70
  9
$TILEMODE
 70
     1
  9
$MAXACTVP
 70
    16
  9
$PINSBASE
 10
0.0
 20
0.0
 30
0.0
  9
$PLIMCHECK
 70
     0
  9
$PEXTMIN
 10
1.000000E+20
 20
1.000000E+20
 30
1.000000E+20
  9
$PEXTMAX
 10
-1.000000E+20
 20
-1.000000E+20
 30
-1.000000E+20
  9
$PLIMMIN
 10
0.0
 20
0.0
  9
$PLIMMAX
 10
12.0
 20
9.0
  9
$UNITMODE
 70
     0
  9
$VISRETAIN
 70
     0
  9
$PLINEGEN
 70
     0
  9
$PSLTSCALE
 70
     1
  9
$TREEDEPTH
 70
  3020
  9
$DWGCODEPAGE
  3
iso8859-1
  0
ENDSEC
  0
SECTION
  2
TABLES
  0
TABLE
  2
VPORT
 70
     2
  0
VPORT
  2
*ACTIVE
 70
     0
 10
0.0
 20
0.0
 11
1.0
 21
1.0
 12
273.794026
 22
182.595699
 13
0.0
 23
0.0
 14
1.0
 24
1.0
 15
0.0
 25
0.0
 16
0.0
 26
0.0
 36
1.0
 17
0.0
 27
0.0
 37
0.0
 40
18.720752
 41
1.379728
 42
50.0
 43
0.0
 44
0.0
 50
0.0
 51
0.0
 71
     0
 72
   100
 73
     1
 74
     0
 75
     0
 76
     0
 77
     0
 78
     0
  0
ENDTAB
  0
TABLE
  2
LTYPE
 70
     2
  0
LTYPE
  2
CONTINUOUS
 70
    64
  3
Solid line
 72
    65
 73
     0
 40
0.0
  0
LTYPE
  2
CENTER2
 70
    64
  3
CENTER2 _._._._._
 72
    65
 73
     4
 40
0.15
 49
0.1
 49
-0.025
 49
0.0
 49
-0.025
  0
ENDTAB
  0
TABLE
  2
LAYER
 70
     2
  0
LAYER
  2
0
 70
    64
 62
     7
  6
CONTINUOUS
  0
LAYER
  2
OBJ
 70
    64
 62
     7
  6
CONTINUOUS
  0
ENDTAB
  0
TABLE
  2
STYLE
 70
     2
  0
STYLE
  2
STANDARD
 70
     0
 40
0.0
 41
1.0
 50
0.0
 71
     0
 42
1.0
  3
txt
  4

  0
STYLE
  2
ROMAND
 70
    64
 40
0.0
 41
1.0
 50
0.0
 71
     0
 42
1.0
  3
romand
  4

  0
ENDTAB
  0
TABLE
  2
VIEW
 70
     0
  0
ENDTAB
  0
TABLE
  2
UCS
 70
     0
  0
ENDTAB
  0
TABLE
  2
APPID
 70
     1
  0
APPID
  2
ACAD
 70
    64
  0
ENDTAB
  0
TABLE
  2
DIMSTYLE
 70
     0
  0
ENDTAB
  0
ENDSEC
  0
SECTION
  2
BLOCKS
  0
BLOCK
  8
0
  2
SCHD
 70
    64
 10
0.0
 20
0.0
 30
0.0
  3
SCHD
  0
CIRCLE
  8
OBJ
 10
0.0
 20
0.0
 30
0.0
 40
0.135
  0
LINE
  8
OBJ
 10
-0.09
 20
-0.03
 30
0.0
 11
-0.09
 21
0.03
 31
0.0
  0
LINE
  8
OBJ
 10
-0.09
 20
-0.03
 30
0.0
 11
-0.03
 21
-0.03
 31
0.0
  0
LINE
  8
OBJ
 10
-0.03
 20
-0.09
 30
0.0
 11
-0.03
 21
-0.03
 31
0.0
  0
LINE
  8
OBJ
 10
0.03
 20
-0.09
 30
0.0
 11
-0.03
 21
-0.09
 31
0.0
  0
LINE
  8
OBJ
 10
0.03
 20
-0.09
 30
0.0
 11
0.03
 21
-0.03
 31
0.0
  0
LINE
  8
OBJ
 10
0.03
 20
-0.03
 30
0.0
 11
0.09
 21
-0.03
 31
0.0
  0
LINE
  8
OBJ
 10
0.09
 20
0.03
 30
0.0
 11
0.09
 21
-0.03
 31
0.0
  0
LINE
  8
OBJ
 10
0.03
 20
0.03
 30
0.0
 11
0.09
 21
0.03
 31
0.0
  0
LINE
  8
OBJ
 10
0.03
 20
0.03
 30
0.0
 11
0.03
 21
0.09
 31
0.0
  0
LINE
  8
OBJ
 10
-0.03
 20
0.09
 30
0.0
 11
0.03
 21
0.09
 31
0.0
  0
LINE
  8
OBJ
 10
-0.03
 20
0.03
 30
0.0
 11
-0.03
 21
0.09
 31
0.0
  0
LINE
  8
OBJ
 10
-0.09
 20
0.03
 30
0.0
 11
-0.03
 21
0.03
 31
0.0
  0
ENDBLK
  8
0
  0
ENDSEC
  0
SECTION
  2
ENTITIES
  0
LINE
  8
0
 10
265.949259
 20
179.688782
 30
0.0
 11
266.886621
 21
179.688782
 31
0.0
  0
LINE
  8
0
 10
265.812776
 20
179.676804
 30
0.0
 11
267.023104
 21
179.676804
 31
0.0
  0
ARC
  8
0
 10
265.912456
 20
179.342595
 30
0.0
 40
0.334209
 50
59.724427
 51
120.275573
  0
ARC
  8
0
 10
266.14955
 20
179.849673
 30
0.0
 40
0.200291
 50
98.256123
 51
180.0
  0
LINE
  8
0
 10
265.323322
 20
178.052269
 30
0.0
 11
266.092495
 21
178.052269
 31
0.0
  0
LINE
  8
0
 10
265.77801
 20
174.457222
 30
0.0
 11
266.058418
 21
174.73763
 31
0.0
  0
ARC
  8
0
 10
265.707908
 20
175.646951
 30
0.0
 40
0.777144
 50
212.782548
 51
323.151588
  0
ARC
  8
0
 10
265.707908
 20
175.646951
 30
0.0
 40
0.722222
 50
31.084714
 51
328.915286
  0
CIRCLE
  8
0
 10
265.707908
 20
177.133109
 30
0.0
 40
0.600873
  0
LINE
  8
0
 10
266.324404
 20
179.244176
 30
0.0
 11
265.091413
 21
179.244176
 31
0.0
  0
LINE
  8
0
 10
265.111442
 20
179.374365
 30
0.0
 11
266.304375
 21
179.374365
 31
0.0
  0
LINE
  8
0
 10
265.091413
 20
179.354336
 30
0.0
 11
266.324404
 21
179.354336
 31
0.0
  0
LINE
  8
0
 10
265.214782
 20
179.614714
 30
0.0
 11
266.201034
 21
179.614714
 31
0.0
  0
ARC
  8
0
 10
266.113498
 20
179.434317
 30
0.0
 40
0.180397
 50
41.458173
 51
138.541827
  0
LINE
  8
0
 10
265.032928
 20
179.244176
 30
0.0
 11
269.004297
 21
179.244176
 31
0.0
  0
LINE
  8
0
 10
264.99287
 20
179.204118
 30
0.0
 11
269.10284
 21
179.204118
 31
0.0
  0
CIRCLE
  8
0
 10
265.707908
 20
175.646951
 30
0.0
 40
0.459119
  0
POLYLINE
  8
0
 66
     1
 10
0.0
 20
0.0
 30
0.0
 70
     1
  0
VERTEX
  8
0
 10
265.707908
 20
176.187736
 30
0.0
  0
VERTEX
  8
0
 10
266.176242
 20
175.917343
 30
0.0
  0
VERTEX
  8
0
 10
266.176242
 20
175.376558
 30
0.0
  0
VERTEX
  8
0
 10
265.707908
 20
175.106165
 30
0.0
  0
VERTEX
  8
0
 10
265.239574
 20
175.376558
 30
0.0
  0
VERTEX
  8
0
 10
265.239574
 20
175.917343
 30
0.0
  0
SEQEND
  8
0
  0
CIRCLE
  8
0
 10
265.707908
 20
175.646951
 30
0.0
 40
0.616496
  0
LINE
  8
0
 10
264.736497
 20
177.854157
 30
0.0
 11
264.736497
 21
176.412062
 31
0.0
  0
LINE
  8
0
 10
264.859676
 20
177.541875
 30
0.0
 11
264.859676
 21
176.724344
 31
0.0
  0
CIRCLE
  8
0
 10
265.707908
 20
177.133109
 30
0.0
 40
0.271298
  0
ARC
  8
0
 10
265.707908
 20
177.133109
 30
0.0
 40
0.710959
 50
163.283024
 51
196.716976
  0
LINE
  8
0
 10
262.08064
 20
176.738837
 30
0.0
 11
262.08064
 21
177.527382
 31
0.0
  0
LINE
  8
0
 10
264.110588
 20
175.659969
 30
0.0
 11
264.110588
 21
178.606249
 31
0.0
  0
LINE
  8
0
 10
262.040581
 20
176.778895
 30
0.0
 11
262.040581
 21
177.487324
 31
0.0
  0
LINE
  8
0
 10
263.830181
 20
176.395215
 30
0.0
 11
263.830181
 21
177.871004
 31
0.0
  0
LINE
  8
0
 10
263.514723
 20
176.642397
 30
0.0
 11
263.514723
 21
177.623822
 31
0.0
  0
LINE
  8
0
 10
263.494694
 20
176.662426
 30
0.0
 11
263.494694
 21
177.603793
 31
0.0
  0
LINE
  8
0
 10
263.950355
 20
175.679999
 30
0.0
 11
263.950355
 21
178.58622
 31
0.0
  0
LINE
  8
0
 10
264.110588
 20
175.659969
 30
0.0
 11
264.110588
 21
178.606249
 31
0.0
  0
LINE
  8
0
 10
262.08064
 20
176.738837
 30
0.0
 11
263.494694
 21
176.738837
 31
0.0
  0
LINE
  8
0
 10
262.08064
 20
176.738837
 30
0.0
 11
262.040581
 21
176.778895
 31
0.0
  0
LINE
  8
0
 10
265.77801
 20
174.872975
 30
0.0
 11
265.77801
 21
174.307004
 31
0.0
  0
LINE
  8
0
 10
265.152101
 20
175.058095
 30
0.0
 11
265.152101
 21
174.307004
 31
0.0
  0
LINE
  8
0
 10
265.77801
 20
174.307004
 30
0.0
 11
265.152101
 21
174.307004
 31
0.0
  0
LINE
  8
0
 10
264.110588
 20
176.018072
 30
0.0
 11
264.444073
 21
176.018072
 31
0.0
  0
LINE
  8
0
 10
264.110588
 20
175.659969
 30
0.0
 11
264.444073
 21
175.659969
 31
0.0
  0
ARC
  8
OBJ
 10
263.844798
 20
176.046141
 30
0.0
 40
0.287629
 50
142.158498
 51
217.841502
  0
LINE
  8
OBJ
 10
263.557168
 20
176.222596
 30
0.0
 11
263.557168
 21
175.869687
 31
0.0
  0
LINE
  8
OBJ
 10
263.873636
 20
176.395215
 30
0.0
 11
263.873636
 21
175.697068
 31
0.0
  0
LINE
  8
OBJ
  6
CONTINUOUS
 10
263.873636
 20
175.869687
 30
0.0
 11
263.617654
 21
175.869687
 31
0.0
  0
LINE
  8
OBJ
  6
CONTINUOUS
 10
263.873636
 20
175.697068
 30
0.0
 11
263.617654
 21
175.697068
 31
0.0
  0
LINE
  8
OBJ
 10
263.557168
 20
175.73705
 30
0.0
 11
263.59443
 21
175.709523
 31
0.0
  0
LINE
  8
OBJ
 10
263.557168
 20
175.869687
 30
0.0
 11
263.557168
 21
175.73705
 31
0.0
  0
ARC
  8
OBJ
 10
263.64899
 20
175.783377
 30
0.0
 40
0.091822
 50
109.954678
 51
250.045322
  0
LINE
  8
0
 10
264.110588
 20
175.659969
 30
0.0
 11
263.970385
 21
175.659969
 31
0.0
  0
LINE
  8
OBJ
  6
CENTER2
 10
263.950355
 20
175.724879
 30
0.0
 11
263.873636
 21
175.724879
 31
0.0
  0
ARC
  8
0
 10
263.970385
 20
175.638239
 30
0.0
 40
0.020029
 50
180.0
 51
270.0
  0
LINE
  8
0
 10
263.514723
 20
176.642397
 30
0.0
 11
263.494694
 21
176.662426
 31
0.0
  0
LINE
  8
OBJ
  6
CONTINUOUS
 10
263.873636
 20
176.395215
 30
0.0
 11
263.617654
 21
176.395215
 31
0.0
  0
LINE
  8
OBJ
  6
CONTINUOUS
 10
263.873636
 20
176.222596
 30
0.0
 11
263.617654
 21
176.222596
 31
0.0
  0
LINE
  8
OBJ
 10
263.557168
 20
176.355233
 30
0.0
 11
263.557168
 21
176.222596
 31
0.0
  0
ARC
  8
OBJ
 10
263.64899
 20
176.308906
 30
0.0
 40
0.091822
 50
109.954678
 51
250.045322
  0
LINE
  8
0
 10
263.514723
 20
176.642397
 30
0.0
 11
263.830181
 21
176.642397
 31
0.0
  0
LINE
  8
OBJ
 10
263.557168
 20
176.355233
 30
0.0
 11
263.59443
 21
176.38276
 31
0.0
  0
LINE
  8
OBJ
 10
263.950355
 20
176.123799
 30
0.0
 11
263.873636
 21
176.200518
 31
0.0
  0
LINE
  8
OBJ
  6
CENTER2
 10
263.950355
 20
176.367404
 30
0.0
 11
263.873636
 21
176.367404
 31
0.0
  0
LINE
  8
0
 10
264.444073
 20
176.195748
 30
0.0
 11
264.444073
 21
175.098153
 31
0.0
  0
ARC
  8
0
 10
264.837352
 20
175.952173
 30
0.0
 40
0.200291
 50
340.679038
 51
66.435283
  0
LINE
  8
0
 10
265.200758
 20
175.058095
 30
0.0
 11
264.484131
 21
175.058095
 31
0.0
  0
ARC
  8
0
 10
264.484131
 20
175.098153
 30
0.0
 40
0.040058
 50
180.0
 51
270.0
  0
ARC
  8
0
 10
265.132072
 20
175.010824
 30
0.0
 40
0.040058
 50
180.0
 51
270.0
  0
LINE
  8
0
 10
265.152101
 20
174.970766
 30
0.0
 11
265.132072
 21
174.970766
 31
0.0
  0
LINE
  8
0
 10
265.092014
 20
175.058095
 30
0.0
 11
265.092014
 21
175.010824
 31
0.0
  0
ARC
  8
0
 10
264.953505
 20
175.161096
 30
0.0
 40
0.120175
 50
32.782548
 51
90.0
  0
CIRCLE
  8
0
 10
265.707908
 20
175.646951
 30
0.0
 40
0.297432
  0
CIRCLE
  8
0
 10
265.707908
 20
175.646951
 30
0.0
 40
0.143838
  0
CIRCLE
  8
0
 10
265.707908
 20
175.646951
 30
0.0
 40
0.205482
  0
CIRCLE
  8
0
 10
265.037935
 20
176.412062
 30
0.0
 40
0.14457
  0
CIRCLE
  8
0
 10
265.037935
 20
176.412062
 30
0.0
 40
0.301438
  0
CIRCLE
  8
0
 10
265.037935
 20
176.412062
 30
0.0
 40
0.258375
  0
CIRCLE
  8
0
 10
265.037935
 20
176.412062
 30
0.0
 40
0.238346
  0
ARC
  8
0
 10
264.620069
 20
176.35598
 30
0.0
 40
0.120175
 50
270.0
 51
7.643947
  0
LINE
  8
0
 10
264.484131
 20
176.235806
 30
0.0
 11
264.620069
 21
176.235806
 31
0.0
  0
ARC
  8
0
 10
264.484131
 20
176.195748
 30
0.0
 40
0.040058
 50
90.0
 51
180.0
  0
POLYLINE
  8
0
 66
     1
 10
0.0
 20
0.0
 30
0.0
 70
     1
  0
VERTEX
  8
0
 10
265.156107
 20
176.480288
 30
0.0
  0
VERTEX
  8
0
 10
265.037935
 20
176.548515
 30
0.0
  0
VERTEX
  8
0
 10
264.919764
 20
176.480288
 30
0.0
  0
VERTEX
  8
0
 10
264.919764
 20
176.343836
 30
0.0
  0
VERTEX
  8
0
 10
265.037935
 20
176.275609
 30
0.0
  0
VERTEX
  8
0
 10
265.156107
 20
176.343836
 30
0.0
  0
SEQEND
  8
0
  0
ARC
  8
0
 10
264.83517
 20
176.870993
 30
0.0
 40
0.200291
 50
293.836808
 51
16.716976
  0
ARC
  8
0
 10
264.899734
 20
176.724344
 30
0.0
 40
0.040058
 50
180.0
 51
293.871833
  0
LINE
  8
0
 10
262.08064
 20
177.527382
 30
0.0
 11
263.494694
 21
177.527382
 31
0.0
  0
LINE
  8
0
 10
262.040581
 20
177.487324
 30
0.0
 11
262.08064
 21
177.527382
 31
0.0
  0
LINE
  8
0
 10
264.110588
 20
178.606249
 30
0.0
 11
264.444073
 21
178.606249
 31
0.0
  0
LINE
  8
0
 10
264.110588
 20
178.248147
 30
0.0
 11
264.444073
 21
178.248147
 31
0.0
  0
ARC
  8
OBJ
 10
263.64899
 20
177.957313
 30
0.0
 40
0.091822
 50
109.954678
 51
250.045322
  0
LINE
  8
OBJ
 10
263.557168
 20
177.910986
 30
0.0
 11
263.557168
 21
178.043622
 31
0.0
  0
LINE
  8
OBJ
 10
263.873636
 20
177.871004
 30
0.0
 11
263.873636
 21
178.569151
 31
0.0
  0
LINE
  8
OBJ
  6
CONTINUOUS
 10
263.873636
 20
177.871004
 30
0.0
 11
263.617654
 21
177.871004
 31
0.0
  0
LINE
  8
0
 10
263.514723
 20
177.623822
 30
0.0
 11
263.830181
 21
177.623822
 31
0.0
  0
LINE
  8
0
 10
263.494694
 20
177.603793
 30
0.0
 11
263.514723
 21
177.623822
 31
0.0
  0
LINE
  8
OBJ
 10
263.557168
 20
177.910986
 30
0.0
 11
263.59443
 21
177.883459
 31
0.0
  0
LINE
  8
OBJ
  6
CENTER2
 10
263.950355
 20
177.898815
 30
0.0
 11
263.873636
 21
177.898815
 31
0.0
  0
LINE
  8
OBJ
  6
CONTINUOUS
 10
263.873636
 20
178.396532
 30
0.0
 11
263.617654
 21
178.396532
 31
0.0
  0
LINE
  8
OBJ
  6
CONTINUOUS
 10
263.873636
 20
178.569151
 30
0.0
 11
263.617654
 21
178.569151
 31
0.0
  0
LINE
  8
OBJ
  6
CONTINUOUS
 10
263.873636
 20
178.043622
 30
0.0
 11
263.617654
 21
178.043622
 31
0.0
  0
ARC
  8
OBJ
 10
263.844798
 20
178.220077
 30
0.0
 40
0.287629
 50
142.158498
 51
217.841502
  0
LINE
  8
OBJ
 10
263.557168
 20
178.043622
 30
0.0
 11
263.557168
 21
178.396532
 31
0.0
  0
ARC
  8
OBJ
 10
263.64899
 20
178.482841
 30
0.0
 40
0.091822
 50
109.954678
 51
250.045322
  0
LINE
  8
OBJ
 10
263.557168
 20
178.396532
 30
0.0
 11
263.557168
 21
178.529168
 31
0.0
  0
LINE
  8
OBJ
 10
263.557168
 20
178.529168
 30
0.0
 11
263.59443
 21
178.556696
 31
0.0
  0
LINE
  8
OBJ
 10
263.950355
 20
178.14242
 30
0.0
 11
263.873636
 21
178.0657
 31
0.0
  0
LINE
  8
0
 10
264.110588
 20
178.606249
 30
0.0
 11
263.970385
 21
178.606249
 31
0.0
  0
LINE
  8
OBJ
  6
CENTER2
 10
263.950355
 20
178.54134
 30
0.0
 11
263.873636
 21
178.54134
 31
0.0
  0
ARC
  8
0
 10
263.970385
 20
178.58622
 30
0.0
 40
0.020029
 50
90.0
 51
180.0
  0
ARC
  8
0
 10
264.335814
 20
178.55338
 30
0.0
 40
0.761997
 50
337.526252
 51
32.386757
  0
LINE
  8
0
 10
264.444073
 20
178.946744
 30
0.0
 11
264.444073
 21
178.023403
 31
0.0
  0
CIRCLE
  8
0
 10
265.037935
 20
177.854157
 30
0.0
 40
0.238346
  0
CIRCLE
  8
0
 10
265.037935
 20
177.854157
 30
0.0
 40
0.258375
  0
CIRCLE
  8
0
 10
265.037935
 20
177.854157
 30
0.0
 40
0.301438
  0
CIRCLE
  8
0
 10
265.037935
 20
177.854157
 30
0.0
 40
0.14457
  0
ARC
  8
0
 10
264.616419
 20
177.86317
 30
0.0
 40
0.120175
 50
358.775056
 51
90.0
  0
POLYLINE
  8
0
 66
     1
 10
0.0
 20
0.0
 30
0.0
 70
     1
  0
VERTEX
  8
0
 10
265.156107
 20
177.922383
 30
0.0
  0
VERTEX
  8
0
 10
265.037935
 20
177.99061
 30
0.0
  0
VERTEX
  8
0
 10
264.919764
 20
177.922383
 30
0.0
  0
VERTEX
  8
0
 10
264.919764
 20
177.78593
 30
0.0
  0
VERTEX
  8
0
 10
265.037935
 20
177.717704
 30
0.0
  0
VERTEX
  8
0
 10
265.156107
 20
177.78593
 30
0.0
  0
SEQEND
  8
0
  0
ARC
  8
0
 10
264.83517
 20
177.395225
 30
0.0
 40
0.200291
 50
343.283024
 51
66.163192
  0
ARC
  8
0
 10
264.899734
 20
177.541875
 30
0.0
 40
0.040058
 50
66.128167
 51
180.0
  0
LINE
  8
0
 10
264.616419
 20
177.983344
 30
0.0
 11
264.484131
 21
177.983344
 31
0.0
  0
ARC
  8
0
 10
264.484131
 20
178.023403
 30
0.0
 40
0.040058
 50
180.0
 51
270.0
  0
ARC
  8
0
 10
265.087926
 20
178.238075
 30
0.0
 40
0.053662
 50
153.405005
 51
223.832401
  0
ARC
  8
0
 10
265.326803
 20
178.125029
 30
0.0
 40
0.072843
 50
223.300006
 51
272.738784
  0
LINE
  8
0
 10
265.091413
 20
179.244176
 30
0.0
 11
265.091413
 21
179.354336
 31
0.0
  0
LINE
  8
0
 10
264.872695
 20
178.986802
 30
0.0
 11
264.484131
 21
178.986802
 31
0.0
  0
ARC
  8
0
 10
264.484131
 20
178.946744
 30
0.0
 40
0.040058
 50
90.0
 51
180.0
  0
ARC
  8
0
 10
264.872695
 20
179.106977
 30
0.0
 40
0.120175
 50
270.0
 51
0.0
  0
LINE
  8
0
 10
264.99287
 20
179.204118
 30
0.0
 11
264.99287
 21
179.106977
 31
0.0
  0
LINE
  8
0
 10
265.032928
 20
179.244176
 30
0.0
 11
264.99287
 21
179.204118
 31
0.0
  0
LINE
  8
0
 10
265.111442
 20
179.374365
 30
0.0
 11
265.091413
 21
179.354336
 31
0.0
  0
ARC
  8
0
 10
265.707908
 20
178.984569
 30
0.0
 40
0.630146
 50
64.589813
 51
115.410187
  0
ARC
  8
0
 10
265.302319
 20
179.434317
 30
0.0
 40
0.180397
 50
41.458173
 51
138.541827
  0
LINE
  8
0
 10
265.167123
 20
179.553753
 30
0.0
 11
265.214782
 21
179.614714
 31
0.0
  0
LINE
  8
0
 10
265.167123
 20
179.383378
 30
0.0
 11
265.167123
 21
179.553753
 31
0.0
  0
ARC
  8
0
 10
265.15811
 20
179.383378
 30
0.0
 40
0.009013
 50
270.0
 51
0.0
  0
LINE
  8
0
 10
265.437516
 20
179.383378
 30
0.0
 11
265.437516
 21
179.553753
 31
0.0
  0
ARC
  8
0
 10
265.446529
 20
179.383378
 30
0.0
 40
0.009013
 50
180.0
 51
270.0
  0
ARC
  8
0
 10
265.428503
 20
179.383378
 30
0.0
 40
0.009013
 50
270.0
 51
0.0
  0
LINE
  8
0
 10
265.743961
 20
179.631222
 30
0.0
 11
265.812776
 21
179.676804
 31
0.0
  0
LINE
  8
0
 10
265.743961
 20
179.614714
 30
0.0
 11
265.743961
 21
179.631222
 31
0.0
  0
LINE
  8
0
 10
265.978301
 20
179.383378
 30
0.0
 11
265.978301
 21
179.553753
 31
0.0
  0
ARC
  8
0
 10
265.987314
 20
179.383378
 30
0.0
 40
0.009013
 50
180.0
 51
270.0
  0
ARC
  8
0
 10
265.969288
 20
179.383378
 30
0.0
 40
0.009013
 50
270.0
 51
0.0
  0
LINE
  8
0
 10
265.949259
 20
179.688782
 30
0.0
 11
265.949259
 21
179.849673
 31
0.0
  0
LINE
  8
0
 10
265.812776
 20
179.676804
 30
0.0
 11
265.949259
 21
179.688782
 31
0.0
  0
LINE
  8
0
 10
269.236033
 20
177.541875
 30
0.0
 11
269.236033
 21
176.724344
 31
0.0
  0
LINE
  8
0
 10
269.359212
 20
177.854157
 30
0.0
 11
269.359212
 21
176.412062
 31
0.0
  0
CIRCLE
  8
0
 10
268.387801
 20
177.133109
 30
0.0
 40
0.271298
  0
CIRCLE
  8
0
 10
267.047855
 20
177.133109
 30
0.0
 40
0.271298
  0
ARC
  8
0
 10
268.387801
 20
177.133109
 30
0.0
 40
0.710959
 50
343.283024
 51
16.716976
  0
LINE
  8
0
 10
269.985121
 20
175.659969
 30
0.0
 11
269.985121
 21
178.606249
 31
0.0
  0
LINE
  8
0
 10
270.145354
 20
175.679999
 30
0.0
 11
270.145354
 21
178.58622
 31
0.0
  0
LINE
  8
0
 10
270.265529
 20
176.395215
 30
0.0
 11
270.265529
 21
177.871004
 31
0.0
  0
LINE
  8
0
 10
270.601016
 20
176.662426
 30
0.0
 11
270.601016
 21
177.603793
 31
0.0
  0
LINE
  8
0
 10
270.580987
 20
176.642397
 30
0.0
 11
270.580987
 21
177.623822
 31
0.0
  0
LINE
  8
0
 10
272.01507
 20
176.738837
 30
0.0
 11
272.01507
 21
177.527382
 31
0.0
  0
LINE
  8
0
 10
272.055128
 20
176.778895
 30
0.0
 11
272.055128
 21
177.487324
 31
0.0
  0
CIRCLE
  8
0
 10
268.387801
 20
177.133109
 30
0.0
 40
0.600873
  0
CIRCLE
  8
0
 10
267.047855
 20
177.133109
 30
0.0
 40
0.600873
  0
LINE
  8
0
 10
269.611579
 20
175.058095
 30
0.0
 11
268.894952
 21
175.058095
 31
0.0
  0
LINE
  8
0
 10
269.611579
 20
176.235806
 30
0.0
 11
269.47564
 21
176.235806
 31
0.0
  0
LINE
  8
0
 10
268.317699
 20
174.457222
 30
0.0
 11
268.037292
 21
174.73763
 31
0.0
  0
LINE
  8
0
 10
268.317699
 20
174.872975
 30
0.0
 11
268.317699
 21
174.307004
 31
0.0
  0
LINE
  8
0
 10
268.943608
 20
175.058095
 30
0.0
 11
268.943608
 21
174.307004
 31
0.0
  0
LINE
  8
0
 10
268.943608
 20
174.307004
 30
0.0
 11
268.317699
 21
174.307004
 31
0.0
  0
LINE
  8
0
 10
268.037292
 20
174.73763
 30
0.0
 11
267.223109
 21
174.73763
 31
0.0
  0
ARC
  8
0
 10
267.717828
 20
175.144863
 30
0.0
 40
0.060087
 50
36.848412
 51
143.151588
  0
ARC
  8
0
 10
267.717828
 20
176.05086
 30
0.0
 40
0.060087
 50
211.084714
 51
328.915286
  0
ARC
  8
0
 10
267.717828
 20
175.243041
 30
0.0
 40
0.060087
 50
31.084714
 51
148.915286
  0
ARC
  8
0
 10
268.387801
 20
175.646951
 30
0.0
 40
0.722222
 50
211.084714
 51
148.915286
  0
ARC
  8
0
 10
268.387801
 20
175.646951
 30
0.0
 40
0.722222
 50
211.084714
 51
148.915286
  0
CIRCLE
  8
0
 10
267.717828
 20
176.412062
 30
0.0
 40
0.14457
  0
POLYLINE
  8
0
 66
     1
 10
0.0
 20
0.0
 30
0.0
 70
     1
  0
VERTEX
  8
0
 10
267.836
 20
176.480288
 30
0.0
  0
VERTEX
  8
0
 10
267.717828
 20
176.548515
 30
0.0
  0
VERTEX
  8
0
 10
267.599656
 20
176.480288
 30
0.0
  0
VERTEX
  8
0
 10
267.599656
 20
176.343836
 30
0.0
  0
VERTEX
  8
0
 10
267.717828
 20
176.275609
 30
0.0
  0
VERTEX
  8
0
 10
267.836
 20
176.343836
 30
0.0
  0
SEQEND
  8
0
  0
CIRCLE
  8
0
 10
267.717828
 20
176.412062
 30
0.0
 40
0.301438
  0
CIRCLE
  8
0
 10
267.717828
 20
176.412062
 30
0.0
 40
0.258375
  0
CIRCLE
  8
0
 10
267.717828
 20
176.412062
 30
0.0
 40
0.238346
  0
CIRCLE
  8
0
 10
267.047855
 20
175.646951
 30
0.0
 40
0.616496
  0
POLYLINE
  8
0
 66
     1
 10
0.0
 20
0.0
 30
0.0
 70
     1
  0
VERTEX
  8
0
 10
267.047855
 20
176.187736
 30
0.0
  0
VERTEX
  8
0
 10
267.516189
 20
175.917343
 30
0.0
  0
VERTEX
  8
0
 10
267.516189
 20
175.376558
 30
0.0
  0
VERTEX
  8
0
 10
267.047855
 20
175.106165
 30
0.0
  0
VERTEX
  8
0
 10
266.579521
 20
175.376558
 30
0.0
  0
VERTEX
  8
0
 10
266.579521
 20
175.917343
 30
0.0
  0
SEQEND
  8
0
  0
CIRCLE
  8
0
 10
267.047855
 20
175.646951
 30
0.0
 40
0.459119
  0
LINE
  8
0
 10
266.8726
 20
174.756834
 30
0.0
 11
267.223109
 21
174.756834
 31
0.0
  0
ARC
  8
0
 10
267.047855
 20
175.646951
 30
0.0
 40
0.777144
 50
216.848412
 51
323.151588
  0
ARC
  8
0
 10
267.047855
 20
175.646951
 30
0.0
 40
0.722222
 50
211.084714
 51
328.915286
  0
CIRCLE
  8
0
 10
267.047855
 20
175.646951
 30
0.0
 40
0.205482
  0
CIRCLE
  8
0
 10
267.047855
 20
175.646951
 30
0.0
 40
0.297432
  0
LINE
  8
0
 10
266.8726
 20
174.73763
 30
0.0
 11
266.058418
 21
174.73763
 31
0.0
  0
ARC
  8
0
 10
266.377882
 20
175.144863
 30
0.0
 40
0.060087
 50
36.848412
 51
143.151588
  0
ARC
  8
0
 10
266.377882
 20
175.243041
 30
0.0
 40
0.060087
 50
31.084714
 51
148.915286
  0
LINE
  8
0
 10
266.8726
 20
174.889826
 30
0.0
 11
266.8726
 21
174.73763
 31
0.0
  0
LINE
  8
0
 10
267.223109
 20
174.889826
 30
0.0
 11
267.223109
 21
174.73763
 31
0.0
  0
CIRCLE
  8
0
 10
267.047855
 20
175.646951
 30
0.0
 40
0.143838
  0
ARC
  8
0
 10
267.047855
 20
175.646951
 30
0.0
 40
0.722222
 50
31.084714
 51
148.915286
  0
CIRCLE
  8
0
 10
266.377882
 20
176.412062
 30
0.0
 40
0.301438
  0
CIRCLE
  8
0
 10
266.377882
 20
176.412062
 30
0.0
 40
0.258375
  0
CIRCLE
  8
0
 10
266.377882
 20
176.412062
 30
0.0
 40
0.238346
  0
CIRCLE
  8
0
 10
266.377882
 20
176.412062
 30
0.0
 40
0.14457
  0
POLYLINE
  8
0
 66
     1
 10
0.0
 20
0.0
 30
0.0
 70
     1
  0
VERTEX
  8
0
 10
266.496053
 20
176.480288
 30
0.0
  0
VERTEX
  8
0
 10
266.377882
 20
176.548515
 30
0.0
  0
VERTEX
  8
0
 10
266.25971
 20
176.480288
 30
0.0
  0
VERTEX
  8
0
 10
266.25971
 20
176.343836
 30
0.0
  0
VERTEX
  8
0
 10
266.377882
 20
176.275609
 30
0.0
  0
VERTEX
  8
0
 10
266.496053
 20
176.343836
 30
0.0
  0
SEQEND
  8
0
  0
ARC
  8
0
 10
266.377882
 20
176.05086
 30
0.0
 40
0.060087
 50
211.084714
 51
328.915286
  0
ARC
  8
0
 10
269.258358
 20
175.952173
 30
0.0
 40
0.200291
 50
113.564717
 51
199.320962
  0
CIRCLE
  8
0
 10
268.387801
 20
175.646951
 30
0.0
 40
0.459119
  0
POLYLINE
  8
0
 66
     1
 10
0.0
 20
0.0
 30
0.0
 70
     1
  0
VERTEX
  8
0
 10
268.387801
 20
176.187736
 30
0.0
  0
VERTEX
  8
0
 10
268.856135
 20
175.917343
 30
0.0
  0
VERTEX
  8
0
 10
268.856135
 20
175.376558
 30
0.0
  0
VERTEX
  8
0
 10
268.387801
 20
175.106165
 30
0.0
  0
VERTEX
  8
0
 10
267.919467
 20
175.376558
 30
0.0
  0
VERTEX
  8
0
 10
267.919467
 20
175.917343
 30
0.0
  0
SEQEND
  8
0
  0
CIRCLE
  8
0
 10
268.387801
 20
175.646951
 30
0.0
 40
0.616496
  0
ARC
  8
0
 10
268.387801
 20
175.646951
 30
0.0
 40
0.777144
 50
216.848412
 51
327.217452
  0
CIRCLE
  8
0
 10
268.387801
 20
175.646951
 30
0.0
 40
0.297432
  0
CIRCLE
  8
0
 10
268.387801
 20
175.646951
 30
0.0
 40
0.205482
  0
CIRCLE
  8
0
 10
268.387801
 20
175.646951
 30
0.0
 40
0.143838
  0
ARC
  8
0
 10
269.142205
 20
175.161096
 30
0.0
 40
0.120175
 50
90.0
 51
147.217452
  0
ARC
  8
0
 10
268.963638
 20
175.010824
 30
0.0
 40
0.040058
 50
270.0
 51
0.0
  0
LINE
  8
0
 10
268.943608
 20
174.970766
 30
0.0
 11
268.963638
 21
174.970766
 31
0.0
  0
LINE
  8
0
 10
269.003696
 20
175.058095
 30
0.0
 11
269.003696
 21
175.010824
 31
0.0
  0
LINE
  8
0
 10
269.003696
 20
175.058095
 30
0.0
 11
269.003696
 21
175.010824
 31
0.0
  0
CIRCLE
  8
0
 10
269.057774
 20
176.412062
 30
0.0
 40
0.301438
  0
CIRCLE
  8
0
 10
269.057774
 20
176.412062
 30
0.0
 40
0.258375
  0
CIRCLE
  8
0
 10
269.057774
 20
176.412062
 30
0.0
 40
0.238346
  0
CIRCLE
  8
0
 10
269.057774
 20
176.412062
 30
0.0
 40
0.14457
  0
POLYLINE
  8
0
 66
     1
 10
0.0
 20
0.0
 30
0.0
 70
     1
  0
VERTEX
  8
0
 10
269.175946
 20
176.480288
 30
0.0
  0
VERTEX
  8
0
 10
269.057774
 20
176.548515
 30
0.0
  0
VERTEX
  8
0
 10
268.939603
 20
176.480288
 30
0.0
  0
VERTEX
  8
0
 10
268.939603
 20
176.343836
 30
0.0
  0
VERTEX
  8
0
 10
269.057774
 20
176.275609
 30
0.0
  0
VERTEX
  8
0
 10
269.175946
 20
176.343836
 30
0.0
  0
SEQEND
  8
0
  0
ARC
  8
0
 10
269.47564
 20
176.35598
 30
0.0
 40
0.120175
 50
172.356053
 51
270.0
  0
ARC
  8
0
 10
269.26054
 20
176.870993
 30
0.0
 40
0.200291
 50
163.283024
 51
246.163192
  0
ARC
  8
0
 10
269.195975
 20
176.724344
 30
0.0
 40
0.040058
 50
246.128167
 51
0.0
  0
LINE
  8
0
 10
272.01507
 20
176.738837
 30
0.0
 11
270.601016
 21
176.738837
 31
0.0
  0
LINE
  8
0
 10
269.651637
 20
176.195748
 30
0.0
 11
269.651637
 21
175.098153
 31
0.0
  0
ARC
  8
OBJ
 10
270.250912
 20
176.046141
 30
0.0
 40
0.287629
 50
322.158498
 51
37.841502
  0
LINE
  8
OBJ
 10
270.538541
 20
176.222596
 30
0.0
 11
270.538541
 21
175.869687
 31
0.0
  0
LINE
  8
OBJ
 10
270.222074
 20
176.395215
 30
0.0
 11
270.222074
 21
175.697068
 31
0.0
  0
LINE
  8
OBJ
  6
CONTINUOUS
 10
270.222074
 20
175.869687
 30
0.0
 11
270.478056
 21
175.869687
 31
0.0
  0
LINE
  8
OBJ
  6
CONTINUOUS
 10
270.222074
 20
175.697068
 30
0.0
 11
270.478056
 21
175.697068
 31
0.0
  0
ARC
  8
0
 10
269.611579
 20
175.098153
 30
0.0
 40
0.040058
 50
270.0
 51
0.0
  0
LINE
  8
0
 10
269.985121
 20
175.659969
 30
0.0
 11
269.651637
 21
175.659969
 31
0.0
  0
ARC
  8
0
 10
270.125325
 20
175.679999
 30
0.0
 40
0.020029
 50
270.0
 51
0.0
  0
LINE
  8
0
 10
269.985121
 20
175.659969
 30
0.0
 11
270.125325
 21
175.659969
 31
0.0
  0
LINE
  8
OBJ
  6
CENTER2
 10
270.145354
 20
175.724879
 30
0.0
 11
270.222074
 21
175.724879
 31
0.0
  0
LINE
  8
OBJ
 10
270.538541
 20
175.73705
 30
0.0
 11
270.501279
 21
175.709523
 31
0.0
  0
ARC
  8
OBJ
 10
270.446719
 20
175.783377
 30
0.0
 40
0.091822
 50
289.954678
 51
70.045322
  0
LINE
  8
OBJ
 10
270.538541
 20
175.869687
 30
0.0
 11
270.538541
 21
175.73705
 31
0.0
  0
LINE
  8
OBJ
  6
CONTINUOUS
 10
270.222074
 20
176.222596
 30
0.0
 11
270.478056
 21
176.222596
 31
0.0
  0
LINE
  8
OBJ
  6
CONTINUOUS
 10
270.222074
 20
176.395215
 30
0.0
 11
270.478056
 21
176.395215
 31
0.0
  0
LINE
  8
0
 10
270.580987
 20
176.642397
 30
0.0
 11
270.265529
 21
176.642397
 31
0.0
  0
LINE
  8
0
 10
269.985121
 20
176.018072
 30
0.0
 11
269.651637
 21
176.018072
 31
0.0
  0
ARC
  8
0
 10
269.611579
 20
176.195748
 30
0.0
 40
0.040058
 50
0.0
 51
90.0
  0
LINE
  8
OBJ
 10
270.145354
 20
176.123799
 30
0.0
 11
270.222074
 21
176.200518
 31
0.0
  0
LINE
  8
OBJ
  6
CENTER2
 10
270.145354
 20
176.367404
 30
0.0
 11
270.222074
 21
176.367404
 31
0.0
  0
LINE
  8
0
 10
270.580987
 20
176.642397
 30
0.0
 11
270.601016
 21
176.662426
 31
0.0
  0
LINE
  8
OBJ
 10
270.538541
 20
176.355233
 30
0.0
 11
270.538541
 21
176.222596
 31
0.0
  0
ARC
  8
OBJ
 10
270.446719
 20
176.308906
 30
0.0
 40
0.091822
 50
289.954678
 51
70.045322
  0
LINE
  8
OBJ
 10
270.538541
 20
176.355233
 30
0.0
 11
270.501279
 21
176.38276
 31
0.0
  0
LINE
  8
0
 10
272.01507
 20
176.738837
 30
0.0
 11
272.055128
 21
176.778895
 31
0.0
  0
LINE
  8
0
 10
269.47929
 20
177.983344
 30
0.0
 11
269.611579
 21
177.983344
 31
0.0
  0
LINE
  8
0
 10
269.223014
 20
178.986802
 30
0.0
 11
269.611579
 21
178.986802
 31
0.0
  0
ARC
  8
0
 10
266.68633
 20
179.849673
 30
0.0
 40
0.200291
 50
0.0
 51
81.743877
  0
ARC
  8
0
 10
267.84592
 20
178.769063
 30
0.0
 40
0.087929
 50
173.066726
 51
225.013745
  0
CIRCLE
  8
0
 10
267.717828
 20
177.854157
 30
0.0
 40
0.14457
  0
POLYLINE
  8
0
 66
     1
 10
0.0
 20
0.0
 30
0.0
 70
     1
  0
VERTEX
  8
0
 10
267.836
 20
177.922383
 30
0.0
  0
VERTEX
  8
0
 10
267.717828
 20
177.99061
 30
0.0
  0
VERTEX
  8
0
 10
267.599656
 20
177.922383
 30
0.0
  0
VERTEX
  8
0
 10
267.599656
 20
177.78593
 30
0.0
  0
VERTEX
  8
0
 10
267.717828
 20
177.717704
 30
0.0
  0
VERTEX
  8
0
 10
267.836
 20
177.78593
 30
0.0
  0
SEQEND
  8
0
  0
CIRCLE
  8
0
 10
267.717828
 20
177.854157
 30
0.0
 40
0.301438
  0
CIRCLE
  8
0
 10
267.717828
 20
177.854157
 30
0.0
 40
0.258375
  0
CIRCLE
  8
0
 10
267.717828
 20
177.854157
 30
0.0
 40
0.238346
  0
LINE
  8
0
 10
269.062782
 20
179.244176
 30
0.0
 11
267.712821
 21
179.244176
 31
0.0
  0
ARC
  8
0
 10
268.107676
 20
178.476946
 30
0.0
 40
0.510492
 50
153.230385
 51
199.23984
  0
ARC
  8
0
 10
265.988034
 20
178.476946
 30
0.0
 40
0.510492
 50
340.76016
 51
26.769615
  0
ARC
  8
0
 10
266.767729
 20
178.476946
 30
0.0
 40
0.510492
 50
153.230385
 51
199.23984
  0
LINE
  8
0
 10
267.432441
 20
178.052269
 30
0.0
 11
266.663269
 21
178.052269
 31
0.0
  0
CIRCLE
  8
0
 10
266.377882
 20
177.854157
 30
0.0
 40
0.14457
  0
POLYLINE
  8
0
 66
     1
 10
0.0
 20
0.0
 30
0.0
 70
     1
  0
VERTEX
  8
0
 10
266.496053
 20
177.922383
 30
0.0
  0
VERTEX
  8
0
 10
266.377882
 20
177.99061
 30
0.0
  0
VERTEX
  8
0
 10
266.25971
 20
177.922383
 30
0.0
  0
VERTEX
  8
0
 10
266.25971
 20
177.78593
 30
0.0
  0
VERTEX
  8
0
 10
266.377882
 20
177.717704
 30
0.0
  0
VERTEX
  8
0
 10
266.496053
 20
177.78593
 30
0.0
  0
SEQEND
  8
0
  0
CIRCLE
  8
0
 10
266.377882
 20
177.854157
 30
0.0
 40
0.301438
  0
CIRCLE
  8
0
 10
266.377882
 20
177.854157
 30
0.0
 40
0.258375
  0
CIRCLE
  8
0
 10
266.377882
 20
177.854157
 30
0.0
 40
0.238346
  0
ARC
  8
0
 10
266.603771
 20
178.271795
 30
0.0
 40
0.138763
 50
164.564501
 51
235.292929
  0
ARC
  8
0
 10
266.151992
 20
178.271795
 30
0.0
 40
0.138763
 50
304.707071
 51
15.435499
  0
ARC
  8
0
 10
266.089014
 20
178.125029
 30
0.0
 40
0.072843
 50
267.261216
 51
316.699994
  0
ARC
  8
0
 10
266.666749
 20
178.125029
 30
0.0
 40
0.072843
 50
223.300006
 51
272.738784
  0
ARC
  8
0
 10
267.491938
 20
178.271795
 30
0.0
 40
0.138763
 50
304.707071
 51
15.435499
  0
ARC
  8
0
 10
267.42896
 20
178.125029
 30
0.0
 40
0.072843
 50
267.261216
 51
316.699994
  0
ARC
  8
0
 10
266.923424
 20
179.342595
 30
0.0
 40
0.334209
 50
59.724427
 51
120.275573
  0
LINE
  8
0
 10
267.023104
 20
179.676804
 30
0.0
 11
266.886621
 21
179.688782
 31
0.0
  0
ARC
  8
0
 10
267.047855
 20
178.984569
 30
0.0
 40
0.630146
 50
64.589813
 51
115.410187
  0
LINE
  8
0
 10
267.644321
 20
179.374365
 30
0.0
 11
266.451388
 21
179.374365
 31
0.0
  0
LINE
  8
0
 10
267.66435
 20
179.354336
 30
0.0
 11
266.431359
 21
179.354336
 31
0.0
  0
LINE
  8
0
 10
267.540981
 20
179.614714
 30
0.0
 11
266.554729
 21
179.614714
 31
0.0
  0
LINE
  8
0
 10
266.431359
 20
179.244176
 30
0.0
 11
267.66435
 21
179.244176
 31
0.0
  0
LINE
  8
0
 10
266.324404
 20
179.244176
 30
0.0
 11
266.324404
 21
179.354336
 31
0.0
  0
LINE
  8
0
 10
266.431359
 20
179.244176
 30
0.0
 11
266.431359
 21
179.354336
 31
0.0
  0
LINE
  8
0
 10
266.418688
 20
179.204118
 30
0.0
 11
266.418688
 21
178.779678
 31
0.0
  0
LINE
  8
0
 10
266.337075
 20
179.204118
 30
0.0
 11
266.337075
 21
178.779678
 31
0.0
  0
ARC
  8
0
 10
266.505973
 20
178.769063
 30
0.0
 40
0.087929
 50
173.066726
 51
225.013745
  0
ARC
  8
0
 10
266.24979
 20
178.769063
 30
0.0
 40
0.087929
 50
314.986255
 51
6.933274
  0
ARC
  8
0
 10
266.41794
 20
178.408341
 30
0.0
 40
1.268463
 50
74.593375
 51
105.406625
  0
LINE
  8
0
 10
266.248694
 20
179.553753
 30
0.0
 11
266.201034
 21
179.614714
 31
0.0
  0
LINE
  8
0
 10
266.08095
 20
179.614714
 30
0.0
 11
266.08095
 21
179.631222
 31
0.0
  0
LINE
  8
0
 10
266.431359
 20
179.344321
 30
0.0
 11
266.324404
 21
179.344321
 31
0.0
  0
LINE
  8
0
 10
266.324404
 20
179.344321
 30
0.0
 11
266.431359
 21
179.344321
 31
0.0
  0
LINE
  8
0
 10
266.248694
 20
179.383378
 30
0.0
 11
266.248694
 21
179.553753
 31
0.0
  0
ARC
  8
0
 10
266.257707
 20
179.383378
 30
0.0
 40
0.009013
 50
180.0
 51
270.0
  0
LINE
  8
0
 10
266.304375
 20
179.374365
 30
0.0
 11
266.324404
 21
179.354336
 31
0.0
  0
LINE
  8
0
 10
266.451388
 20
179.374365
 30
0.0
 11
266.431359
 21
179.354336
 31
0.0
  0
ARC
  8
0
 10
266.642266
 20
179.434317
 30
0.0
 40
0.180397
 50
41.458173
 51
138.541827
  0
LINE
  8
0
 10
266.507069
 20
179.383378
 30
0.0
 11
266.507069
 21
179.553753
 31
0.0
  0
ARC
  8
0
 10
266.498056
 20
179.383378
 30
0.0
 40
0.009013
 50
270.0
 51
0.0
  0
LINE
  8
0
 10
266.507069
 20
179.553753
 30
0.0
 11
266.554729
 21
179.614714
 31
0.0
  0
LINE
  8
0
 10
266.754929
 20
179.614714
 30
0.0
 11
266.754929
 21
179.631222
 31
0.0
  0
LINE
  8
0
 10
266.777462
 20
179.383378
 30
0.0
 11
266.777462
 21
179.553753
 31
0.0
  0
ARC
  8
0
 10
266.768449
 20
179.383378
 30
0.0
 40
0.009013
 50
270.0
 51
0.0
  0
ARC
  8
0
 10
266.786475
 20
179.383378
 30
0.0
 40
0.009013
 50
180.0
 51
270.0
  0
LINE
  8
0
 10
266.886621
 20
179.688782
 30
0.0
 11
266.886621
 21
179.849673
 31
0.0
  0
LINE
  8
0
 10
267.66435
 20
179.244176
 30
0.0
 11
267.66435
 21
179.354336
 31
0.0
  0
LINE
  8
0
 10
267.677022
 20
179.204118
 30
0.0
 11
267.677022
 21
178.779678
 31
0.0
  0
ARC
  8
0
 10
267.589736
 20
178.769063
 30
0.0
 40
0.087929
 50
314.986255
 51
6.933274
  0
ARC
  8
0
 10
267.327261
 20
179.383378
 30
0.0
 40
0.009013
 50
180.0
 51
270.0
  0
ARC
  8
0
 10
267.453444
 20
179.434317
 30
0.0
 40
0.180397
 50
41.458173
 51
138.541827
  0
LINE
  8
0
 10
267.091919
 20
179.631222
 30
0.0
 11
267.023104
 21
179.676804
 31
0.0
  0
LINE
  8
0
 10
267.091919
 20
179.614714
 30
0.0
 11
267.091919
 21
179.631222
 31
0.0
  0
LINE
  8
0
 10
267.318248
 20
179.383378
 30
0.0
 11
267.318248
 21
179.553753
 31
0.0
  0
ARC
  8
0
 10
267.309234
 20
179.383378
 30
0.0
 40
0.009013
 50
270.0
 51
0.0
  0
LINE
  8
0
 10
267.58864
 20
179.553753
 30
0.0
 11
267.540981
 21
179.614714
 31
0.0
  0
LINE
  8
0
 10
267.58864
 20
179.383378
 30
0.0
 11
267.58864
 21
179.553753
 31
0.0
  0
ARC
  8
0
 10
267.597653
 20
179.383378
 30
0.0
 40
0.009013
 50
180.0
 51
270.0
  0
LINE
  8
0
 10
267.644321
 20
179.374365
 30
0.0
 11
267.66435
 21
179.354336
 31
0.0
  0
ARC
  8
0
 10
267.32798
 20
178.476946
 30
0.0
 40
0.510492
 50
340.76016
 51
26.769615
  0
ARC
  8
0
 10
269.759895
 20
178.55338
 30
0.0
 40
0.761997
 50
147.613243
 51
202.473748
  0
LINE
  8
0
 10
268.772387
 20
178.052269
 30
0.0
 11
268.003215
 21
178.052269
 31
0.0
  0
ARC
  8
0
 10
267.943718
 20
178.271795
 30
0.0
 40
0.138763
 50
164.564501
 51
235.292929
  0
ARC
  8
0
 10
268.006696
 20
178.125029
 30
0.0
 40
0.072843
 50
223.300006
 51
272.738784
  0
ARC
  8
0
 10
269.47929
 20
177.86317
 30
0.0
 40
0.120175
 50
90.0
 51
181.224944
  0
CIRCLE
  8
0
 10
269.057774
 20
177.854157
 30
0.0
 40
0.14457
  0
POLYLINE
  8
0
 66
     1
 10
0.0
 20
0.0
 30
0.0
 70
     1
  0
VERTEX
  8
0
 10
269.175946
 20
177.922383
 30
0.0
  0
VERTEX
  8
0
 10
269.057774
 20
177.99061
 30
0.0
  0
VERTEX
  8
0
 10
268.939603
 20
177.922383
 30
0.0
  0
VERTEX
  8
0
 10
268.939603
 20
177.78593
 30
0.0
  0
VERTEX
  8
0
 10
269.057774
 20
177.717704
 30
0.0
  0
VERTEX
  8
0
 10
269.175946
 20
177.78593
 30
0.0
  0
SEQEND
  8
0
  0
CIRCLE
  8
0
 10
269.057774
 20
177.854157
 30
0.0
 40
0.301438
  0
CIRCLE
  8
0
 10
269.057774
 20
177.854157
 30
0.0
 40
0.258375
  0
CIRCLE
  8
0
 10
269.057774
 20
177.854157
 30
0.0
 40
0.238346
  0
ARC
  8
0
 10
269.26054
 20
177.395225
 30
0.0
 40
0.200291
 50
113.836808
 51
196.716976
  0
ARC
  8
0
 10
269.195975
 20
177.541875
 30
0.0
 40
0.040058
 50
0.0
 51
113.871833
  0
ARC
  8
0
 10
269.007784
 20
178.238075
 30
0.0
 40
0.053662
 50
316.167599
 51
26.594995
  0
ARC
  8
0
 10
268.768907
 20
178.125029
 30
0.0
 40
0.072843
 50
267.261216
 51
316.699994
  0
LINE
  8
0
 10
268.880927
 20
179.614714
 30
0.0
 11
267.894675
 21
179.614714
 31
0.0
  0
LINE
  8
0
 10
269.004297
 20
179.354336
 30
0.0
 11
267.771306
 21
179.354336
 31
0.0
  0
LINE
  8
0
 10
268.984268
 20
179.374365
 30
0.0
 11
267.791335
 21
179.374365
 31
0.0
  0
ARC
  8
0
 10
268.387801
 20
178.984569
 30
0.0
 40
0.630146
 50
64.589813
 51
115.410187
  0
LINE
  8
0
 10
267.771306
 20
179.244176
 30
0.0
 11
267.771306
 21
179.354336
 31
0.0
  0
LINE
  8
0
 10
267.758634
 20
179.204118
 30
0.0
 11
267.758634
 21
178.779678
 31
0.0
  0
ARC
  8
0
 10
267.982212
 20
179.434317
 30
0.0
 40
0.180397
 50
41.458173
 51
138.541827
  0
LINE
  8
0
 10
267.847016
 20
179.553753
 30
0.0
 11
267.894675
 21
179.614714
 31
0.0
  0
ARC
  8
0
 10
267.838003
 20
179.383378
 30
0.0
 40
0.009013
 50
270.0
 51
0.0
  0
LINE
  8
0
 10
267.791335
 20
179.374365
 30
0.0
 11
267.771306
 21
179.354336
 31
0.0
  0
LINE
  8
0
 10
267.847016
 20
179.383378
 30
0.0
 11
267.847016
 21
179.553753
 31
0.0
  0
ARC
  8
0
 10
268.126421
 20
179.383378
 30
0.0
 40
0.009013
 50
180.0
 51
270.0
  0
ARC
  8
0
 10
268.108395
 20
179.383378
 30
0.0
 40
0.009013
 50
270.0
 51
0.0
  0
LINE
  8
0
 10
268.117408
 20
179.383378
 30
0.0
 11
268.117408
 21
179.553753
 31
0.0
  0
LINE
  8
0
 10
269.004297
 20
179.244176
 30
0.0
 11
269.004297
 21
179.354336
 31
0.0
  0
ARC
  8
0
 10
269.223014
 20
179.106977
 30
0.0
 40
0.120175
 50
180.0
 51
270.0
  0
LINE
  8
0
 10
269.10284
 20
179.204118
 30
0.0
 11
269.10284
 21
179.106977
 31
0.0
  0
LINE
  8
0
 10
269.062782
 20
179.244176
 30
0.0
 11
269.10284
 21
179.204118
 31
0.0
  0
ARC
  8
0
 10
268.79339
 20
179.434317
 30
0.0
 40
0.180397
 50
41.458173
 51
138.541827
  0
ARC
  8
0
 10
268.667207
 20
179.383378
 30
0.0
 40
0.009013
 50
180.0
 51
270.0
  0
ARC
  8
0
 10
268.649181
 20
179.383378
 30
0.0
 40
0.009013
 50
270.0
 51
0.0
  0
LINE
  8
0
 10
268.658194
 20
179.383378
 30
0.0
 11
268.658194
 21
179.553753
 31
0.0
  0
LINE
  8
0
 10
268.984268
 20
179.374365
 30
0.0
 11
269.004297
 21
179.354336
 31
0.0
  0
ARC
  8
0
 10
268.9376
 20
179.383378
 30
0.0
 40
0.009013
 50
180.0
 51
270.0
  0
LINE
  8
0
 10
268.928587
 20
179.383378
 30
0.0
 11
268.928587
 21
179.553753
 31
0.0
  0
LINE
  8
0
 10
268.928587
 20
179.553753
 30
0.0
 11
268.880927
 21
179.614714
 31
0.0
  0
ARC
  8
0
 10
266.41794
 20
178.000012
 30
0.0
 40
2.069322
 50
81.743877
 51
98.256123
  0
LINE
  8
0
 10
272.01507
 20
177.527382
 30
0.0
 11
270.601016
 21
177.527382
 31
0.0
  0
LINE
  8
0
 10
269.651637
 20
178.946744
 30
0.0
 11
269.651637
 21
178.023403
 31
0.0
  0
LINE
  8
OBJ
  6
CONTINUOUS
 10
270.222074
 20
178.569151
 30
0.0
 11
270.478056
 21
178.569151
 31
0.0
  0
LINE
  8
OBJ
  6
CONTINUOUS
 10
270.222074
 20
178.396532
 30
0.0
 11
270.478056
 21
178.396532
 31
0.0
  0
LINE
  8
0
 10
270.580987
 20
177.623822
 30
0.0
 11
270.265529
 21
177.623822
 31
0.0
  0
LINE
  8
OBJ
  6
CONTINUOUS
 10
270.222074
 20
178.043622
 30
0.0
 11
270.478056
 21
178.043622
 31
0.0
  0
LINE
  8
OBJ
  6
CONTINUOUS
 10
270.222074
 20
177.871004
 30
0.0
 11
270.478056
 21
177.871004
 31
0.0
  0
LINE
  8
OBJ
 10
270.222074
 20
177.871004
 30
0.0
 11
270.222074
 21
178.569151
 31
0.0
  0
LINE
  8
OBJ
  6
CENTER2
 10
270.145354
 20
177.898815
 30
0.0
 11
270.222074
 21
177.898815
 31
0.0
  0
LINE
  8
0
 10
269.985121
 20
178.606249
 30
0.0
 11
269.651637
 21
178.606249
 31
0.0
  0
LINE
  8
0
 10
269.985121
 20
178.248147
 30
0.0
 11
269.651637
 21
178.248147
 31
0.0
  0
ARC
  8
0
 10
269.611579
 20
178.023403
 30
0.0
 40
0.040058
 50
270.0
 51
0.0
  0
LINE
  8
OBJ
 10
270.145354
 20
178.14242
 30
0.0
 11
270.222074
 21
178.0657
 31
0.0
  0
ARC
  8
0
 10
270.125325
 20
178.58622
 30
0.0
 40
0.020029
 50
0.0
 51
90.0
  0
LINE
  8
0
 10
269.985121
 20
178.606249
 30
0.0
 11
270.125325
 21
178.606249
 31
0.0
  0
LINE
  8
OBJ
  6
CENTER2
 10
270.145354
 20
178.54134
 30
0.0
 11
270.222074
 21
178.54134
 31
0.0
  0
LINE
  8
OBJ
 10
270.538541
 20
177.910986
 30
0.0
 11
270.538541
 21
178.043622
 31
0.0
  0
ARC
  8
OBJ
 10
270.446719
 20
177.957313
 30
0.0
 40
0.091822
 50
289.954678
 51
70.045322
  0
LINE
  8
0
 10
270.601016
 20
177.603793
 30
0.0
 11
270.580987
 21
177.623822
 31
0.0
  0
LINE
  8
OBJ
 10
270.538541
 20
177.910986
 30
0.0
 11
270.501279
 21
177.883459
 31
0.0
  0
ARC
  8
OBJ
 10
270.250912
 20
178.220077
 30
0.0
 40
0.287629
 50
322.158498
 51
37.841502
  0
LINE
  8
OBJ
 10
270.538541
 20
178.043622
 30
0.0
 11
270.538541
 21
178.396532
 31
0.0
  0
LINE
  8
OBJ
 10
270.538541
 20
178.396532
 30
0.0
 11
270.538541
 21
178.529168
 31
0.0
  0
ARC
  8
OBJ
 10
270.446719
 20
178.482841
 30
0.0
 40
0.091822
 50
289.954678
 51
70.045322
  0
LINE
  8
OBJ
 10
270.538541
 20
178.529168
 30
0.0
 11
270.501279
 21
178.556696
 31
0.0
  0
ARC
  8
0
 10
269.611579
 20
178.946744
 30
0.0
 40
0.040058
 50
0.0
 51
90.0
  0
LINE
  8
0
 10
272.055128
 20
177.487324
 30
0.0
 11
272.01507
 21
177.527382
 31
0.0
  0
LINE
  8
0
 10
282.035204
 20
182.595608
 30
0.0
 11
282.035204
 21
182.911066
 31
0.0
  0
LINE
  8
0
 10
281.053778
 20
182.595608
 30
0.0
 11
281.053778
 21
182.911066
 31
0.0
  0
LINE
  8
0
 10
280.011264
 20
177.073022
 30
0.0
 11
277.292314
 21
177.073022
 31
0.0
  0
LINE
  8
0
 10
280.011264
 20
177.193197
 30
0.0
 11
277.292314
 21
177.193197
 31
0.0
  0
LINE
  8
0
 10
279.896097
 20
175.098153
 30
0.0
 11
279.335282
 21
175.098153
 31
0.0
  0
ARC
  8
0
 10
282.208269
 20
224.663357
 30
0.0
 40
49.042656
 50
264.275313
 51
270.498124
  0
LINE
  8
0
 10
281.395942
 20
175.090475
 30
0.0
 11
279.86237
 21
175.17827
 31
0.0
  0
LINE
  8
0
 10
281.308148
 20
175.17827
 30
0.0
 11
278.786485
 21
175.17827
 31
0.0
  0
LINE
  8
0
 10
277.109658
 20
175.935
 30
0.0
 11
280.071351
 21
176.065185
 31
0.0
  0
LINE
  8
0
 10
277.107487
 20
178.331314
 30
0.0
 11
280.071351
 21
178.201034
 31
0.0
  0
LINE
  8
0
 10
283.291028
 20
179.284234
 30
0.0
 11
278.964485
 21
179.036546
 31
0.0
  0
LINE
  8
0
 10
277.442533
 20
177.253284
 30
0.0
 11
277.442533
 21
178.095507
 31
0.0
  0
LINE
  8
0
 10
277.232227
 20
177.92587
 30
0.0
 11
277.232227
 21
177.253284
 31
0.0
  0
LINE
  8
0
 10
276.120612
 20
177.552719
 30
0.0
 11
276.120612
 21
176.7135
 31
0.0
  0
LINE
  8
0
 10
276.090569
 20
177.552719
 30
0.0
 11
276.090569
 21
176.7135
 31
0.0
  0
LINE
  8
0
 10
276.030482
 20
176.773587
 30
0.0
 11
276.030482
 21
177.492632
 31
0.0
  0
LINE
  8
0
 10
273.817267
 20
176.782908
 30
0.0
 11
273.817267
 21
177.483311
 31
0.0
  0
LINE
  8
0
 10
274.842756
 20
177.042466
 30
0.0
 11
274.842756
 21
177.949295
 31
0.0
  0
LINE
  8
0
 10
276.360962
 20
176.110624
 30
0.0
 11
276.360962
 21
178.155595
 31
0.0
  0
CIRCLE
  8
0
 10
275.860234
 20
175.646951
 30
0.0
 40
0.588855
  0
LINE
  8
0
 10
277.382445
 20
176.110624
 30
0.0
 11
276.360962
 21
176.110624
 31
0.0
  0
LINE
  8
0
 10
274.277936
 20
176.110624
 30
0.0
 11
275.352056
 21
176.110624
 31
0.0
  0
LINE
  8
0
 10
274.277936
 20
176.7135
 30
0.0
 11
276.360962
 21
176.7135
 31
0.0
  0
LINE
  8
0
 10
275.927332
 20
174.869807
 30
0.0
 11
274.054594
 21
174.924729
 31
0.0
  0
ARC
  8
0
 10
273.645672
 20
176.05254
 30
0.0
 40
0.180397
 50
131.458173
 51
228.541827
  0
LINE
  8
0
 10
273.465275
 20
176.140077
 30
0.0
 11
273.465275
 21
175.153825
 31
0.0
  0
LINE
  8
0
 10
273.904393
 20
176.263446
 30
0.0
 11
273.904393
 21
175.030455
 31
0.0
  0
LINE
  8
0
 10
273.884364
 20
176.243417
 30
0.0
 11
273.884364
 21
175.050484
 31
0.0
  0
LINE
  8
0
 10
274.014553
 20
175.030455
 30
0.0
 11
274.014553
 21
176.153687
 31
0.0
  0
LINE
  8
0
 10
274.054594
 20
174.924729
 30
0.0
 11
274.054594
 21
176.153687
 31
0.0
  0
LINE
  8
0
 10
274.014553
 20
174.965961
 30
0.0
 11
274.014553
 21
176.153687
 31
0.0
  0
LINE
  8
0
 10
273.875351
 20
175.917343
 30
0.0
 11
273.526236
 21
175.917343
 31
0.0
  0
LINE
  8
0
 10
273.875351
 20
175.376558
 30
0.0
 11
273.526236
 21
175.376558
 31
0.0
  0
LINE
  8
0
 10
273.875351
 20
175.106165
 30
0.0
 11
273.526236
 21
175.106165
 31
0.0
  0
ARC
  8
0
 10
273.645672
 20
175.241361
 30
0.0
 40
0.180397
 50
131.458173
 51
228.541827
  0
LINE
  8
0
 10
273.526236
 20
175.106165
 30
0.0
 11
273.465275
 21
175.153825
 31
0.0
  0
ARC
  8
0
 10
274.095421
 20
175.646951
 30
0.0
 40
0.630146
 50
154.589813
 51
205.410187
  0
LINE
  8
0
 10
274.014553
 20
174.965961
 30
0.0
 11
274.054594
 21
174.924729
 31
0.0
  0
ARC
  8
0
 10
273.875351
 20
175.097152
 30
0.0
 40
0.009013
 50
360.0
 51
90.0
  0
LINE
  8
0
 10
273.884364
 20
175.050484
 30
0.0
 11
273.904393
 21
175.030455
 31
0.0
  0
LINE
  8
0
 10
274.014553
 20
175.030455
 30
0.0
 11
273.904393
 21
175.030455
 31
0.0
  0
ARC
  8
0
 10
273.875351
 20
175.385571
 30
0.0
 40
0.009013
 50
270.0
 51
360.0
  0
ARC
  8
0
 10
273.875351
 20
175.367545
 30
0.0
 40
0.009013
 50
360.0
 51
90.0
  0
ARC
  8
0
 10
273.875351
 20
175.926356
 30
0.0
 40
0.009013
 50
270.0
 51
360.0
  0
ARC
  8
0
 10
273.875351
 20
175.90833
 30
0.0
 40
0.009013
 50
360.0
 51
90.0
  0
LINE
  8
0
 10
273.875351
 20
176.187736
 30
0.0
 11
273.526236
 21
176.187736
 31
0.0
  0
ARC
  8
0
 10
274.237363
 20
176.853074
 30
0.0
 40
0.425916
 50
189.482222
 51
228.016856
  0
LINE
  8
0
 10
273.526236
 20
176.187736
 30
0.0
 11
273.465275
 21
176.140077
 31
0.0
  0
LINE
  8
0
 10
274.257907
 20
176.670437
 30
0.0
 11
274.257907
 21
176.153687
 31
0.0
  0
LINE
  8
0
 10
273.952463
 20
176.173716
 30
0.0
 11
273.952463
 21
176.650408
 31
0.0
  0
LINE
  8
0
 10
273.972492
 20
176.670437
 30
0.0
 11
273.972492
 21
176.153687
 31
0.0
  0
LINE
  8
0
 10
274.20068
 20
176.670437
 30
0.0
 11
274.20068
 21
176.153687
 31
0.0
  0
LINE
  8
0
 10
274.257907
 20
176.110624
 30
0.0
 11
274.257907
 21
176.693471
 31
0.0
  0
LINE
  8
0
 10
274.257907
 20
176.153687
 30
0.0
 11
273.972492
 21
176.153687
 31
0.0
  0
LINE
  8
0
 10
273.972492
 20
176.166606
 30
0.0
 11
274.20068
 21
176.166606
 31
0.0
  0
LINE
  8
0
 10
273.972492
 20
176.191009
 30
0.0
 11
274.20068
 21
176.191009
 31
0.0
  0
LINE
  8
0
 10
273.972492
 20
176.218897
 30
0.0
 11
274.20068
 21
176.218897
 31
0.0
  0
LINE
  8
0
 10
273.972492
 20
176.257243
 30
0.0
 11
274.20068
 21
176.257243
 31
0.0
  0
LINE
  8
0
 10
274.20068
 20
176.299899
 30
0.0
 11
273.972492
 21
176.299899
 31
0.0
  0
LINE
  8
0
 10
273.884364
 20
176.243417
 30
0.0
 11
273.904393
 21
176.263446
 31
0.0
  0
LINE
  8
0
 10
273.952463
 20
176.263446
 30
0.0
 11
273.904393
 21
176.263446
 31
0.0
  0
ARC
  8
0
 10
273.875351
 20
176.196749
 30
0.0
 40
0.009013
 50
270.0
 51
0.0
  0
LINE
  8
0
 10
273.952463
 20
176.173716
 30
0.0
 11
273.972492
 21
176.153687
 31
0.0
  0
LINE
  8
0
 10
273.972492
 20
176.441383
 30
0.0
 11
274.20068
 21
176.441383
 31
0.0
  0
LINE
  8
0
 10
273.972492
 20
176.483216
 30
0.0
 11
274.20068
 21
176.483216
 31
0.0
  0
LINE
  8
0
 10
274.20068
 20
176.524225
 30
0.0
 11
273.972492
 21
176.524225
 31
0.0
  0
LINE
  8
0
 10
273.972492
 20
176.566881
 30
0.0
 11
274.20068
 21
176.566881
 31
0.0
  0
LINE
  8
0
 10
273.972492
 20
176.605227
 30
0.0
 11
274.20068
 21
176.605227
 31
0.0
  0
LINE
  8
0
 10
273.972492
 20
176.633115
 30
0.0
 11
274.20068
 21
176.633115
 31
0.0
  0
LINE
  8
0
 10
273.972492
 20
176.340908
 30
0.0
 11
274.20068
 21
176.340908
 31
0.0
  0
LINE
  8
0
 10
273.972492
 20
176.38274
 30
0.0
 11
274.20068
 21
176.38274
 31
0.0
  0
LINE
  8
0
 10
274.257907
 20
176.130653
 30
0.0
 11
274.277936
 21
176.110624
 31
0.0
  0
LINE
  8
0
 10
274.257907
 20
176.670437
 30
0.0
 11
273.972492
 21
176.670437
 31
0.0
  0
LINE
  8
0
 10
273.972492
 20
176.657518
 30
0.0
 11
274.20068
 21
176.657518
 31
0.0
  0
LINE
  8
0
 10
273.972492
 20
176.670437
 30
0.0
 11
273.952463
 21
176.650408
 31
0.0
  0
LINE
  8
0
 10
274.257907
 20
176.693471
 30
0.0
 11
274.277936
 21
176.7135
 31
0.0
  0
CIRCLE
  8
0
 10
275.860234
 20
175.646951
 30
0.0
 40
0.348853
  0
CIRCLE
  8
0
 10
275.860234
 20
175.646951
 30
0.0
 40
0.416605
  0
LINE
  8
0
 10
275.927332
 20
174.869807
 30
0.0
 11
275.927332
 21
175.06193
 31
0.0
  0
CIRCLE
  8
0
 10
275.860234
 20
175.646951
 30
0.0
 40
0.237685
  0
LINE
  8
0
 10
274.862607
 20
177.019772
 30
0.0
 11
275.840383
 21
176.888516
 31
0.0
  0
ARC
  8
0
 10
275.352056
 20
176.050537
 30
0.0
 40
0.060087
 50
321.543991
 51
90.0
  0
LINE
  8
0
 10
274.95526
 20
177.007334
 30
0.0
 11
274.95526
 21
176.803103
 31
0.0
  0
LINE
  8
0
 10
274.842756
 20
177.042466
 30
0.0
 11
274.862607
 21
177.019772
 31
0.0
  0
LINE
  8
0
 10
275.860234
 20
176.235806
 30
0.0
 11
275.860234
 21
176.865822
 31
0.0
  0
LINE
  8
0
 10
276.223218
 20
176.110624
 30
0.0
 11
276.360962
 21
176.110624
 31
0.0
  0
LINE
  8
0
 10
275.840383
 20
176.888516
 30
0.0
 11
275.860234
 21
176.865822
 31
0.0
  0
ARC
  8
0
 10
276.090569
 20
176.773587
 30
0.0
 40
0.060087
 50
180.0
 51
270.0
  0
CIRCLE
  8
0
 10
277.805059
 20
174.619458
 30
0.0
 40
0.176256
  0
LINE
  8
0
 10
278.11551
 20
174.507295
 30
0.0
 11
278.786485
 21
175.17827
 31
0.0
  0
POLYLINE
  8
0
 66
     1
 10
0.0
 20
0.0
 30
0.0
  0
VERTEX
  8
0
 10
277.049962
 20
174.307004
 30
0.0
  0
VERTEX
  8
0
 10
277.049962
 20
175.937586
 30
0.0
  0
SEQEND
  8
0
  0
LINE
  8
0
 10
278.11551
 20
174.307004
 30
0.0
 11
277.049962
 21
174.307004
 31
0.0
  0
LINE
  8
0
 10
278.11551
 20
174.307004
 30
0.0
 11
278.11551
 21
174.507295
 31
0.0
  0
LINE
  8
0
 10
278.578981
 20
174.970766
 30
0.0
 11
277.412489
 21
174.970766
 31
0.0
  0
ARC
  8
0
 10
277.08196
 20
176.001483
 30
0.0
 40
0.100145
 50
180.0
 51
249.997757
  0
ARC
  8
0
 10
277.127074
 20
176.001483
 30
0.0
 40
0.100145
 50
180.0
 51
249.997757
  0
LINE
  8
0
 10
277.326046
 20
175.822481
 30
0.0
 11
277.092819
 21
175.907379
 31
0.0
  0
LINE
  8
0
 10
277.049962
 20
175.852634
 30
0.0
 11
276.994369
 21
175.952935
 31
0.0
  0
LINE
  8
0
 10
277.049962
 20
175.906557
 30
0.0
 11
277.047705
 21
175.907379
 31
0.0
  0
LINE
  8
0
 10
277.352402
 20
175.030853
 30
0.0
 11
277.352402
 21
175.825434
 31
0.0
  0
ARC
  8
0
 10
277.412489
 20
175.030853
 30
0.0
 40
0.060087
 50
180.0
 51
270.0
  0
ARC
  8
0
 10
277.312344
 20
175.784839
 30
0.0
 40
0.040058
 50
0.0
 51
69.997757
  0
ARC
  8
0
 10
277.312344
 20
175.825434
 30
0.0
 40
0.040058
 50
0.0
 51
84.275313
  0
ARC
  8
0
 10
277.292314
 20
177.012935
 30
0.0
 40
0.060087
 50
90.0
 51
180.0
  0
ARC
  8
0
 10
277.292314
 20
177.253284
 30
0.0
 40
0.060087
 50
180.0
 51
270.0
  0
LINE
  8
0
 10
277.373048
 20
176.15812
 30
0.0
 11
277.261582
 21
176.269512
 31
0.0
  0
LINE
  8
0
 10
277.232227
 20
176.340349
 30
0.0
 11
277.232227
 21
177.012935
 31
0.0
  0
LINE
  8
0
 10
277.131751
 20
176.291232
 30
0.0
 11
276.429724
 21
176.291232
 31
0.0
  0
ARC
  8
0
 10
277.332373
 20
176.340349
 30
0.0
 40
0.100145
 50
180.0
 51
225.018872
  0
LINE
  8
0
 10
276.981814
 20
176.001483
 30
0.0
 11
276.981814
 21
176.070566
 31
0.0
  0
ARC
  8
0
 10
276.941756
 20
176.070566
 30
0.0
 40
0.040058
 50
0.0
 51
90.0
  0
ARC
  8
0
 10
276.986871
 20
176.070566
 30
0.0
 40
0.040058
 50
0.0
 51
90.0
  0
LINE
  8
0
 10
277.026929
 20
176.001483
 30
0.0
 11
277.026929
 21
176.070566
 31
0.0
  0
LINE
  8
0
 10
277.442533
 20
176.170711
 30
0.0
 11
277.442533
 21
177.012935
 31
0.0
  0
ARC
  8
0
 10
277.382445
 20
176.170711
 30
0.0
 40
0.060087
 50
270.0
 51
0.0
  0
ARC
  8
0
 10
277.50262
 20
177.012935
 30
0.0
 40
0.060087
 50
90.0
 51
180.0
  0
ARC
  8
0
 10
277.50262
 20
177.253284
 30
0.0
 40
0.060087
 50
180.0
 51
270.0
  0
ARC
  8
0
 10
279.295224
 20
175.170614
 30
0.0
 40
0.040058
 50
0.0
 51
11.01763
  0
LINE
  8
0
 10
279.335282
 20
175.098153
 30
0.0
 11
279.335282
 21
175.170614
 31
0.0
  0
LINE
  8
0
 10
277.382445
 20
178.155595
 30
0.0
 11
276.360962
 21
178.155595
 31
0.0
  0
LINE
  8
0
 10
274.226261
 20
179.244176
 30
0.0
 11
275.459252
 21
179.244176
 31
0.0
  0
LINE
  8
0
 10
275.335882
 20
179.614714
 30
0.0
 11
274.34963
 21
179.614714
 31
0.0
  0
LINE
  8
0
 10
275.459252
 20
179.354336
 30
0.0
 11
274.226261
 21
179.354336
 31
0.0
  0
LINE
  8
0
 10
275.439223
 20
179.374365
 30
0.0
 11
274.24629
 21
179.374365
 31
0.0
  0
ARC
  8
0
 10
274.842756
 20
178.984569
 30
0.0
 40
0.630146
 50
64.589813
 51
115.410187
  0
LINE
  8
0
 10
274.127718
 20
179.204118
 30
0.0
 11
275.557795
 21
179.204118
 31
0.0
  0
CIRCLE
  8
0
 10
274.842756
 20
178.485073
 30
0.0
 40
0.289595
  0
CIRCLE
  8
0
 10
274.842756
 20
178.485073
 30
0.0
 40
0.340495
  0
LINE
  8
0
 10
274.277936
 20
177.552719
 30
0.0
 11
276.360962
 21
177.552719
 31
0.0
  0
CIRCLE
  8
0
 10
274.842756
 20
178.485073
 30
0.0
 40
0.535778
  0
LINE
  8
0
 10
275.517737
 20
179.244176
 30
0.0
 11
274.167776
 21
179.244176
 31
0.0
  0
LINE
  8
0
 10
274.127718
 20
178.112532
 30
0.0
 11
274.127718
 21
179.204118
 31
0.0
  0
ARC
  8
0
 10
274.237363
 20
177.413145
 30
0.0
 40
0.425916
 50
131.983144
 51
170.517778
  0
LINE
  8
0
 10
274.257907
 20
177.572748
 30
0.0
 11
274.257907
 21
178.135565
 31
0.0
  0
LINE
  8
0
 10
274.20068
 20
178.112532
 30
0.0
 11
274.20068
 21
177.595781
 31
0.0
  0
LINE
  8
0
 10
273.972492
 20
178.112532
 30
0.0
 11
273.972492
 21
177.595781
 31
0.0
  0
LINE
  8
0
 10
273.952463
 20
177.61581
 30
0.0
 11
273.952463
 21
178.092503
 31
0.0
  0
LINE
  8
0
 10
274.257907
 20
177.595781
 30
0.0
 11
273.972492
 21
177.595781
 31
0.0
  0
LINE
  8
0
 10
273.972492
 20
177.633103
 30
0.0
 11
274.20068
 21
177.633103
 31
0.0
  0
LINE
  8
0
 10
273.972492
 20
177.608701
 30
0.0
 11
274.20068
 21
177.608701
 31
0.0
  0
LINE
  8
0
 10
273.952463
 20
177.61581
 30
0.0
 11
273.972492
 21
177.595781
 31
0.0
  0
LINE
  8
0
 10
273.972492
 20
177.824835
 30
0.0
 11
274.20068
 21
177.824835
 31
0.0
  0
LINE
  8
0
 10
273.972492
 20
177.783003
 30
0.0
 11
274.20068
 21
177.783003
 31
0.0
  0
LINE
  8
0
 10
274.20068
 20
177.741994
 30
0.0
 11
273.972492
 21
177.741994
 31
0.0
  0
LINE
  8
0
 10
273.972492
 20
177.699338
 30
0.0
 11
274.20068
 21
177.699338
 31
0.0
  0
LINE
  8
0
 10
273.972492
 20
177.660992
 30
0.0
 11
274.20068
 21
177.660992
 31
0.0
  0
LINE
  8
0
 10
273.972492
 20
177.883478
 30
0.0
 11
274.20068
 21
177.883478
 31
0.0
  0
LINE
  8
0
 10
273.972492
 20
177.925311
 30
0.0
 11
274.20068
 21
177.925311
 31
0.0
  0
LINE
  8
0
 10
274.20068
 20
177.96632
 30
0.0
 11
273.972492
 21
177.96632
 31
0.0
  0
LINE
  8
0
 10
274.257907
 20
177.572748
 30
0.0
 11
274.277936
 21
177.552719
 31
0.0
  0
LINE
  8
0
 10
274.257907
 20
178.112532
 30
0.0
 11
273.972492
 21
178.112532
 31
0.0
  0
LINE
  8
0
 10
273.972492
 20
178.008975
 30
0.0
 11
274.20068
 21
178.008975
 31
0.0
  0
LINE
  8
0
 10
273.972492
 20
178.047322
 30
0.0
 11
274.20068
 21
178.047322
 31
0.0
  0
LINE
  8
0
 10
273.972492
 20
178.07521
 30
0.0
 11
274.20068
 21
178.07521
 31
0.0
  0
LINE
  8
0
 10
273.972492
 20
178.099612
 30
0.0
 11
274.20068
 21
178.099612
 31
0.0
  0
LINE
  8
0
 10
273.972492
 20
178.112532
 30
0.0
 11
273.952463
 21
178.092503
 31
0.0
  0
LINE
  8
0
 10
274.257907
 20
178.135565
 30
0.0
 11
274.277936
 21
178.155595
 31
0.0
  0
ARC
  8
0
 10
274.311264
 20
178.215682
 30
0.0
 40
0.060087
 50
270.0
 51
26.878552
  0
LINE
  8
0
 10
274.277936
 20
178.155595
 30
0.0
 11
274.311264
 21
178.155595
 31
0.0
  0
LINE
  8
0
 10
274.226261
 20
179.244176
 30
0.0
 11
274.226261
 21
179.354336
 31
0.0
  0
LINE
  8
0
 10
274.127718
 20
179.204118
 30
0.0
 11
274.167776
 21
179.244176
 31
0.0
  0
LINE
  8
0
 10
274.24629
 20
179.374365
 30
0.0
 11
274.226261
 21
179.354336
 31
0.0
  0
ARC
  8
0
 10
274.437167
 20
179.434317
 30
0.0
 40
0.180397
 50
41.458173
 51
138.541827
  0
LINE
  8
0
 10
274.301971
 20
179.553753
 30
0.0
 11
274.34963
 21
179.614714
 31
0.0
  0
ARC
  8
0
 10
274.292958
 20
179.383378
 30
0.0
 40
0.009013
 50
270.0
 51
0.0
  0
LINE
  8
0
 10
274.301971
 20
179.383378
 30
0.0
 11
274.301971
 21
179.553753
 31
0.0
  0
ARC
  8
0
 10
274.581377
 20
179.383378
 30
0.0
 40
0.009013
 50
180.0
 51
270.0
  0
ARC
  8
0
 10
274.56335
 20
179.383378
 30
0.0
 40
0.009013
 50
270.0
 51
0.0
  0
LINE
  8
0
 10
274.572363
 20
179.383378
 30
0.0
 11
274.572363
 21
179.553753
 31
0.0
  0
LINE
  8
0
 10
275.557795
 20
178.155595
 30
0.0
 11
275.557795
 21
179.204118
 31
0.0
  0
LINE
  8
0
 10
275.374249
 20
178.155595
 30
0.0
 11
276.360962
 21
178.155595
 31
0.0
  0
ARC
  8
0
 10
275.374249
 20
178.215682
 30
0.0
 40
0.060087
 50
153.121448
 51
270.0
  0
ARC
  8
0
 10
276.090569
 20
177.492632
 30
0.0
 40
0.060087
 50
90.0
 51
180.0
  0
LINE
  8
0
 10
275.517737
 20
179.244176
 30
0.0
 11
275.557795
 21
179.204118
 31
0.0
  0
LINE
  8
0
 10
275.459252
 20
179.244176
 30
0.0
 11
275.459252
 21
179.354336
 31
0.0
  0
ARC
  8
0
 10
275.122162
 20
179.383378
 30
0.0
 40
0.009013
 50
180.0
 51
270.0
  0
ARC
  8
0
 10
275.248345
 20
179.434317
 30
0.0
 40
0.180397
 50
41.458173
 51
138.541827
  0
ARC
  8
0
 10
275.104136
 20
179.383378
 30
0.0
 40
0.009013
 50
270.0
 51
0.0
  0
LINE
  8
0
 10
275.113149
 20
179.383378
 30
0.0
 11
275.113149
 21
179.553753
 31
0.0
  0
LINE
  8
0
 10
275.439223
 20
179.374365
 30
0.0
 11
275.459252
 21
179.354336
 31
0.0
  0
ARC
  8
0
 10
275.392555
 20
179.383378
 30
0.0
 40
0.009013
 50
180.0
 51
270.0
  0
LINE
  8
0
 10
275.383542
 20
179.383378
 30
0.0
 11
275.383542
 21
179.553753
 31
0.0
  0
LINE
  8
0
 10
275.383542
 20
179.553753
 30
0.0
 11
275.335882
 21
179.614714
 31
0.0
  0
ARC
  8
0
 10
278.828546
 20
179.849673
 30
0.0
 40
0.200291
 50
0.0
 51
81.743877
  0
ARC
  8
0
 10
278.291766
 20
179.849673
 30
0.0
 40
0.200291
 50
98.256123
 51
180.0
  0
ARC
  8
0
 10
278.054672
 20
179.342595
 30
0.0
 40
0.334209
 50
59.724427
 51
120.275573
  0
LINE
  8
0
 10
278.091475
 20
179.688782
 30
0.0
 11
279.028837
 21
179.688782
 31
0.0
  0
LINE
  8
0
 10
277.954992
 20
179.676804
 30
0.0
 11
279.16532
 21
179.676804
 31
0.0
  0
LINE
  8
0
 10
277.886177
 20
179.344321
 30
0.0
 11
279.234135
 21
179.344321
 31
0.0
  0
LINE
  8
0
 10
279.151014
 20
179.344321
 30
0.0
 11
277.969298
 21
179.344321
 31
0.0
  0
LINE
  8
0
 10
278.941659
 20
179.031845
 30
0.0
 11
277.092819
 21
178.35884
 31
0.0
  0
LINE
  8
0
 10
277.373048
 20
178.108099
 30
0.0
 11
277.261582
 21
177.996707
 31
0.0
  0
ARC
  8
0
 10
277.332373
 20
177.92587
 30
0.0
 40
0.100145
 50
134.981128
 51
180.0
  0
LINE
  8
0
 10
277.131751
 20
177.974986
 30
0.0
 11
276.429724
 21
177.974986
 31
0.0
  0
ARC
  8
0
 10
277.127074
 20
178.264735
 30
0.0
 40
0.100145
 50
110.002243
 51
180.0
  0
ARC
  8
0
 10
276.986871
 20
178.195653
 30
0.0
 40
0.040058
 50
270.0
 51
0.0
  0
LINE
  8
0
 10
277.026929
 20
178.195653
 30
0.0
 11
277.026929
 21
178.264735
 31
0.0
  0
ARC
  8
0
 10
277.382445
 20
178.095507
 30
0.0
 40
0.060087
 50
0.0
 51
90.0
  0
LINE
  8
0
 10
277.969298
 20
178.705939
 30
0.0
 11
277.969298
 21
179.344321
 31
0.0
  0
ARC
  8
0
 10
277.92924
 20
178.705939
 30
0.0
 40
0.040058
 50
290.002243
 51
0.0
  0
LINE
  8
0
 10
277.886177
 20
179.631222
 30
0.0
 11
277.954992
 21
179.676804
 31
0.0
  0
LINE
  8
0
 10
277.886177
 20
179.344321
 30
0.0
 11
277.886177
 21
179.631222
 31
0.0
  0
LINE
  8
0
 10
277.954992
 20
179.676804
 30
0.0
 11
278.091475
 21
179.688782
 31
0.0
  0
LINE
  8
0
 10
278.091475
 20
179.688782
 30
0.0
 11
278.091475
 21
179.849673
 31
0.0
  0
ARC
  8
0
 10
279.06564
 20
179.342595
 30
0.0
 40
0.334209
 50
59.724427
 51
120.275573
  0
ARC
  8
0
 10
278.969064
 20
178.956561
 30
0.0
 40
0.080116
 50
93.276514
 51
110.002243
  0
ARC
  8
0
 10
278.560156
 20
178.408341
 30
0.0
 40
1.268463
 50
74.593375
 51
105.406625
  0
LINE
  8
0
 10
278.223167
 20
179.344321
 30
0.0
 11
278.223167
 21
179.631222
 31
0.0
  0
LINE
  8
0
 10
278.897146
 20
179.344321
 30
0.0
 11
278.897146
 21
179.631222
 31
0.0
  0
LINE
  8
0
 10
279.151014
 20
179.089642
 30
0.0
 11
279.151014
 21
179.344321
 31
0.0
  0
ARC
  8
0
 10
279.191073
 20
179.089642
 30
0.0
 40
0.040058
 50
180.0
 51
273.276514
  0
LINE
  8
0
 10
279.234135
 20
179.631222
 30
0.0
 11
279.16532
 21
179.676804
 31
0.0
  0
LINE
  8
0
 10
279.234135
 20
179.344321
 30
0.0
 11
279.234135
 21
179.631222
 31
0.0
  0
LINE
  8
0
 10
279.16532
 20
179.676804
 30
0.0
 11
279.028837
 21
179.688782
 31
0.0
  0
LINE
  8
0
 10
279.028837
 20
179.688782
 30
0.0
 11
279.028837
 21
179.849673
 31
0.0
  0
ARC
  8
0
 10
278.560156
 20
178.000012
 30
0.0
 40
2.069322
 50
81.743877
 51
98.256123
  0
LINE
  8
0
 10
280.071351
 20
178.248147
 30
0.0
 11
280.071351
 21
176.018072
 31
0.0
  0
LINE
  8
0
 10
283.017631
 20
178.248147
 30
0.0
 11
283.017631
 21
176.018072
 31
0.0
  0
LINE
  8
0
 10
283.779738
 20
177.793067
 30
0.0
 11
283.779738
 21
176.473152
 31
0.0
  0
LINE
  8
0
 10
284.016282
 20
177.466693
 30
0.0
 11
284.016282
 21
176.799526
 31
0.0
  0
LINE
  8
0
 10
283.447255
 20
175.002014
 30
0.0
 11
283.447255
 21
179.264205
 31
0.0
  0
LINE
  8
0
 10
283.571435
 20
175.620993
 30
0.0
 11
283.571435
 21
178.645226
 31
0.0
  0
LINE
  8
0
 10
283.671581
 20
175.620993
 30
0.0
 11
283.671581
 21
178.645226
 31
0.0
  0
LINE
  8
0
 10
283.291028
 20
174.981985
 30
0.0
 11
283.291028
 21
179.284234
 31
0.0
  0
CIRCLE
  8
0
 10
281.544491
 20
177.133109
 30
0.0
 40
0.521506
  0
CIRCLE
  8
0
 10
281.544491
 20
177.133109
 30
0.0
 40
0.491714
  0
CIRCLE
  8
0
 10
281.544491
 20
177.133109
 30
0.0
 40
0.786142
  0
ARC
  8
0
 10
281.544491
 20
177.133109
 30
0.0
 40
0.364229
 50
108.931846
 51
71.068154
  0
CIRCLE
  8
0
 10
281.544491
 20
177.133109
 30
0.0
 40
0.394273
  0
LINE
  8
0
 10
283.291028
 20
174.981985
 30
0.0
 11
283.427226
 21
174.981985
 31
0.0
  0
CIRCLE
  8
0
 10
282.726208
 20
174.619458
 30
0.0
 40
0.176256
  0
LINE
  8
0
 10
281.979122
 20
174.507295
 30
0.0
 11
281.308148
 21
175.17827
 31
0.0
  0
LINE
  8
0
 10
283.04467
 20
174.307004
 30
0.0
 11
283.04467
 21
174.932464
 31
0.0
  0
LINE
  8
0
 10
283.04467
 20
174.307004
 30
0.0
 11
281.979122
 21
174.307004
 31
0.0
  0
LINE
  8
0
 10
281.979122
 20
174.307004
 30
0.0
 11
281.979122
 21
174.507295
 31
0.0
  0
LINE
  8
0
 10
282.659528
 20
175.659969
 30
0.0
 11
280.429454
 21
175.659969
 31
0.0
  0
LINE
  8
0
 10
283.05846
 20
174.970766
 30
0.0
 11
281.515651
 21
174.970766
 31
0.0
  0
ARC
  8
0
 10
281.544491
 20
177.133109
 30
0.0
 40
1.847552
 50
217.122516
 51
232.877484
  0
CIRCLE
  8
0
 10
280.457523
 20
176.046141
 30
0.0
 40
0.308117
  0
INSERT
  8
0
  2
SCHD
 10
280.457523
 20
176.046141
 30
0.0
 41
1.331935
 42
1.331935
 50
90.0
 43
1.331935
  0
POLYLINE
  8
0
 66
     1
 10
0.0
 20
0.0
 30
0.0
 70
     1
  0
VERTEX
  8
0
 10
280.195398
 20
175.894804
 30
0.0
  0
VERTEX
  8
0
 10
280.457523
 20
175.743466
 30
0.0
  0
VERTEX
  8
0
 10
280.719648
 20
175.894804
 30
0.0
  0
VERTEX
  8
0
 10
280.719648
 20
176.197479
 30
0.0
  0
VERTEX
  8
0
 10
280.457523
 20
176.348817
 30
0.0
  0
VERTEX
  8
0
 10
280.195398
 20
176.197479
 30
0.0
  0
SEQEND
  8
0
  0
CIRCLE
  8
0
 10
280.457523
 20
176.046141
 30
0.0
 40
0.260577
  0
CIRCLE
  8
0
 10
280.457523
 20
176.046141
 30
0.0
 40
0.241259
  0
ARC
  8
0
 10
279.936155
 20
175.133922
 30
0.0
 40
0.040058
 50
86.723486
 51
180.0
  0
LINE
  8
0
 10
279.896097
 20
175.098153
 30
0.0
 11
279.896097
 21
175.133922
 31
0.0
  0
ARC
  8
0
 10
280.011264
 20
177.253284
 30
0.0
 40
0.060087
 50
270.0
 51
360.0
  0
ARC
  8
0
 10
280.011264
 20
177.012935
 30
0.0
 40
0.060087
 50
360.0
 51
90.0
  0
ARC
  8
0
 10
281.544491
 20
177.133109
 30
0.0
 40
1.847552
 50
307.122516
 51
322.877484
  0
CIRCLE
  8
0
 10
282.631459
 20
176.046141
 30
0.0
 40
0.308117
  0
INSERT
  8
0
  2
SCHD
 10
282.631459
 20
176.046141
 30
0.0
 41
1.331935
 42
1.331935
 50
180.0
 43
1.331935
  0
POLYLINE
  8
0
 66
     1
 10
0.0
 20
0.0
 30
0.0
 70
     1
  0
VERTEX
  8
0
 10
282.782797
 20
175.784017
 30
0.0
  0
VERTEX
  8
0
 10
282.934134
 20
176.046141
 30
0.0
  0
VERTEX
  8
0
 10
282.782797
 20
176.308266
 30
0.0
  0
VERTEX
  8
0
 10
282.480121
 20
176.308266
 30
0.0
  0
VERTEX
  8
0
 10
282.328783
 20
176.046141
 30
0.0
  0
VERTEX
  8
0
 10
282.480121
 20
175.784017
 30
0.0
  0
SEQEND
  8
0
  0
CIRCLE
  8
0
 10
282.631459
 20
176.046141
 30
0.0
 40
0.260577
  0
CIRCLE
  8
0
 10
282.631459
 20
176.046141
 30
0.0
 40
0.241259
  0
LINE
  8
0
 10
282.624577
 20
175.659969
 30
0.0
 11
282.780503
 21
175.079984
 31
0.0
  0
LINE
  8
0
 10
283.291028
 20
174.981985
 30
0.0
 11
282.87149
 21
175.006003
 31
0.0
  0
ARC
  8
0
 10
282.877214
 20
175.105984
 30
0.0
 40
0.100145
 50
195.047823
 51
266.723486
  0
ARC
  8
0
 10
283.104757
 20
174.932464
 30
0.0
 40
0.060087
 50
87.139477
 51
180.0
  0
POLYLINE
  8
0
 66
     1
 10
0.0
 20
0.0
 30
0.0
  0
VERTEX
  8
0
 10
283.671581
 20
175.880234
 30
0.0
 42
0.014585
  0
VERTEX
  8
0
 10
283.691457
 20
175.887819
 30
0.0
 42
0.098596
 70
     2
 50
22.557247
  0
VERTEX
  8
0
 10
283.753206
 20
175.929186
 30
0.0
 42
0.198546
 50
22.557247
  0
VERTEX
  8
0
 10
283.76772
 20
175.964298
 30
0.0
 42
0.198546
  0
VERTEX
  8
0
 10
283.753206
 20
175.99941
 30
0.0
 42
0.098596
  0
VERTEX
  8
0
 10
283.691457
 20
176.040776
 30
0.0
 42
0.014585
 70
     2
 50
157.442753
  0
VERTEX
  8
0
 10
283.671581
 20
176.048361
 30
0.0
 42
0.042623
 50
157.442753
  0
SEQEND
  8
0
  0
LINE
  8
0
 10
283.447255
 20
176.072455
 30
0.0
 11
283.447255
 21
175.207198
 31
0.0
  0
POLYLINE
  8
0
 66
     1
 10
0.0
 20
0.0
 30
0.0
  0
VERTEX
  8
0
 10
283.742884
 20
175.360077
 30
0.0
 42
-0.018534
 70
     2
 50
337.442753
  0
VERTEX
  8
0
 10
283.753206
 20
175.350467
 30
0.0
 42
-0.198546
  0
VERTEX
  8
0
 10
283.76772
 20
175.315355
 30
0.0
 42
-0.198546
  0
VERTEX
  8
0
 10
283.753206
 20
175.280243
 30
0.0
 42
-0.018534
  0
VERTEX
  8
0
 10
283.742884
 20
175.270633
 30
0.0
 42
-0.055885
 70
     2
 50
202.557247
  0
SEQEND
  8
0
  0
LINE
  8
OBJ
 10
283.742884
 20
175.491204
 30
0.0
 11
283.742884
 21
175.225859
 31
0.0
  0
ARC
  8
OBJ
 10
283.526622
 20
175.358532
 30
0.0
 40
0.216263
 50
322.158498
 51
37.841502
  0
LINE
  8
OBJ
 10
283.504939
 20
175.620993
 30
0.0
 11
283.504939
 21
175.09607
 31
0.0
  0
LINE
  8
0
 10
283.447255
 20
175.600082
 30
0.0
 11
283.447255
 21
175.116981
 31
0.0
  0
ARC
  8
0
 10
283.427226
 20
175.002014
 30
0.0
 40
0.020029
 50
270.0
 51
0.0
  0
LINE
  8
OBJ
  6
CONTINUOUS
 10
283.504939
 20
175.09607
 30
0.0
 11
283.697407
 21
175.09607
 31
0.0
  0
LINE
  8
OBJ
  6
CONTINUOUS
 10
283.504939
 20
175.225859
 30
0.0
 11
283.697407
 21
175.225859
 31
0.0
  0
LINE
  8
OBJ
  6
CENTER2
 10
283.447255
 20
175.116981
 30
0.0
 11
283.504939
 21
175.116981
 31
0.0
  0
LINE
  8
OBJ
 10
283.742884
 20
175.126132
 30
0.0
 11
283.714868
 21
175.105435
 31
0.0
  0
LINE
  8
OBJ
 10
283.742884
 20
175.225859
 30
0.0
 11
283.742884
 21
175.126132
 31
0.0
  0
ARC
  8
OBJ
 10
283.673845
 20
175.160965
 30
0.0
 40
0.069039
 50
289.954678
 51
70.045322
  0
POLYLINE
  8
0
 66
     1
 10
0.0
 20
0.0
 30
0.0
  0
VERTEX
  8
0
 10
283.76772
 20
175.639826
 30
0.0
 42
0.116148
  0
VERTEX
  8
0
 10
283.748722
 20
175.72051
 30
0.0
 42
0.104137
  0
VERTEX
  8
0
 10
283.691457
 20
175.792784
 30
0.0
 42
0.023695
 70
     2
 50
140.281241
  0
VERTEX
  8
0
 10
283.671581
 20
175.807764
 30
0.0
 42
0.083046
 50
140.281241
  0
SEQEND
  8
0
  0
LINE
  8
0
 10
283.76772
 20
175.964298
 30
0.0
 11
283.76772
 21
175.315355
 31
0.0
  0
LINE
  8
OBJ
  6
CONTINUOUS
 10
283.504939
 20
175.620993
 30
0.0
 11
283.697407
 21
175.620993
 31
0.0
  0
LINE
  8
OBJ
  6
CONTINUOUS
 10
283.504939
 20
175.491204
 30
0.0
 11
283.697407
 21
175.491204
 31
0.0
  0
LINE
  8
OBJ
  6
CENTER2
 10
283.447255
 20
175.600082
 30
0.0
 11
283.504939
 21
175.600082
 31
0.0
  0
LINE
  8
OBJ
 10
283.447255
 20
175.416921
 30
0.0
 11
283.504939
 21
175.474605
 31
0.0
  0
POLYLINE
  8
0
 66
     1
 10
0.0
 20
0.0
 30
0.0
  0
VERTEX
  8
0
 10
283.742884
 20
175.548204
 30
0.0
 42
0.013854
 70
     2
 50
39.718759
  0
VERTEX
  8
0
 10
283.748722
 20
175.559142
 30
0.0
 42
0.116148
 50
39.718759
  0
VERTEX
  8
0
 10
283.76772
 20
175.639826
 30
0.0
 42
0.116148
  0
SEQEND
  8
0
  0
LINE
  8
OBJ
 10
283.742884
 20
175.590931
 30
0.0
 11
283.714868
 21
175.611628
 31
0.0
  0
LINE
  8
OBJ
 10
283.742884
 20
175.590931
 30
0.0
 11
283.742884
 21
175.491204
 31
0.0
  0
ARC
  8
OBJ
 10
283.673845
 20
175.556099
 30
0.0
 40
0.069039
 50
289.954678
 51
70.045322
  0
ARC
  8
0
 10
283.749694
 20
176.473152
 30
0.0
 40
0.030044
 50
270.0
 51
0.0
  0
LINE
  8
0
 10
283.571435
 20
176.001466
 30
0.0
 11
283.447255
 21
176.001466
 31
0.0
  0
LINE
  8
0
 10
283.749694
 20
176.443108
 30
0.0
 11
283.671581
 21
176.443108
 31
0.0
  0
LINE
  8
0
 10
283.779738
 20
177.251281
 30
0.0
 11
283.705146
 21
177.251281
 31
0.0
  0
LINE
  8
0
 10
283.779738
 20
177.014938
 30
0.0
 11
283.705146
 21
177.014938
 31
0.0
  0
ARC
  8
0
 10
283.705146
 20
177.221237
 30
0.0
 40
0.030044
 50
90.0
 51
180.0
  0
ARC
  8
0
 10
283.705146
 20
177.044982
 30
0.0
 40
0.030044
 50
180.0
 51
270.0
  0
LINE
  8
0
 10
283.675102
 20
177.221237
 30
0.0
 11
283.675102
 21
177.044982
 31
0.0
  0
ARC
  8
0
 10
283.916136
 20
176.799526
 30
0.0
 40
0.100145
 50
270.0
 51
0.0
  0
LINE
  8
0
 10
283.916136
 20
176.69938
 30
0.0
 11
283.779738
 21
176.69938
 31
0.0
  0
LINE
  8
0
 10
283.291028
 20
179.284234
 30
0.0
 11
283.427226
 21
179.284234
 31
0.0
  0
LINE
  8
0
 10
282.659528
 20
178.606249
 30
0.0
 11
280.429454
 21
178.606249
 31
0.0
  0
LINE
  8
0
 10
281.426319
 20
177.40921
 30
0.0
 11
281.662663
 21
177.40921
 31
0.0
  0
CIRCLE
  8
0
 10
280.457523
 20
178.220077
 30
0.0
 40
0.308117
  0
CIRCLE
  8
0
 10
280.457523
 20
178.220077
 30
0.0
 40
0.260577
  0
POLYLINE
  8
0
 66
     1
 10
0.0
 20
0.0
 30
0.0
 70
     1
  0
VERTEX
  8
0
 10
280.306185
 20
178.482202
 30
0.0
  0
VERTEX
  8
0
 10
280.154848
 20
178.220077
 30
0.0
  0
VERTEX
  8
0
 10
280.306185
 20
177.957952
 30
0.0
  0
VERTEX
  8
0
 10
280.608861
 20
177.957952
 30
0.0
  0
VERTEX
  8
0
 10
280.760199
 20
178.220077
 30
0.0
  0
VERTEX
  8
0
 10
280.608861
 20
178.482202
 30
0.0
  0
SEQEND
  8
0
  0
CIRCLE
  8
0
 10
280.457523
 20
178.220077
 30
0.0
 40
0.241259
  0
ARC
  8
0
 10
281.544491
 20
177.133109
 30
0.0
 40
1.847552
 50
127.122516
 51
142.877484
  0
INSERT
  8
0
  2
SCHD
 10
280.457523
 20
178.220077
 30
0.0
 41
1.331935
 42
1.331935
 43
1.331935
  0
LINE
  8
0
 10
281.426319
 20
177.509256
 30
0.0
 11
281.426319
 21
177.40921
 31
0.0
  0
LINE
  8
0
 10
282.624577
 20
178.606249
 30
0.0
 11
282.780503
 21
179.186235
 31
0.0
  0
CIRCLE
  8
0
 10
282.631459
 20
178.220077
 30
0.0
 40
0.308117
  0
INSERT
  8
0
  2
SCHD
 10
282.631459
 20
178.220077
 30
0.0
 41
1.331935
 42
1.331935
 50
270.0
 43
1.331935
  0
POLYLINE
  8
0
 66
     1
 10
0.0
 20
0.0
 30
0.0
 70
     1
  0
VERTEX
  8
0
 10
282.893584
 20
178.371415
 30
0.0
  0
VERTEX
  8
0
 10
282.631459
 20
178.522753
 30
0.0
  0
VERTEX
  8
0
 10
282.369334
 20
178.371415
 30
0.0
  0
VERTEX
  8
0
 10
282.369334
 20
178.068739
 30
0.0
  0
VERTEX
  8
0
 10
282.631459
 20
177.917402
 30
0.0
  0
VERTEX
  8
0
 10
282.893584
 20
178.068739
 30
0.0
  0
SEQEND
  8
0
  0
CIRCLE
  8
0
 10
282.631459
 20
178.220077
 30
0.0
 40
0.260577
  0
CIRCLE
  8
0
 10
282.631459
 20
178.220077
 30
0.0
 40
0.241259
  0
LINE
  8
0
 10
281.662663
 20
177.509256
 30
0.0
 11
281.662663
 21
177.40921
 31
0.0
  0
ARC
  8
0
 10
281.544491
 20
177.133109
 30
0.0
 40
1.847552
 50
37.122516
 51
52.877484
  0
ARC
  8
0
 10
282.877214
 20
179.160234
 30
0.0
 40
0.100145
 50
93.276514
 51
164.952177
  0
ARC
  8
0
 10
281.544491
 20
182.213052
 30
0.0
 40
0.118172
 50
0.0
 51
180.0
  0
LINE
  8
0
 10
281.053778
 20
182.595608
 30
0.0
 11
282.035204
 21
182.595608
 31
0.0
  0
LINE
  8
0
 10
281.190277
 20
181.121467
 30
0.0
 11
281.898706
 21
181.121467
 31
0.0
  0
LINE
  8
0
 10
281.073807
 20
182.575579
 30
0.0
 11
282.015175
 21
182.575579
 31
0.0
  0
LINE
  8
0
 10
281.426319
 20
181.121467
 30
0.0
 11
281.426319
 21
182.213052
 31
0.0
  0
LINE
  8
0
 10
281.150218
 20
181.161525
 30
0.0
 11
281.150218
 21
182.575579
 31
0.0
  0
LINE
  8
0
 10
281.150218
 20
181.161525
 30
0.0
 11
281.426319
 21
181.161525
 31
0.0
  0
LINE
  8
0
 10
281.150218
 20
181.161525
 30
0.0
 11
281.190277
 21
181.121467
 31
0.0
  0
LINE
  8
0
 10
281.053778
 20
182.595608
 30
0.0
 11
281.073807
 21
182.575579
 31
0.0
  0
LINE
  8
0
 10
281.662663
 20
181.121467
 30
0.0
 11
281.662663
 21
182.213052
 31
0.0
  0
LINE
  8
0
 10
281.938764
 20
181.161525
 30
0.0
 11
281.938764
 21
182.575579
 31
0.0
  0
LINE
  8
0
 10
281.662663
 20
181.161525
 30
0.0
 11
281.938764
 21
181.161525
 31
0.0
  0
LINE
  8
0
 10
281.898706
 20
181.121467
 30
0.0
 11
281.938764
 21
181.161525
 31
0.0
  0
LINE
  8
0
 10
282.015175
 20
182.575579
 30
0.0
 11
282.035204
 21
182.595608
 31
0.0
  0
ARC
  8
0
 10
283.749694
 20
177.793067
 30
0.0
 40
0.030044
 50
0.0
 51
90.0
  0
LINE
  8
0
 10
283.749694
 20
177.82311
 30
0.0
 11
283.671581
 21
177.82311
 31
0.0
  0
ARC
  8
0
 10
283.916136
 20
177.466693
 30
0.0
 40
0.100145
 50
0.0
 51
90.0
  0
LINE
  8
0
 10
283.916136
 20
177.566838
 30
0.0
 11
283.779738
 21
177.566838
 31
0.0
  0
LINE
  8
0
 10
283.571435
 20
178.264753
 30
0.0
 11
283.447255
 21
178.264753
 31
0.0
  0
LINE
  8
OBJ
 10
283.742884
 20
179.04036
 30
0.0
 11
283.742884
 21
178.775014
 31
0.0
  0
ARC
  8
OBJ
 10
283.526622
 20
178.907687
 30
0.0
 40
0.216263
 50
322.158498
 51
37.841502
  0
LINE
  8
OBJ
 10
283.447255
 20
178.966076
 30
0.0
 11
283.504939
 21
179.02376
 31
0.0
  0
LINE
  8
OBJ
 10
283.504939
 20
179.170148
 30
0.0
 11
283.504939
 21
178.645226
 31
0.0
  0
LINE
  8
0
 10
283.447255
 20
179.149238
 30
0.0
 11
283.447255
 21
178.666136
 31
0.0
  0
LINE
  8
OBJ
  6
CONTINUOUS
 10
283.504939
 20
178.645226
 30
0.0
 11
283.697407
 21
178.645226
 31
0.0
  0
LINE
  8
OBJ
  6
CONTINUOUS
 10
283.504939
 20
178.775014
 30
0.0
 11
283.697407
 21
178.775014
 31
0.0
  0
LINE
  8
OBJ
  6
CENTER2
 10
283.447255
 20
178.666136
 30
0.0
 11
283.504939
 21
178.666136
 31
0.0
  0
LINE
  8
OBJ
 10
283.742884
 20
178.675288
 30
0.0
 11
283.714868
 21
178.65459
 31
0.0
  0
LINE
  8
OBJ
 10
283.742884
 20
178.775014
 30
0.0
 11
283.742884
 21
178.675288
 31
0.0
  0
ARC
  8
OBJ
 10
283.673845
 20
178.71012
 30
0.0
 40
0.069039
 50
289.954678
 51
70.045322
  0
LINE
  8
OBJ
  6
CONTINUOUS
 10
283.504939
 20
179.170148
 30
0.0
 11
283.697407
 21
179.170148
 31
0.0
  0
LINE
  8
OBJ
  6
CONTINUOUS
 10
283.504939
 20
179.04036
 30
0.0
 11
283.697407
 21
179.04036
 31
0.0
  0
ARC
  8
0
 10
283.427226
 20
179.264205
 30
0.0
 40
0.020029
 50
0.0
 51
90.0
  0
LINE
  8
OBJ
  6
CENTER2
 10
283.447255
 20
179.149238
 30
0.0
 11
283.504939
 21
179.149238
 31
0.0
  0
LINE
  8
OBJ
 10
283.742884
 20
179.140086
 30
0.0
 11
283.714868
 21
179.160784
 31
0.0
  0
LINE
  8
OBJ
 10
283.742884
 20
179.140086
 30
0.0
 11
283.742884
 21
179.04036
 31
0.0
  0
ARC
  8
OBJ
 10
283.673845
 20
179.105254
 30
0.0
 40
0.069039
 50
289.954678
 51
70.045322
  0
LINE
  8
0
 10
276.360962
 20
188.440098
 30
0.0
 11
280.033112
 21
188.440098
 31
0.0
  0
ARC
  8
0
 10
282.498228
 20
134.168085
 30
0.0
 40
53.578787
 50
89.816451
 51
93.728348
  0
ARC
  8
0
 10
282.498228
 20
238.089395
 30
0.0
 40
53.578787
 50
266.271652
 51
270.183549
  0
ARC
  8
0
 10
282.498228
 20
238.089395
 30
0.0
 40
54.279805
 50
264.443431
 51
267.397018
  0
ARC
  8
0
 10
282.498228
 20
134.168085
 30
0.0
 40
54.279805
 50
92.602982
 51
95.556569
  0
LINE
  8
0
 10
276.360962
 20
183.817383
 30
0.0
 11
280.033112
 21
183.817383
 31
0.0
  0
LINE
  8
0
 10
274.257907
 20
188.420069
 30
0.0
 11
274.257907
 21
187.880285
 31
0.0
  0
LINE
  8
0
 10
277.303856
 20
188.100837
 30
0.0
 11
278.880074
 21
187.641409
 31
0.0
  0
ARC
  8
0
 10
290.936087
 20
186.12874
 30
0.0
 40
13.909158
 50
171.750047
 51
188.249953
  0
LINE
  8
0
 10
276.360962
 20
183.817383
 30
0.0
 11
276.360962
 21
188.440098
 31
0.0
  0
LINE
  8
0
 10
274.257907
 20
188.397035
 30
0.0
 11
274.257907
 21
187.880285
 31
0.0
  0
LINE
  8
0
 10
273.952463
 20
187.900314
 30
0.0
 11
273.952463
 21
188.377006
 31
0.0
  0
LINE
  8
0
 10
273.972492
 20
188.397035
 30
0.0
 11
273.972492
 21
187.880285
 31
0.0
  0
LINE
  8
0
 10
274.20068
 20
188.397035
 30
0.0
 11
274.20068
 21
187.880285
 31
0.0
  0
ARC
  8
0
 10
274.842756
 20
187.468687
 30
0.0
 40
0.715039
 50
305.889396
 51
234.110604
  0
ARC
  8
0
 10
273.645672
 20
187.874276
 30
0.0
 40
0.180397
 50
131.458173
 51
228.541827
  0
LINE
  8
0
 10
273.465275
 20
187.961813
 30
0.0
 11
273.465275
 21
186.975561
 31
0.0
  0
LINE
  8
0
 10
273.904393
 20
188.085182
 30
0.0
 11
273.904393
 21
186.852191
 31
0.0
  0
LINE
  8
0
 10
273.884364
 20
188.065153
 30
0.0
 11
273.884364
 21
186.87222
 31
0.0
  0
POLYLINE
  8
0
 66
     1
 10
0.0
 20
0.0
 30
0.0
 70
     1
  0
VERTEX
  8
0
 10
274.842756
 20
188.009472
 30
0.0
  0
VERTEX
  8
0
 10
275.31109
 20
187.739079
 30
0.0
  0
VERTEX
  8
0
 10
275.31109
 20
187.198294
 30
0.0
  0
VERTEX
  8
0
 10
274.842756
 20
186.927901
 30
0.0
  0
VERTEX
  8
0
 10
274.374422
 20
187.198294
 30
0.0
  0
VERTEX
  8
0
 10
274.374422
 20
187.739079
 30
0.0
  0
SEQEND
  8
0
  0
CIRCLE
  8
0
 10
274.842756
 20
187.468687
 30
0.0
 40
0.616496
  0
ARC
  8
0
 10
276.409031
 20
183.565016
 30
0.0
 40
0.040058
 50
270.0
 51
0.0
  0
ARC
  8
0
 10
274.140737
 20
185.35762
 30
0.0
 40
0.200291
 50
338.462598
 51
0.0
  0
ARC
  8
0
 10
275.544776
 20
185.35762
 30
0.0
 40
0.200291
 50
180.0
 51
201.537402
  0
LINE
  8
0
 10
276.360962
 20
185.106255
 30
0.0
 11
276.360962
 21
187.151226
 31
0.0
  0
ARC
  8
0
 10
274.842756
 20
184.788794
 30
0.0
 40
0.715039
 50
125.889396
 51
54.110604
  0
LINE
  8
0
 10
274.257907
 20
185.717142
 30
0.0
 11
274.257907
 21
185.200392
 31
0.0
  0
LINE
  8
0
 10
273.952463
 20
185.220421
 30
0.0
 11
273.952463
 21
185.697113
 31
0.0
  0
LINE
  8
0
 10
273.972492
 20
185.717142
 30
0.0
 11
273.972492
 21
185.200392
 31
0.0
  0
LINE
  8
0
 10
274.20068
 20
185.717142
 30
0.0
 11
274.20068
 21
185.200392
 31
0.0
  0
LINE
  8
0
 10
273.526236
 20
185.329579
 30
0.0
 11
273.465275
 21
185.28192
 31
0.0
  0
ARC
  8
0
 10
273.645672
 20
185.194383
 30
0.0
 40
0.180397
 50
131.458173
 51
228.541827
  0
LINE
  8
0
 10
273.904393
 20
185.405289
 30
0.0
 11
273.904393
 21
184.172298
 31
0.0
  0
LINE
  8
0
 10
273.884364
 20
185.38526
 30
0.0
 11
273.884364
 21
184.192327
 31
0.0
  0
POLYLINE
  8
0
 66
     1
 10
0.0
 20
0.0
 30
0.0
 70
     1
  0
VERTEX
  8
0
 10
274.842756
 20
185.329579
 30
0.0
  0
VERTEX
  8
0
 10
275.31109
 20
185.059187
 30
0.0
  0
VERTEX
  8
0
 10
275.31109
 20
184.518401
 30
0.0
  0
VERTEX
  8
0
 10
274.842756
 20
184.248008
 30
0.0
  0
VERTEX
  8
0
 10
274.374422
 20
184.518401
 30
0.0
  0
VERTEX
  8
0
 10
274.374422
 20
185.059187
 30
0.0
  0
SEQEND
  8
0
  0
CIRCLE
  8
0
 10
274.842756
 20
184.788794
 30
0.0
 40
0.616496
  0
LINE
  8
0
 10
274.381086
 20
183.524958
 30
0.0
 11
275.304427
 21
183.524958
 31
0.0
  0
CIRCLE
  8
0
 10
274.842756
 20
184.788794
 30
0.0
 40
0.297432
  0
CIRCLE
  8
0
 10
274.842756
 20
184.788794
 30
0.0
 40
0.459119
  0
CIRCLE
  8
0
 10
274.842756
 20
184.788794
 30
0.0
 40
0.205482
  0
LINE
  8
0
 10
274.341027
 20
184.219968
 30
0.0
 11
274.341027
 21
183.565016
 31
0.0
  0
LINE
  8
0
 10
274.20068
 20
183.860445
 30
0.0
 11
274.20068
 21
184.377196
 31
0.0
  0
LINE
  8
0
 10
273.972492
 20
183.860445
 30
0.0
 11
273.972492
 21
184.377196
 31
0.0
  0
LINE
  8
0
 10
273.952463
 20
184.357167
 30
0.0
 11
273.952463
 21
183.880475
 31
0.0
  0
LINE
  8
0
 10
274.257907
 20
183.837412
 30
0.0
 11
274.257907
 21
184.377196
 31
0.0
  0
LINE
  8
0
 10
274.257907
 20
183.860445
 30
0.0
 11
273.972492
 21
183.860445
 31
0.0
  0
LINE
  8
0
 10
273.972492
 20
183.873365
 30
0.0
 11
274.20068
 21
183.873365
 31
0.0
  0
LINE
  8
0
 10
273.972492
 20
183.897767
 30
0.0
 11
274.20068
 21
183.897767
 31
0.0
  0
LINE
  8
0
 10
273.972492
 20
183.925656
 30
0.0
 11
274.20068
 21
183.925656
 31
0.0
  0
LINE
  8
0
 10
273.972492
 20
183.860445
 30
0.0
 11
273.952463
 21
183.880475
 31
0.0
  0
ARC
  8
0
 10
274.381086
 20
183.565016
 30
0.0
 40
0.040058
 50
180.0
 51
270.0
  0
LINE
  8
0
 10
274.277936
 20
183.817383
 30
0.0
 11
274.341027
 21
183.817383
 31
0.0
  0
LINE
  8
0
 10
274.257907
 20
183.837412
 30
0.0
 11
274.277936
 21
183.817383
 31
0.0
  0
LINE
  8
0
 10
273.875351
 20
185.059187
 30
0.0
 11
273.526236
 21
185.059187
 31
0.0
  0
LINE
  8
0
 10
273.875351
 20
184.518401
 30
0.0
 11
273.526236
 21
184.518401
 31
0.0
  0
LINE
  8
0
 10
273.875351
 20
184.248008
 30
0.0
 11
273.526236
 21
184.248008
 31
0.0
  0
LINE
  8
0
 10
273.465275
 20
185.28192
 30
0.0
 11
273.465275
 21
184.295668
 31
0.0
  0
ARC
  8
0
 10
274.095421
 20
184.788794
 30
0.0
 40
0.630146
 50
154.589813
 51
205.410187
  0
LINE
  8
0
 10
273.526236
 20
184.248008
 30
0.0
 11
273.465275
 21
184.295668
 31
0.0
  0
ARC
  8
0
 10
273.645672
 20
184.383205
 30
0.0
 40
0.180397
 50
131.458173
 51
228.541827
  0
LINE
  8
0
 10
274.014553
 20
184.377196
 30
0.0
 11
274.014553
 21
185.200392
 31
0.0
  0
LINE
  8
0
 10
274.054594
 20
184.377196
 30
0.0
 11
274.054594
 21
185.200392
 31
0.0
  0
LINE
  8
0
 10
274.257907
 20
184.377196
 30
0.0
 11
273.972492
 21
184.377196
 31
0.0
  0
LINE
  8
0
 10
273.972492
 20
183.964002
 30
0.0
 11
274.20068
 21
183.964002
 31
0.0
  0
LINE
  8
0
 10
274.20068
 20
184.006658
 30
0.0
 11
273.972492
 21
184.006658
 31
0.0
  0
LINE
  8
0
 10
273.972492
 20
184.148142
 30
0.0
 11
274.20068
 21
184.148142
 31
0.0
  0
LINE
  8
0
 10
273.972492
 20
184.189975
 30
0.0
 11
274.20068
 21
184.189975
 31
0.0
  0
LINE
  8
0
 10
274.20068
 20
184.230984
 30
0.0
 11
273.972492
 21
184.230984
 31
0.0
  0
LINE
  8
0
 10
273.972492
 20
184.047667
 30
0.0
 11
274.20068
 21
184.047667
 31
0.0
  0
LINE
  8
0
 10
273.972492
 20
184.089499
 30
0.0
 11
274.20068
 21
184.089499
 31
0.0
  0
LINE
  8
0
 10
273.972492
 20
184.273639
 30
0.0
 11
274.20068
 21
184.273639
 31
0.0
  0
ARC
  8
0
 10
273.875351
 20
184.238995
 30
0.0
 40
0.009013
 50
360.0
 51
90.0
  0
LINE
  8
0
 10
273.884364
 20
184.192327
 30
0.0
 11
273.904393
 21
184.172298
 31
0.0
  0
LINE
  8
0
 10
273.952463
 20
184.172298
 30
0.0
 11
273.904393
 21
184.172298
 31
0.0
  0
LINE
  8
0
 10
273.972492
 20
184.311986
 30
0.0
 11
274.20068
 21
184.311986
 31
0.0
  0
LINE
  8
0
 10
273.972492
 20
184.339874
 30
0.0
 11
274.20068
 21
184.339874
 31
0.0
  0
LINE
  8
0
 10
273.972492
 20
184.364276
 30
0.0
 11
274.20068
 21
184.364276
 31
0.0
  0
LINE
  8
0
 10
273.952463
 20
184.357167
 30
0.0
 11
273.972492
 21
184.377196
 31
0.0
  0
ARC
  8
0
 10
273.875351
 20
184.527414
 30
0.0
 40
0.009013
 50
270.0
 51
360.0
  0
ARC
  8
0
 10
273.875351
 20
184.509388
 30
0.0
 40
0.009013
 50
360.0
 51
90.0
  0
ARC
  8
0
 10
274.140737
 20
184.219968
 30
0.0
 40
0.200291
 50
0.0
 51
21.537402
  0
LINE
  8
0
 10
274.257907
 20
185.200392
 30
0.0
 11
273.972492
 21
185.200392
 31
0.0
  0
LINE
  8
0
 10
273.972492
 20
185.213311
 30
0.0
 11
274.20068
 21
185.213311
 31
0.0
  0
LINE
  8
0
 10
273.972492
 20
185.237714
 30
0.0
 11
274.20068
 21
185.237714
 31
0.0
  0
LINE
  8
0
 10
273.972492
 20
185.265602
 30
0.0
 11
274.20068
 21
185.265602
 31
0.0
  0
LINE
  8
0
 10
273.952463
 20
185.220421
 30
0.0
 11
273.972492
 21
185.200392
 31
0.0
  0
ARC
  8
0
 10
273.875351
 20
185.0682
 30
0.0
 40
0.009013
 50
270.0
 51
360.0
  0
ARC
  8
0
 10
273.875351
 20
185.050174
 30
0.0
 40
0.009013
 50
360.0
 51
90.0
  0
LINE
  8
0
 10
275.344485
 20
184.219968
 30
0.0
 11
275.344485
 21
183.565016
 31
0.0
  0
LINE
  8
0
 10
275.271379
 20
183.524958
 30
0.0
 11
276.409031
 21
183.524958
 31
0.0
  0
LINE
  8
0
 10
275.344485
 20
183.817383
 30
0.0
 11
276.360962
 21
183.817383
 31
0.0
  0
ARC
  8
0
 10
275.304427
 20
183.565016
 30
0.0
 40
0.040058
 50
270.0
 51
0.0
  0
LINE
  8
0
 10
275.544776
 20
184.420259
 30
0.0
 11
276.360962
 21
184.420259
 31
0.0
  0
LINE
  8
0
 10
275.544776
 20
185.157329
 30
0.0
 11
276.360962
 21
185.157329
 31
0.0
  0
ARC
  8
0
 10
275.544776
 20
184.219968
 30
0.0
 40
0.200291
 50
158.462598
 51
180.0
  0
ARC
  8
0
 10
275.544776
 20
184.219968
 30
0.0
 40
0.200291
 50
90.0
 51
123.503705
  0
CIRCLE
  8
0
 10
274.842756
 20
184.788794
 30
0.0
 40
0.143838
  0
ARC
  8
0
 10
275.544776
 20
185.35762
 30
0.0
 40
0.200291
 50
236.496295
 51
270.0
  0
LINE
  8
0
 10
276.030482
 20
184.480346
 30
0.0
 11
276.030482
 21
185.097242
 31
0.0
  0
LINE
  8
0
 10
276.120612
 20
185.157329
 30
0.0
 11
276.120612
 21
184.420259
 31
0.0
  0
LINE
  8
0
 10
276.090569
 20
185.157329
 30
0.0
 11
276.090569
 21
184.420259
 31
0.0
  0
ARC
  8
0
 10
276.090569
 20
184.480346
 30
0.0
 40
0.060087
 50
180.0
 51
270.0
  0
ARC
  8
0
 10
276.090569
 20
185.097242
 30
0.0
 40
0.060087
 50
90.0
 51
180.0
  0
CIRCLE
  8
0
 10
274.842756
 20
187.468687
 30
0.0
 40
0.297432
  0
CIRCLE
  8
0
 10
274.842756
 20
187.468687
 30
0.0
 40
0.459119
  0
CIRCLE
  8
0
 10
274.842756
 20
187.468687
 30
0.0
 40
0.205482
  0
CIRCLE
  8
0
 10
274.842756
 20
186.12874
 30
0.0
 40
0.205482
  0
CIRCLE
  8
0
 10
274.842756
 20
186.12874
 30
0.0
 40
0.297432
  0
CIRCLE
  8
0
 10
274.842756
 20
186.12874
 30
0.0
 40
0.459119
  0
CIRCLE
  8
0
 10
274.842756
 20
186.12874
 30
0.0
 40
0.616496
  0
POLYLINE
  8
0
 66
     1
 10
0.0
 20
0.0
 30
0.0
 70
     1
  0
VERTEX
  8
0
 10
274.842756
 20
186.669526
 30
0.0
  0
VERTEX
  8
0
 10
275.31109
 20
186.399133
 30
0.0
  0
VERTEX
  8
0
 10
275.31109
 20
185.858348
 30
0.0
  0
VERTEX
  8
0
 10
274.842756
 20
185.587955
 30
0.0
  0
VERTEX
  8
0
 10
274.374422
 20
185.858348
 30
0.0
  0
VERTEX
  8
0
 10
274.374422
 20
186.399133
 30
0.0
  0
SEQEND
  8
0
  0
ARC
  8
0
 10
274.842756
 20
186.12874
 30
0.0
 40
0.715039
 50
125.889396
 51
234.110604
  0
LINE
  8
0
 10
274.20068
 20
186.540338
 30
0.0
 11
274.20068
 21
187.057089
 31
0.0
  0
LINE
  8
0
 10
273.972492
 20
186.540338
 30
0.0
 11
273.972492
 21
187.057089
 31
0.0
  0
LINE
  8
0
 10
273.952463
 20
187.03706
 30
0.0
 11
273.952463
 21
186.560367
 31
0.0
  0
LINE
  8
0
 10
274.257907
 20
186.540338
 30
0.0
 11
274.257907
 21
187.057089
 31
0.0
  0
ARC
  8
0
 10
273.645672
 20
186.534329
 30
0.0
 40
0.180397
 50
131.458173
 51
228.541827
  0
LINE
  8
0
 10
273.884364
 20
186.725207
 30
0.0
 11
273.884364
 21
185.532274
 31
0.0
  0
LINE
  8
0
 10
273.465275
 20
186.621866
 30
0.0
 11
273.465275
 21
185.635614
 31
0.0
  0
LINE
  8
0
 10
273.904393
 20
186.745236
 30
0.0
 11
273.904393
 21
185.512245
 31
0.0
  0
LINE
  8
0
 10
273.875351
 20
185.329579
 30
0.0
 11
273.526236
 21
185.329579
 31
0.0
  0
LINE
  8
0
 10
273.875351
 20
186.399133
 30
0.0
 11
273.526236
 21
186.399133
 31
0.0
  0
LINE
  8
0
 10
273.875351
 20
185.858348
 30
0.0
 11
273.526236
 21
185.858348
 31
0.0
  0
LINE
  8
0
 10
273.875351
 20
185.587955
 30
0.0
 11
273.526236
 21
185.587955
 31
0.0
  0
ARC
  8
0
 10
274.095421
 20
186.12874
 30
0.0
 40
0.630146
 50
154.589813
 51
205.410187
  0
LINE
  8
0
 10
273.526236
 20
185.587955
 30
0.0
 11
273.465275
 21
185.635614
 31
0.0
  0
ARC
  8
0
 10
273.645672
 20
185.723151
 30
0.0
 40
0.180397
 50
131.458173
 51
228.541827
  0
LINE
  8
0
 10
274.054594
 20
185.717142
 30
0.0
 11
274.054594
 21
186.540338
 31
0.0
  0
LINE
  8
0
 10
274.014553
 20
185.717142
 30
0.0
 11
274.014553
 21
186.540338
 31
0.0
  0
LINE
  8
0
 10
274.257907
 20
185.717142
 30
0.0
 11
273.972492
 21
185.717142
 31
0.0
  0
LINE
  8
0
 10
274.20068
 20
185.57093
 30
0.0
 11
273.972492
 21
185.57093
 31
0.0
  0
LINE
  8
0
 10
273.972492
 20
185.613586
 30
0.0
 11
274.20068
 21
185.613586
 31
0.0
  0
LINE
  8
0
 10
273.972492
 20
185.488089
 30
0.0
 11
274.20068
 21
185.488089
 31
0.0
  0
LINE
  8
0
 10
273.972492
 20
185.529921
 30
0.0
 11
274.20068
 21
185.529921
 31
0.0
  0
LINE
  8
0
 10
274.20068
 20
185.346604
 30
0.0
 11
273.972492
 21
185.346604
 31
0.0
  0
LINE
  8
0
 10
273.972492
 20
185.387613
 30
0.0
 11
274.20068
 21
185.387613
 31
0.0
  0
LINE
  8
0
 10
273.972492
 20
185.429446
 30
0.0
 11
274.20068
 21
185.429446
 31
0.0
  0
LINE
  8
0
 10
273.972492
 20
185.303949
 30
0.0
 11
274.20068
 21
185.303949
 31
0.0
  0
LINE
  8
0
 10
273.884364
 20
185.38526
 30
0.0
 11
273.904393
 21
185.405289
 31
0.0
  0
LINE
  8
0
 10
273.952463
 20
185.405289
 30
0.0
 11
273.904393
 21
185.405289
 31
0.0
  0
ARC
  8
0
 10
273.875351
 20
185.338593
 30
0.0
 40
0.009013
 50
270.0
 51
0.0
  0
ARC
  8
0
 10
273.875351
 20
185.578942
 30
0.0
 40
0.009013
 50
360.0
 51
90.0
  0
LINE
  8
0
 10
273.884364
 20
185.532274
 30
0.0
 11
273.904393
 21
185.512245
 31
0.0
  0
LINE
  8
0
 10
273.952463
 20
185.512245
 30
0.0
 11
273.904393
 21
185.512245
 31
0.0
  0
LINE
  8
0
 10
273.972492
 20
185.651932
 30
0.0
 11
274.20068
 21
185.651932
 31
0.0
  0
LINE
  8
0
 10
273.972492
 20
185.67982
 30
0.0
 11
274.20068
 21
185.67982
 31
0.0
  0
LINE
  8
0
 10
273.972492
 20
185.704223
 30
0.0
 11
274.20068
 21
185.704223
 31
0.0
  0
LINE
  8
0
 10
273.972492
 20
185.717142
 30
0.0
 11
273.952463
 21
185.697113
 31
0.0
  0
ARC
  8
0
 10
273.875351
 20
185.849334
 30
0.0
 40
0.009013
 50
360.0
 51
90.0
  0
ARC
  8
0
 10
273.875351
 20
185.867361
 30
0.0
 40
0.009013
 50
270.0
 51
360.0
  0
ARC
  8
0
 10
274.140737
 20
185.559914
 30
0.0
 40
0.200291
 50
0.0
 51
21.537402
  0
ARC
  8
0
 10
274.357965
 20
185.458767
 30
0.0
 40
0.111935
 50
305.889396
 51
54.110604
  0
ARC
  8
0
 10
274.357965
 20
185.458767
 30
0.0
 40
0.111935
 50
305.889396
 51
54.110604
  0
LINE
  8
0
 10
274.341027
 20
185.559914
 30
0.0
 11
274.341027
 21
185.35762
 31
0.0
  0
LINE
  8
0
 10
274.257907
 20
186.540338
 30
0.0
 11
273.972492
 21
186.540338
 31
0.0
  0
LINE
  8
0
 10
273.972492
 20
186.553258
 30
0.0
 11
274.20068
 21
186.553258
 31
0.0
  0
LINE
  8
0
 10
273.972492
 20
186.57766
 30
0.0
 11
274.20068
 21
186.57766
 31
0.0
  0
LINE
  8
0
 10
273.972492
 20
186.605548
 30
0.0
 11
274.20068
 21
186.605548
 31
0.0
  0
LINE
  8
0
 10
273.972492
 20
186.540338
 30
0.0
 11
273.952463
 21
186.560367
 31
0.0
  0
ARC
  8
0
 10
273.875351
 20
186.39012
 30
0.0
 40
0.009013
 50
360.0
 51
90.0
  0
ARC
  8
0
 10
273.875351
 20
186.408146
 30
0.0
 40
0.009013
 50
270.0
 51
360.0
  0
LINE
  8
0
 10
273.875351
 20
187.739079
 30
0.0
 11
273.526236
 21
187.739079
 31
0.0
  0
LINE
  8
0
 10
273.875351
 20
187.198294
 30
0.0
 11
273.526236
 21
187.198294
 31
0.0
  0
LINE
  8
0
 10
273.875351
 20
186.927901
 30
0.0
 11
273.526236
 21
186.927901
 31
0.0
  0
LINE
  8
0
 10
273.875351
 20
186.669526
 30
0.0
 11
273.526236
 21
186.669526
 31
0.0
  0
ARC
  8
0
 10
274.095421
 20
187.468687
 30
0.0
 40
0.630146
 50
154.589813
 51
205.410187
  0
LINE
  8
0
 10
273.526236
 20
186.927901
 30
0.0
 11
273.465275
 21
186.975561
 31
0.0
  0
ARC
  8
0
 10
273.645672
 20
187.063098
 30
0.0
 40
0.180397
 50
131.458173
 51
228.541827
  0
LINE
  8
0
 10
273.526236
 20
186.669526
 30
0.0
 11
273.465275
 21
186.621866
 31
0.0
  0
LINE
  8
0
 10
274.014553
 20
187.057089
 30
0.0
 11
274.014553
 21
187.880285
 31
0.0
  0
LINE
  8
0
 10
274.014553
 20
187.057089
 30
0.0
 11
274.014553
 21
187.880285
 31
0.0
  0
LINE
  8
0
 10
274.257907
 20
187.057089
 30
0.0
 11
273.972492
 21
187.057089
 31
0.0
  0
LINE
  8
0
 10
273.972492
 20
186.643895
 30
0.0
 11
274.20068
 21
186.643895
 31
0.0
  0
LINE
  8
0
 10
274.20068
 20
186.686551
 30
0.0
 11
273.972492
 21
186.686551
 31
0.0
  0
LINE
  8
0
 10
273.972492
 20
186.828035
 30
0.0
 11
274.20068
 21
186.828035
 31
0.0
  0
LINE
  8
0
 10
273.972492
 20
186.869867
 30
0.0
 11
274.20068
 21
186.869867
 31
0.0
  0
LINE
  8
0
 10
274.20068
 20
186.910876
 30
0.0
 11
273.972492
 21
186.910876
 31
0.0
  0
LINE
  8
0
 10
273.972492
 20
186.72756
 30
0.0
 11
274.20068
 21
186.72756
 31
0.0
  0
LINE
  8
0
 10
273.972492
 20
186.769392
 30
0.0
 11
274.20068
 21
186.769392
 31
0.0
  0
ARC
  8
0
 10
273.875351
 20
186.918888
 30
0.0
 40
0.009013
 50
360.0
 51
90.0
  0
LINE
  8
0
 10
273.884364
 20
186.87222
 30
0.0
 11
273.904393
 21
186.852191
 31
0.0
  0
LINE
  8
0
 10
273.952463
 20
186.852191
 30
0.0
 11
273.904393
 21
186.852191
 31
0.0
  0
LINE
  8
0
 10
273.952463
 20
186.745236
 30
0.0
 11
273.904393
 21
186.745236
 31
0.0
  0
ARC
  8
0
 10
273.875351
 20
186.678539
 30
0.0
 40
0.009013
 50
270.0
 51
0.0
  0
LINE
  8
0
 10
273.884364
 20
186.725207
 30
0.0
 11
273.904393
 21
186.745236
 31
0.0
  0
LINE
  8
0
 10
273.972492
 20
186.953532
 30
0.0
 11
274.20068
 21
186.953532
 31
0.0
  0
LINE
  8
0
 10
273.972492
 20
186.991879
 30
0.0
 11
274.20068
 21
186.991879
 31
0.0
  0
LINE
  8
0
 10
273.972492
 20
187.019767
 30
0.0
 11
274.20068
 21
187.019767
 31
0.0
  0
LINE
  8
0
 10
273.972492
 20
187.044169
 30
0.0
 11
274.20068
 21
187.044169
 31
0.0
  0
LINE
  8
0
 10
273.952463
 20
187.03706
 30
0.0
 11
273.972492
 21
187.057089
 31
0.0
  0
ARC
  8
0
 10
273.875351
 20
187.207307
 30
0.0
 40
0.009013
 50
270.0
 51
360.0
  0
ARC
  8
0
 10
273.875351
 20
187.189281
 30
0.0
 40
0.009013
 50
360.0
 51
90.0
  0
ARC
  8
0
 10
274.140737
 20
186.89986
 30
0.0
 40
0.200291
 50
0.0
 51
21.537402
  0
ARC
  8
0
 10
274.357965
 20
186.798713
 30
0.0
 40
0.111935
 50
305.889396
 51
54.110604
  0
ARC
  8
0
 10
274.140737
 20
186.697567
 30
0.0
 40
0.200291
 50
338.462598
 51
0.0
  0
LINE
  8
0
 10
274.341027
 20
186.89986
 30
0.0
 11
274.341027
 21
186.697567
 31
0.0
  0
LINE
  8
0
 10
274.257907
 20
187.880285
 30
0.0
 11
273.972492
 21
187.880285
 31
0.0
  0
LINE
  8
0
 10
273.972492
 20
187.893204
 30
0.0
 11
274.20068
 21
187.893204
 31
0.0
  0
LINE
  8
0
 10
273.972492
 20
187.917606
 30
0.0
 11
274.20068
 21
187.917606
 31
0.0
  0
LINE
  8
0
 10
273.952463
 20
187.900314
 30
0.0
 11
273.972492
 21
187.880285
 31
0.0
  0
ARC
  8
0
 10
273.875351
 20
187.748093
 30
0.0
 40
0.009013
 50
270.0
 51
360.0
  0
ARC
  8
0
 10
273.875351
 20
187.730066
 30
0.0
 40
0.009013
 50
360.0
 51
90.0
  0
ARC
  8
0
 10
274.842756
 20
186.12874
 30
0.0
 40
0.715039
 50
305.889396
 51
54.110604
  0
LINE
  8
0
 10
275.544776
 20
186.497276
 30
0.0
 11
276.360962
 21
186.497276
 31
0.0
  0
LINE
  8
0
 10
275.544776
 20
185.760205
 30
0.0
 11
276.360962
 21
185.760205
 31
0.0
  0
ARC
  8
0
 10
275.544776
 20
185.559914
 30
0.0
 40
0.200291
 50
158.462598
 51
180.0
  0
ARC
  8
0
 10
275.327547
 20
185.458767
 30
0.0
 40
0.111935
 50
125.889396
 51
234.110604
  0
LINE
  8
0
 10
275.344485
 20
185.559914
 30
0.0
 11
275.344485
 21
185.35762
 31
0.0
  0
ARC
  8
0
 10
275.544776
 20
185.559914
 30
0.0
 40
0.200291
 50
90.0
 51
123.503705
  0
CIRCLE
  8
0
 10
274.842756
 20
186.12874
 30
0.0
 40
0.143838
  0
ARC
  8
0
 10
275.544776
 20
186.697567
 30
0.0
 40
0.200291
 50
236.496295
 51
270.0
  0
LINE
  8
0
 10
276.030482
 20
185.820292
 30
0.0
 11
276.030482
 21
186.437188
 31
0.0
  0
LINE
  8
0
 10
276.090569
 20
186.497276
 30
0.0
 11
276.090569
 21
185.760205
 31
0.0
  0
LINE
  8
0
 10
276.120612
 20
186.497276
 30
0.0
 11
276.120612
 21
185.760205
 31
0.0
  0
ARC
  8
0
 10
276.090569
 20
185.820292
 30
0.0
 40
0.060087
 50
180.0
 51
270.0
  0
ARC
  8
0
 10
276.090569
 20
186.437188
 30
0.0
 40
0.060087
 50
90.0
 51
180.0
  0
LINE
  8
0
 10
275.544776
 20
187.837222
 30
0.0
 11
276.360962
 21
187.837222
 31
0.0
  0
LINE
  8
0
 10
275.544776
 20
187.100151
 30
0.0
 11
276.360962
 21
187.100151
 31
0.0
  0
ARC
  8
0
 10
275.544776
 20
186.89986
 30
0.0
 40
0.200291
 50
158.462598
 51
180.0
  0
ARC
  8
0
 10
275.327547
 20
186.798713
 30
0.0
 40
0.111935
 50
125.889396
 51
234.110604
  0
LINE
  8
0
 10
275.344485
 20
186.89986
 30
0.0
 11
275.344485
 21
186.697567
 31
0.0
  0
ARC
  8
0
 10
275.544776
 20
186.697567
 30
0.0
 40
0.200291
 50
180.0
 51
201.537402
  0
ARC
  8
0
 10
275.544776
 20
186.89986
 30
0.0
 40
0.200291
 50
90.0
 51
123.503705
  0
CIRCLE
  8
0
 10
274.842756
 20
187.468687
 30
0.0
 40
0.143838
  0
ARC
  8
0
 10
275.544776
 20
188.037513
 30
0.0
 40
0.200291
 50
236.496295
 51
270.0
  0
LINE
  8
0
 10
276.030482
 20
187.777135
 30
0.0
 11
276.030482
 21
187.160239
 31
0.0
  0
LINE
  8
0
 10
276.090569
 20
187.100151
 30
0.0
 11
276.090569
 21
187.837222
 31
0.0
  0
LINE
  8
0
 10
276.120612
 20
187.100151
 30
0.0
 11
276.120612
 21
187.837222
 31
0.0
  0
ARC
  8
0
 10
276.090569
 20
187.160239
 30
0.0
 40
0.060087
 50
180.0
 51
270.0
  0
ARC
  8
0
 10
276.090569
 20
187.777135
 30
0.0
 40
0.060087
 50
90.0
 51
180.0
  0
ARC
  8
0
 10
293.036434
 20
186.12874
 30
0.0
 40
14.169355
 50
179.813054
 51
185.804019
  0
LINE
  8
0
 10
277.303856
 20
184.156644
 30
0.0
 11
278.880074
 21
184.616071
 31
0.0
  0
LINE
  8
0
 10
277.415664
 20
184.016399
 30
0.0
 11
277.256024
 21
183.843201
 31
0.0
  0
LINE
  8
0
 10
276.44909
 20
183.565016
 30
0.0
 11
276.44909
 21
183.817383
 31
0.0
  0
ARC
  8
0
 10
277.197115
 20
183.897499
 30
0.0
 40
0.080116
 50
270.0
 51
317.332715
  0
ARC
  8
0
 10
277.250155
 20
184.144386
 30
0.0
 40
0.080116
 50
188.249953
 51
264.443431
  0
ARC
  8
0
 10
277.250155
 20
184.144386
 30
0.0
 40
0.080116
 50
188.249953
 51
264.443431
  0
ARC
  8
0
 10
277.474573
 20
183.962101
 30
0.0
 40
0.080116
 50
84.697463
 51
137.332715
  0
ARC
  8
0
 10
279.019422
 20
184.703951
 30
0.0
 40
0.080116
 50
185.804019
 51
266.271652
  0
POLYLINE
  8
0
 66
     1
 10
0.0
 20
0.0
 30
0.0
 70
     1
  0
VERTEX
  8
0
 10
277.886177
 20
186.758655
 30
0.0
  0
VERTEX
  8
0
 10
278.223167
 20
186.174972
 30
0.0
  0
VERTEX
  8
0
 10
278.897146
 20
186.174972
 30
0.0
  0
VERTEX
  8
0
 10
279.234135
 20
186.758655
 30
0.0
  0
VERTEX
  8
0
 10
278.897146
 20
187.342338
 30
0.0
  0
VERTEX
  8
0
 10
278.223167
 20
187.342338
 30
0.0
  0
SEQEND
  8
0
  0
CIRCLE
  8
0
 10
278.560156
 20
186.758655
 30
0.0
 40
0.468681
  0
CIRCLE
  8
0
 10
278.560156
 20
186.758655
 30
0.0
 40
0.582772
  0
CIRCLE
  8
0
 10
278.560156
 20
186.758655
 30
0.0
 40
0.582772
  0
ARC
  8
0
 10
279.019422
 20
187.55353
 30
0.0
 40
0.080116
 50
93.728348
 51
174.195981
  0
CIRCLE
  8
0
 10
278.560156
 20
186.758655
 30
0.0
 40
0.060087
  0
ARC
  8
0
 10
293.036434
 20
186.12874
 30
0.0
 40
14.169355
 50
174.195981
 51
175.221468
  0
ARC
  8
0
 10
276.409031
 20
188.692464
 30
0.0
 40
0.040058
 50
0.0
 51
90.0
  0
LINE
  8
0
 10
274.381086
 20
188.732522
 30
0.0
 11
275.304427
 21
188.732522
 31
0.0
  0
LINE
  8
0
 10
273.875351
 20
188.009472
 30
0.0
 11
273.526236
 21
188.009472
 31
0.0
  0
LINE
  8
0
 10
273.526236
 20
188.009472
 30
0.0
 11
273.465275
 21
187.961813
 31
0.0
  0
LINE
  8
0
 10
274.341027
 20
188.037513
 30
0.0
 11
274.341027
 21
188.692464
 31
0.0
  0
LINE
  8
0
 10
274.257907
 20
188.397035
 30
0.0
 11
273.972492
 21
188.397035
 31
0.0
  0
LINE
  8
0
 10
273.972492
 20
187.945495
 30
0.0
 11
274.20068
 21
187.945495
 31
0.0
  0
LINE
  8
0
 10
273.972492
 20
187.983841
 30
0.0
 11
274.20068
 21
187.983841
 31
0.0
  0
LINE
  8
0
 10
273.972492
 20
188.167981
 30
0.0
 11
274.20068
 21
188.167981
 31
0.0
  0
LINE
  8
0
 10
273.972492
 20
188.209814
 30
0.0
 11
274.20068
 21
188.209814
 31
0.0
  0
LINE
  8
0
 10
274.20068
 20
188.026497
 30
0.0
 11
273.972492
 21
188.026497
 31
0.0
  0
LINE
  8
0
 10
273.972492
 20
188.067506
 30
0.0
 11
274.20068
 21
188.067506
 31
0.0
  0
LINE
  8
0
 10
273.972492
 20
188.109338
 30
0.0
 11
274.20068
 21
188.109338
 31
0.0
  0
LINE
  8
0
 10
274.20068
 20
188.250823
 30
0.0
 11
273.972492
 21
188.250823
 31
0.0
  0
LINE
  8
0
 10
273.884364
 20
188.065153
 30
0.0
 11
273.904393
 21
188.085182
 31
0.0
  0
LINE
  8
0
 10
273.952463
 20
188.085182
 30
0.0
 11
273.904393
 21
188.085182
 31
0.0
  0
ARC
  8
0
 10
273.875351
 20
188.018485
 30
0.0
 40
0.009013
 50
270.0
 51
0.0
  0
LINE
  8
0
 10
273.972492
 20
188.293478
 30
0.0
 11
274.20068
 21
188.293478
 31
0.0
  0
LINE
  8
0
 10
273.972492
 20
188.331825
 30
0.0
 11
274.20068
 21
188.331825
 31
0.0
  0
LINE
  8
0
 10
273.972492
 20
188.359713
 30
0.0
 11
274.20068
 21
188.359713
 31
0.0
  0
LINE
  8
0
 10
273.972492
 20
188.384115
 30
0.0
 11
274.20068
 21
188.384115
 31
0.0
  0
LINE
  8
0
 10
273.972492
 20
188.397035
 30
0.0
 11
273.952463
 21
188.377006
 31
0.0
  0
ARC
  8
0
 10
274.140737
 20
188.037513
 30
0.0
 40
0.200291
 50
338.462598
 51
0.0
  0
LINE
  8
0
 10
274.257907
 20
188.420069
 30
0.0
 11
274.277936
 21
188.440098
 31
0.0
  0
LINE
  8
0
 10
274.277936
 20
188.440098
 30
0.0
 11
274.341027
 21
188.440098
 31
0.0
  0
ARC
  8
0
 10
274.381086
 20
188.692464
 30
0.0
 40
0.040058
 50
90.0
 51
180.0
  0
LINE
  8
0
 10
275.271379
 20
188.732522
 30
0.0
 11
276.409031
 21
188.732522
 31
0.0
  0
LINE
  8
0
 10
275.344485
 20
188.440098
 30
0.0
 11
276.360962
 21
188.440098
 31
0.0
  0
LINE
  8
0
 10
275.344485
 20
188.037513
 30
0.0
 11
275.344485
 21
188.692464
 31
0.0
  0
ARC
  8
0
 10
275.544776
 20
188.037513
 30
0.0
 40
0.200291
 50
180.0
 51
201.537402
  0
ARC
  8
0
 10
275.304427
 20
188.692464
 30
0.0
 40
0.040058
 50
0.0
 51
90.0
  0
LINE
  8
0
 10
277.415664
 20
188.241081
 30
0.0
 11
277.256024
 21
188.414279
 31
0.0
  0
LINE
  8
0
 10
276.44909
 20
188.692464
 30
0.0
 11
276.44909
 21
188.440098
 31
0.0
  0
ARC
  8
0
 10
277.250155
 20
188.113094
 30
0.0
 40
0.080116
 50
95.556569
 51
171.750047
  0
ARC
  8
0
 10
277.250155
 20
188.113094
 30
0.0
 40
0.080116
 50
95.556569
 51
171.750047
  0
ARC
  8
0
 10
277.197115
 20
188.359981
 30
0.0
 40
0.080116
 50
42.667285
 51
90.0
  0
ARC
  8
0
 10
277.474573
 20
188.29538
 30
0.0
 40
0.080116
 50
222.667285
 51
275.302537
  0
LINE
  8
OBJ
 10
283.742884
 20
187.914272
 30
0.0
 11
283.742884
 21
188.013999
 31
0.0
  0
ARC
  8
OBJ
 10
283.673845
 20
187.949105
 30
0.0
 40
0.069039
 50
289.954678
 51
70.045322
  0
LINE
  8
OBJ
 10
283.504939
 20
187.88421
 30
0.0
 11
283.504939
 21
188.409133
 31
0.0
  0
LINE
  8
0
 10
283.447255
 20
187.905121
 30
0.0
 11
283.447255
 21
188.388222
 31
0.0
  0
LINE
  8
0
 10
283.447255
 20
183.835409
 30
0.0
 11
283.447255
 21
188.422072
 31
0.0
  0
LINE
  8
0
 10
282.723527
 20
187.873205
 30
0.0
 11
282.663645
 21
188.157697
 31
0.0
  0
LINE
  8
0
 10
282.750242
 20
188.31069
 30
0.0
 11
282.750242
 21
187.826713
 31
0.0
  0
LINE
  8
0
 10
283.291028
 20
183.81538
 30
0.0
 11
283.291028
 21
188.442101
 31
0.0
  0
LINE
  8
0
 10
283.291028
 20
183.81538
 30
0.0
 11
283.427226
 21
183.81538
 31
0.0
  0
LINE
  8
0
 10
280.806597
 20
182.911066
 30
0.0
 11
282.282385
 21
182.911066
 31
0.0
  0
LINE
  8
0
 10
280.09138
 20
183.031241
 30
0.0
 11
282.997602
 21
183.031241
 31
0.0
  0
ARC
  8
0
 10
282.498228
 20
238.089395
 30
0.0
 40
54.009412
 50
267.819698
 51
270.139166
  0
LINE
  8
0
 10
280.071351
 20
183.191474
 30
0.0
 11
283.017631
 21
183.191474
 31
0.0
  0
LINE
  8
0
 10
280.092887
 20
183.871065
 30
0.0
 11
280.418159
 21
184.111277
 31
0.0
  0
LINE
  8
0
 10
280.429454
 20
183.191474
 30
0.0
 11
280.429454
 21
184.093926
 31
0.0
  0
LINE
  8
OBJ
 10
280.806597
 20
182.954521
 30
0.0
 11
280.10845
 21
182.954521
 31
0.0
  0
LINE
  8
OBJ
 10
280.766614
 20
182.638054
 30
0.0
 11
280.633978
 21
182.638054
 31
0.0
  0
ARC
  8
OBJ
 10
280.720287
 20
182.729876
 30
0.0
 40
0.091822
 50
199.954678
 51
340.045322
  0
LINE
  8
0
 10
280.071351
 20
183.191474
 30
0.0
 11
280.071351
 21
183.825579
 31
0.0
  0
LINE
  8
OBJ
 10
280.281068
 20
182.638054
 30
0.0
 11
280.148432
 21
182.638054
 31
0.0
  0
ARC
  8
OBJ
 10
280.194759
 20
182.729876
 30
0.0
 40
0.091822
 50
199.954678
 51
340.045322
  0
LINE
  8
OBJ
  6
CENTER2
 10
280.136261
 20
183.031241
 30
0.0
 11
280.136261
 21
182.954521
 31
0.0
  0
LINE
  8
OBJ
 10
280.148432
 20
182.638054
 30
0.0
 11
280.120905
 21
182.675316
 31
0.0
  0
LINE
  8
OBJ
  6
CONTINUOUS
 10
280.10845
 20
182.954521
 30
0.0
 11
280.10845
 21
182.698539
 31
0.0
  0
ARC
  8
0
 10
280.09138
 20
183.05127
 30
0.0
 40
0.020029
 50
180.0
 51
270.0
  0
LINE
  8
0
 10
280.071351
 20
183.191474
 30
0.0
 11
280.071351
 21
183.05127
 31
0.0
  0
LINE
  8
OBJ
 10
280.535181
 20
183.031241
 30
0.0
 11
280.6119
 21
182.954521
 31
0.0
  0
LINE
  8
OBJ
 10
280.633978
 20
182.638054
 30
0.0
 11
280.281068
 21
182.638054
 31
0.0
  0
ARC
  8
OBJ
 10
280.457523
 20
182.925683
 30
0.0
 40
0.287629
 50
232.158498
 51
307.841502
  0
LINE
  8
OBJ
  6
CONTINUOUS
 10
280.281068
 20
182.954521
 30
0.0
 11
280.281068
 21
182.698539
 31
0.0
  0
LINE
  8
OBJ
  6
CONTINUOUS
 10
280.633978
 20
182.954521
 30
0.0
 11
280.633978
 21
182.698539
 31
0.0
  0
ARC
  8
0
 10
280.031293
 20
183.777366
 30
0.0
 40
0.040058
 50
0.0
 51
87.397018
  0
ARC
  8
0
 10
280.031293
 20
183.825579
 30
0.0
 40
0.040058
 50
0.0
 51
87.397018
  0
LINE
  8
OBJ
  6
CENTER2
 10
280.778786
 20
183.031241
 30
0.0
 11
280.778786
 21
182.954521
 31
0.0
  0
LINE
  8
OBJ
 10
280.766614
 20
182.638054
 30
0.0
 11
280.794142
 21
182.675316
 31
0.0
  0
LINE
  8
OBJ
  6
CONTINUOUS
 10
280.806597
 20
182.954521
 30
0.0
 11
280.806597
 21
182.698539
 31
0.0
  0
ARC
  8
0
 10
280.441956
 20
184.079053
 30
0.0
 40
0.040058
 50
87.819698
 51
126.445687
  0
LINE
  8
0
 10
282.750242
 20
183.94679
 30
0.0
 11
282.750242
 21
184.430767
 31
0.0
  0
LINE
  8
0
 10
282.659528
 20
183.191474
 30
0.0
 11
282.659528
 21
184.050098
 31
0.0
  0
LINE
  8
OBJ
 10
282.455004
 20
182.638054
 30
0.0
 11
282.807914
 21
182.638054
 31
0.0
  0
ARC
  8
OBJ
 10
282.631459
 20
182.925683
 30
0.0
 40
0.287629
 50
232.158498
 51
307.841502
  0
LINE
  8
OBJ
 10
282.282385
 20
182.954521
 30
0.0
 11
282.980532
 21
182.954521
 31
0.0
  0
LINE
  8
OBJ
 10
282.553801
 20
183.031241
 30
0.0
 11
282.477082
 21
182.954521
 31
0.0
  0
LINE
  8
OBJ
  6
CENTER2
 10
282.310196
 20
183.031241
 30
0.0
 11
282.310196
 21
182.954521
 31
0.0
  0
LINE
  8
OBJ
 10
282.322368
 20
182.638054
 30
0.0
 11
282.29484
 21
182.675316
 31
0.0
  0
ARC
  8
OBJ
 10
282.368695
 20
182.729876
 30
0.0
 40
0.091822
 50
199.954678
 51
340.045322
  0
LINE
  8
OBJ
  6
CONTINUOUS
 10
282.282385
 20
182.954521
 30
0.0
 11
282.282385
 21
182.698539
 31
0.0
  0
LINE
  8
OBJ
  6
CONTINUOUS
 10
282.455004
 20
182.954521
 30
0.0
 11
282.455004
 21
182.698539
 31
0.0
  0
LINE
  8
OBJ
 10
282.322368
 20
182.638054
 30
0.0
 11
282.455004
 21
182.638054
 31
0.0
  0
LINE
  8
0
 10
283.017631
 20
183.191474
 30
0.0
 11
283.017631
 21
183.772413
 31
0.0
  0
LINE
  8
OBJ
 10
282.94055
 20
182.638054
 30
0.0
 11
282.968077
 21
182.675316
 31
0.0
  0
ARC
  8
OBJ
 10
282.894223
 20
182.729876
 30
0.0
 40
0.091822
 50
199.954678
 51
340.045322
  0
LINE
  8
OBJ
  6
CENTER2
 10
282.952722
 20
183.031241
 30
0.0
 11
282.952722
 21
182.954521
 31
0.0
  0
LINE
  8
OBJ
  6
CONTINUOUS
 10
282.807914
 20
182.954521
 30
0.0
 11
282.807914
 21
182.698539
 31
0.0
  0
LINE
  8
OBJ
 10
282.807914
 20
182.638054
 30
0.0
 11
282.94055
 21
182.638054
 31
0.0
  0
LINE
  8
OBJ
  6
CONTINUOUS
 10
282.980532
 20
182.954521
 30
0.0
 11
282.980532
 21
182.698539
 31
0.0
  0
ARC
  8
0
 10
282.997602
 20
183.05127
 30
0.0
 40
0.020029
 50
270.0
 51
0.0
  0
LINE
  8
0
 10
283.017631
 20
183.191474
 30
0.0
 11
283.017631
 21
183.05127
 31
0.0
  0
ARC
  8
0
 10
282.498228
 20
238.089395
 30
0.0
 40
54.279805
 50
270.170263
 51
270.83688
  0
POLYLINE
  8
0
 66
     1
 10
0.0
 20
0.0
 30
0.0
  0
VERTEX
  8
0
 10
282.693469
 20
183.809932
 30
0.0
 42
0.196715
  0
VERTEX
  8
0
 10
282.712092
 20
183.817631
 30
0.0
 42
0.099108
  0
VERTEX
  8
0
 10
282.733816
 20
183.849885
 30
0.0
 42
0.056549
 70
     2
 50
67.358671
  0
VERTEX
  8
0
 10
282.745651
 20
183.890706
 30
0.0
 42
0.043217
 50
67.358671
  0
VERTEX
  8
0
 10
282.750246
 20
183.946054
 30
0.0
 42
0.000572
  0
VERTEX
  8
0
 10
282.750242
 20
183.94679
 30
0.0
 42
0.056549
  0
SEQEND
  8
0
  0
POLYLINE
  8
0
 66
     1
 10
0.0
 20
0.0
 30
0.0
  0
VERTEX
  8
0
 10
282.692771
 20
183.809939
 30
0.0
 42
0.006554
 50
293.048089
  0
VERTEX
  8
0
 10
282.693469
 20
183.809932
 30
0.0
 42
0.196715
  0
SEQEND
  8
0
  0
ARC
  8
0
 10
283.057689
 20
183.772413
 30
0.0
 40
0.040058
 50
90.590121
 51
180.0
  0
LINE
  8
0
 10
282.723527
 20
184.384276
 30
0.0
 11
282.663645
 21
184.099783
 31
0.0
  0
ARC
  8
0
 10
282.629485
 20
184.050098
 30
0.0
 40
0.030044
 50
0.0
 51
90.139166
  0
ARC
  8
0
 10
282.670126
 20
184.430767
 30
0.0
 40
0.080116
 50
0.0
 51
90.183549
  0
ARC
  8
0
 10
282.670126
 20
187.826713
 30
0.0
 40
0.080116
 50
269.816451
 51
0.0
  0
ARC
  8
0
 10
260.529614
 20
186.12874
 30
0.0
 40
23.141967
 50
355.64956
 51
4.35044
  0
ARC
  8
OBJ
 10
283.673845
 20
183.913242
 30
0.0
 40
0.069039
 50
289.954678
 51
70.045322
  0
LINE
  8
OBJ
 10
283.742884
 20
183.978136
 30
0.0
 11
283.742884
 21
183.87841
 31
0.0
  0
LINE
  8
0
 10
283.447255
 20
184.35236
 30
0.0
 11
283.447255
 21
183.869258
 31
0.0
  0
LINE
  8
OBJ
 10
283.504939
 20
184.37327
 30
0.0
 11
283.504939
 21
183.848348
 31
0.0
  0
LINE
  8
OBJ
  6
CONTINUOUS
 10
283.504939
 20
183.848348
 30
0.0
 11
283.697407
 21
183.848348
 31
0.0
  0
ARC
  8
0
 10
283.427226
 20
183.835409
 30
0.0
 40
0.020029
 50
270.0
 51
0.0
  0
LINE
  8
OBJ
  6
CENTER2
 10
283.447255
 20
183.869258
 30
0.0
 11
283.504939
 21
183.869258
 31
0.0
  0
LINE
  8
OBJ
 10
283.742884
 20
183.87841
 30
0.0
 11
283.714868
 21
183.857712
 31
0.0
  0
ARC
  8
OBJ
 10
283.673845
 20
184.308376
 30
0.0
 40
0.069039
 50
289.954678
 51
70.045322
  0
LINE
  8
OBJ
 10
283.742884
 20
184.343209
 30
0.0
 11
283.742884
 21
184.243482
 31
0.0
  0
LINE
  8
OBJ
  6
CONTINUOUS
 10
283.504939
 20
184.243482
 30
0.0
 11
283.697407
 21
184.243482
 31
0.0
  0
LINE
  8
OBJ
  6
CONTINUOUS
 10
283.504939
 20
183.978136
 30
0.0
 11
283.697407
 21
183.978136
 31
0.0
  0
LINE
  8
OBJ
 10
283.447255
 20
184.169198
 30
0.0
 11
283.504939
 21
184.226882
 31
0.0
  0
ARC
  8
OBJ
 10
283.526622
 20
184.110809
 30
0.0
 40
0.216263
 50
322.158498
 51
37.841502
  0
LINE
  8
OBJ
 10
283.742884
 20
184.243482
 30
0.0
 11
283.742884
 21
183.978136
 31
0.0
  0
LINE
  8
OBJ
  6
CONTINUOUS
 10
283.504939
 20
184.37327
 30
0.0
 11
283.697407
 21
184.37327
 31
0.0
  0
LINE
  8
OBJ
  6
CENTER2
 10
283.447255
 20
184.35236
 30
0.0
 11
283.504939
 21
184.35236
 31
0.0
  0
LINE
  8
OBJ
 10
283.742884
 20
184.343209
 30
0.0
 11
283.714868
 21
184.363906
 31
0.0
  0
LINE
  8
0
 10
283.779738
 20
186.788698
 30
0.0
 11
283.779738
 21
185.468783
 31
0.0
  0
LINE
  8
0
 10
284.016282
 20
186.462324
 30
0.0
 11
284.016282
 21
185.795157
 31
0.0
  0
ARC
  8
0
 10
283.749694
 20
185.468783
 30
0.0
 40
0.030044
 50
270.0
 51
0.0
  0
LINE
  8
0
 10
283.749694
 20
185.438739
 30
0.0
 11
283.661292
 21
185.438739
 31
0.0
  0
ARC
  8
0
 10
283.916136
 20
185.795157
 30
0.0
 40
0.100145
 50
270.0
 51
0.0
  0
LINE
  8
0
 10
283.916136
 20
185.695011
 30
0.0
 11
283.779738
 21
185.695011
 31
0.0
  0
LINE
  8
0
 10
283.779738
 20
186.246912
 30
0.0
 11
283.705146
 21
186.246912
 31
0.0
  0
LINE
  8
0
 10
283.779738
 20
186.010569
 30
0.0
 11
283.705146
 21
186.010569
 31
0.0
  0
ARC
  8
0
 10
283.705146
 20
186.216868
 30
0.0
 40
0.030044
 50
90.0
 51
180.0
  0
ARC
  8
0
 10
283.705146
 20
186.040613
 30
0.0
 40
0.030044
 50
180.0
 51
270.0
  0
LINE
  8
0
 10
283.675102
 20
186.216868
 30
0.0
 11
283.675102
 21
186.040613
 31
0.0
  0
ARC
  8
0
 10
283.916136
 20
186.462324
 30
0.0
 40
0.100145
 50
0.0
 51
90.0
  0
LINE
  8
0
 10
283.916136
 20
186.562469
 30
0.0
 11
283.779738
 21
186.562469
 31
0.0
  0
ARC
  8
0
 10
283.749694
 20
186.788698
 30
0.0
 40
0.030044
 50
0.0
 51
90.0
  0
LINE
  8
0
 10
283.749694
 20
186.818741
 30
0.0
 11
283.661292
 21
186.818741
 31
0.0
  0
LINE
  8
OBJ
  6
CONTINUOUS
 10
283.504939
 20
187.88421
 30
0.0
 11
283.697407
 21
187.88421
 31
0.0
  0
LINE
  8
OBJ
  6
CENTER2
 10
283.447255
 20
187.905121
 30
0.0
 11
283.504939
 21
187.905121
 31
0.0
  0
LINE
  8
OBJ
 10
283.742884
 20
187.914272
 30
0.0
 11
283.714868
 21
187.893575
 31
0.0
  0
LINE
  8
0
 10
283.291028
 20
188.442101
 30
0.0
 11
283.427226
 21
188.442101
 31
0.0
  0
LINE
  8
0
 10
281.150218
 20
191.095956
 30
0.0
 11
281.150218
 21
189.681902
 31
0.0
  0
LINE
  8
0
 10
281.938764
 20
191.095956
 30
0.0
 11
281.938764
 21
189.681902
 31
0.0
  0
LINE
  8
0
 10
281.426319
 20
191.136014
 30
0.0
 11
281.426319
 21
190.044428
 31
0.0
  0
LINE
  8
0
 10
281.662663
 20
191.136014
 30
0.0
 11
281.662663
 21
190.044428
 31
0.0
  0
ARC
  8
0
 10
281.544491
 20
190.044428
 30
0.0
 40
0.118172
 50
180.0
 51
0.0
  0
LINE
  8
0
 10
280.071351
 20
189.066007
 30
0.0
 11
283.017631
 21
189.066007
 31
0.0
  0
LINE
  8
0
 10
280.09138
 20
189.22624
 30
0.0
 11
282.997602
 21
189.22624
 31
0.0
  0
LINE
  8
0
 10
281.073807
 20
189.681902
 30
0.0
 11
282.015175
 21
189.681902
 31
0.0
  0
LINE
  8
0
 10
281.053778
 20
189.661872
 30
0.0
 11
282.035204
 21
189.661872
 31
0.0
  0
LINE
  8
0
 10
280.806597
 20
189.346414
 30
0.0
 11
282.282385
 21
189.346414
 31
0.0
  0
LINE
  8
0
 10
280.071351
 20
189.066007
 30
0.0
 11
283.017631
 21
189.066007
 31
0.0
  0
ARC
  8
0
 10
282.498228
 20
134.168085
 30
0.0
 40
54.009412
 50
89.860834
 51
92.180302
  0
LINE
  8
OBJ
  6
CENTER2
 10
280.136261
 20
189.22624
 30
0.0
 11
280.136261
 21
189.302959
 31
0.0
  0
LINE
  8
OBJ
 10
280.535181
 20
189.22624
 30
0.0
 11
280.6119
 21
189.302959
 31
0.0
  0
LINE
  8
OBJ
  6
CENTER2
 10
280.778786
 20
189.22624
 30
0.0
 11
280.778786
 21
189.302959
 31
0.0
  0
LINE
  8
0
 10
280.071351
 20
189.066007
 30
0.0
 11
280.071351
 21
188.431902
 31
0.0
  0
LINE
  8
0
 10
280.429454
 20
189.066007
 30
0.0
 11
280.429454
 21
188.163554
 31
0.0
  0
LINE
  8
0
 10
280.092887
 20
188.386415
 30
0.0
 11
280.418159
 21
188.146204
 31
0.0
  0
ARC
  8
0
 10
280.031293
 20
188.480115
 30
0.0
 40
0.040058
 50
272.602982
 51
0.0
  0
ARC
  8
0
 10
280.031293
 20
188.431902
 30
0.0
 40
0.040058
 50
272.602982
 51
0.0
  0
ARC
  8
0
 10
280.441956
 20
188.178427
 30
0.0
 40
0.040058
 50
233.554313
 51
272.180302
  0
LINE
  8
0
 10
280.071351
 20
189.066007
 30
0.0
 11
280.071351
 21
189.206211
 31
0.0
  0
ARC
  8
0
 10
280.09138
 20
189.206211
 30
0.0
 40
0.020029
 50
90.0
 51
180.0
  0
ARC
  8
OBJ
 10
280.720287
 20
189.527605
 30
0.0
 40
0.091822
 50
19.954678
 51
160.045322
  0
LINE
  8
OBJ
 10
280.766614
 20
189.619427
 30
0.0
 11
280.633978
 21
189.619427
 31
0.0
  0
LINE
  8
OBJ
 10
280.806597
 20
189.302959
 30
0.0
 11
280.10845
 21
189.302959
 31
0.0
  0
ARC
  8
OBJ
 10
280.194759
 20
189.527605
 30
0.0
 40
0.091822
 50
19.954678
 51
160.045322
  0
LINE
  8
OBJ
 10
280.281068
 20
189.619427
 30
0.0
 11
280.148432
 21
189.619427
 31
0.0
  0
LINE
  8
OBJ
 10
280.148432
 20
189.619427
 30
0.0
 11
280.120905
 21
189.582165
 31
0.0
  0
LINE
  8
OBJ
  6
CONTINUOUS
 10
280.10845
 20
189.302959
 30
0.0
 11
280.10845
 21
189.558941
 31
0.0
  0
ARC
  8
OBJ
 10
280.457523
 20
189.331797
 30
0.0
 40
0.287629
 50
52.158498
 51
127.841502
  0
LINE
  8
OBJ
  6
CONTINUOUS
 10
280.281068
 20
189.302959
 30
0.0
 11
280.281068
 21
189.558941
 31
0.0
  0
LINE
  8
OBJ
  6
CONTINUOUS
 10
280.633978
 20
189.302959
 30
0.0
 11
280.633978
 21
189.558941
 31
0.0
  0
LINE
  8
OBJ
 10
280.633978
 20
189.619427
 30
0.0
 11
280.281068
 21
189.619427
 31
0.0
  0
LINE
  8
OBJ
 10
280.766614
 20
189.619427
 30
0.0
 11
280.794142
 21
189.582165
 31
0.0
  0
LINE
  8
0
 10
281.053778
 20
189.661872
 30
0.0
 11
281.053778
 21
189.346414
 31
0.0
  0
LINE
  8
OBJ
  6
CONTINUOUS
 10
280.806597
 20
189.302959
 30
0.0
 11
280.806597
 21
189.558941
 31
0.0
  0
LINE
  8
0
 10
281.053778
 20
189.661872
 30
0.0
 11
281.073807
 21
189.681902
 31
0.0
  0
LINE
  8
OBJ
  6
CENTER2
 10
282.310196
 20
189.22624
 30
0.0
 11
282.310196
 21
189.302959
 31
0.0
  0
LINE
  8
OBJ
 10
282.553801
 20
189.22624
 30
0.0
 11
282.477082
 21
189.302959
 31
0.0
  0
LINE
  8
OBJ
  6
CENTER2
 10
282.952722
 20
189.22624
 30
0.0
 11
282.952722
 21
189.302959
 31
0.0
  0
LINE
  8
0
 10
283.017631
 20
189.066007
 30
0.0
 11
283.017631
 21
188.485068
 31
0.0
  0
LINE
  8
0
 10
282.659528
 20
189.066007
 30
0.0
 11
282.659528
 21
188.207382
 31
0.0
  0
ARC
  8
0
 10
282.498228
 20
134.168085
 30
0.0
 40
54.279805
 50
89.16312
 51
89.829737
  0
ARC
  8
0
 10
282.629485
 20
188.207382
 30
0.0
 40
0.030044
 50
269.860834
 51
0.0
  0
POLYLINE
  8
0
 66
     1
 10
0.0
 20
0.0
 30
0.0
  0
VERTEX
  8
0
 10
282.693469
 20
188.447549
 30
0.0
 42
-0.196715
  0
VERTEX
  8
0
 10
282.712092
 20
188.439849
 30
0.0
 42
-0.099108
  0
VERTEX
  8
0
 10
282.733816
 20
188.407595
 30
0.0
 42
-0.056549
 70
     2
 50
292.641329
  0
VERTEX
  8
0
 10
282.745651
 20
188.366775
 30
0.0
 42
-0.043217
  0
VERTEX
  8
0
 10
282.750246
 20
188.311427
 30
0.0
 42
-0.000572
  0
VERTEX
  8
0
 10
282.750242
 20
188.31069
 30
0.0
 42
-0.056549
  0
SEQEND
  8
0
  0
POLYLINE
  8
0
 66
     1
 10
0.0
 20
0.0
 30
0.0
  0
VERTEX
  8
0
 10
282.692771
 20
188.447542
 30
0.0
 42
-0.006554
  0
VERTEX
  8
0
 10
282.693469
 20
188.447549
 30
0.0
 42
-0.196715
  0
SEQEND
  8
0
  0
ARC
  8
0
 10
283.057689
 20
188.485068
 30
0.0
 40
0.040058
 50
180.0
 51
269.409879
  0
ARC
  8
0
 10
283.057689
 20
188.485068
 30
0.0
 40
0.040058
 50
180.0
 51
269.409879
  0
LINE
  8
0
 10
283.017631
 20
189.066007
 30
0.0
 11
283.017631
 21
189.206211
 31
0.0
  0
ARC
  8
0
 10
282.997602
 20
189.206211
 30
0.0
 40
0.020029
 50
0.0
 51
90.0
  0
LINE
  8
OBJ
 10
282.455004
 20
189.619427
 30
0.0
 11
282.807914
 21
189.619427
 31
0.0
  0
ARC
  8
OBJ
 10
282.631459
 20
189.331797
 30
0.0
 40
0.287629
 50
52.158498
 51
127.841502
  0
LINE
  8
OBJ
 10
282.282385
 20
189.302959
 30
0.0
 11
282.980532
 21
189.302959
 31
0.0
  0
LINE
  8
0
 10
282.035204
 20
189.661872
 30
0.0
 11
282.035204
 21
189.346414
 31
0.0
  0
LINE
  8
0
 10
282.015175
 20
189.681902
 30
0.0
 11
282.035204
 21
189.661872
 31
0.0
  0
LINE
  8
OBJ
 10
282.322368
 20
189.619427
 30
0.0
 11
282.29484
 21
189.582165
 31
0.0
  0
ARC
  8
OBJ
 10
282.368695
 20
189.527605
 30
0.0
 40
0.091822
 50
19.954678
 51
160.045322
  0
LINE
  8
OBJ
  6
CONTINUOUS
 10
282.282385
 20
189.302959
 30
0.0
 11
282.282385
 21
189.558941
 31
0.0
  0
LINE
  8
OBJ
  6
CONTINUOUS
 10
282.455004
 20
189.302959
 30
0.0
 11
282.455004
 21
189.558941
 31
0.0
  0
LINE
  8
OBJ
 10
282.322368
 20
189.619427
 30
0.0
 11
282.455004
 21
189.619427
 31
0.0
  0
LINE
  8
OBJ
 10
282.94055
 20
189.619427
 30
0.0
 11
282.968077
 21
189.582165
 31
0.0
  0
ARC
  8
OBJ
 10
282.894223
 20
189.527605
 30
0.0
 40
0.091822
 50
19.954678
 51
160.045322
  0
LINE
  8
OBJ
  6
CONTINUOUS
 10
282.807914
 20
189.302959
 30
0.0
 11
282.807914
 21
189.558941
 31
0.0
  0
LINE
  8
OBJ
 10
282.807914
 20
189.619427
 30
0.0
 11
282.94055
 21
189.619427
 31
0.0
  0
LINE
  8
OBJ
  6
CONTINUOUS
 10
282.980532
 20
189.302959
 30
0.0
 11
282.980532
 21
189.558941
 31
0.0
  0
LINE
  8
0
 10
281.190277
 20
191.136014
 30
0.0
 11
281.898706
 21
191.136014
 31
0.0
  0
LINE
  8
0
 10
281.150218
 20
191.095956
 30
0.0
 11
281.426319
 21
191.095956
 31
0.0
  0
LINE
  8
0
 10
281.150218
 20
191.095956
 30
0.0
 11
281.190277
 21
191.136014
 31
0.0
  0
LINE
  8
0
 10
281.662663
 20
191.095956
 30
0.0
 11
281.938764
 21
191.095956
 31
0.0
  0
LINE
  8
0
 10
281.898706
 20
191.136014
 30
0.0
 11
281.938764
 21
191.095956
 31
0.0
  0
LINE
  8
OBJ
 10
283.742884
 20
188.013999
 30
0.0
 11
283.742884
 21
188.279344
 31
0.0
  0
ARC
  8
OBJ
 10
283.526622
 20
188.146671
 30
0.0
 40
0.216263
 50
322.158498
 51
37.841502
  0
LINE
  8
OBJ
  6
CONTINUOUS
 10
283.504939
 20
188.013999
 30
0.0
 11
283.697407
 21
188.013999
 31
0.0
  0
LINE
  8
OBJ
 10
283.447255
 20
188.088282
 30
0.0
 11
283.504939
 21
188.030599
 31
0.0
  0
LINE
  8
OBJ
  6
CONTINUOUS
 10
283.504939
 20
188.279344
 30
0.0
 11
283.697407
 21
188.279344
 31
0.0
  0
LINE
  8
OBJ
  6
CONTINUOUS
 10
283.504939
 20
188.409133
 30
0.0
 11
283.697407
 21
188.409133
 31
0.0
  0
LINE
  8
OBJ
  6
CENTER2
 10
283.447255
 20
188.388222
 30
0.0
 11
283.504939
 21
188.388222
 31
0.0
  0
ARC
  8
0
 10
283.427226
 20
188.422072
 30
0.0
 40
0.020029
 50
0.0
 51
90.0
  0
LINE
  8
OBJ
 10
283.742884
 20
188.379071
 30
0.0
 11
283.714868
 21
188.399768
 31
0.0
  0
LINE
  8
OBJ
 10
283.742884
 20
188.279344
 30
0.0
 11
283.742884
 21
188.379071
 31
0.0
  0
ARC
  8
OBJ
 10
283.673845
 20
188.344238
 30
0.0
 40
0.069039
 50
289.954678
 51
70.045322
  0
TEXT
  8
0
 10
268.616801
 20
180.828256
 30
0.0
 40
1.0
  1
5CP2120W
  7
ROMAND
  0
ENDSEC
  0
EOF
