  0
SECTION
  2
HEADER
  9
$ACADVER
  1
AC1009
  9
$INSBASE
 10
0.0
 20
0.0
 30
0.0
  9
$EXTMIN
 10
-0.229255
 20
0.944993
 30
0.0
  9
$EXTMAX
 10
97.430524
 20
65.188759
 30
0.0
  9
$LIMMIN
 10
0.0
 20
0.0
  9
$LIMMAX
 10
36.0
 20
27.0
  9
$ORTHOMODE
 70
     1
  9
$REGENMODE
 70
     1
  9
$FILLMODE
 70
     1
  9
$QTEXTMODE
 70
     0
  9
$MIRRTEXT
 70
     1
  9
$DRAGMODE
 70
     2
  9
$LTSCALE
 40
1.0
  9
$OSMODE
 70
     0
  9
$ATTMODE
 70
     1
  9
$TEXTSIZE
 40
0.1
  9
$TRACEWID
 40
0.05
  9
$TEXTSTYLE
  7
STANDARD
  9
$CLAYER
  8
0
  9
$CELTYPE
  6
BYLAYER
  9
$CECOLOR
 62
   256
  9
$DIMSCALE
 40
1.0
  9
$DIMASZ
 40
0.18
  9
$DIMEXO
 40
0.0625
  9
$DIMDLI
 40
0.38
  9
$DIMRND
 40
0.0
  9
$DIMDLE
 40
0.0
  9
$DIMEXE
 40
0.18
  9
$DIMTP
 40
0.0
  9
$DIMTM
 40
0.0
  9
$DIMTXT
 40
0.18
  9
$DIMCEN
 40
0.09
  9
$DIMTSZ
 40
0.0
  9
$DIMTOL
 70
     0
  9
$DIMLIM
 70
     0
  9
$DIMTIH
 70
     1
  9
$DIMTOH
 70
     1
  9
$DIMSE1
 70
     0
  9
$DIMSE2
 70
     0
  9
$DIMTAD
 70
     0
  9
$DIMZIN
 70
     0
  9
$DIMBLK
  1

  9
$DIMASO
 70
     1
  9
$DIMSHO
 70
     1
  9
$DIMPOST
  1

  9
$DIMAPOST
  1

  9
$DIMALT
 70
     0
  9
$DIMALTD
 70
     2
  9
$DIMALTF
 40
25.4
  9
$DIMLFAC
 40
1.0
  9
$DIMTOFL
 70
     0
  9
$DIMTVP
 40
0.0
  9
$DIMTIX
 70
     0
  9
$DIMSOXD
 70
     0
  9
$DIMSAH
 70
     0
  9
$DIMBLK1
  1

  9
$DIMBLK2
  1

  9
$DIMSTYLE
  2
*UNNAMED
  9
$DIMCLRD
 70
     0
  9
$DIMCLRE
 70
     0
  9
$DIMCLRT
 70
     0
  9
$DIMTFAC
 40
1.0
  9
$DIMGAP
 40
0.09
  9
$LUNITS
 70
     2
  9
$LUPREC
 70
     4
  9
$SKETCHINC
 40
0.1
  9
$FILLETRAD
 40
0.03
  9
$AUNITS
 70
     0
  9
$AUPREC
 70
     0
  9
$MENU
  1
acad
  9
$ELEVATION
 40
0.0
  9
$PELEVATION
 40
0.0
  9
$THICKNESS
 40
0.0
  9
$LIMCHECK
 70
     0
  9
$BLIPMODE
 70
     1
  9
$CHAMFERA
 40
0.0
  9
$CHAMFERB
 40
0.0
  9
$SKPOLY
 70
     0
  9
$TDCREATE
 40
2451439.424294907
  9
$TDUPDATE
 40
2451439.424294907
  9
$TDINDWG
 40
0.0000000000
  9
$TDUSRTIMER
 40
0.0000000000
  9
$USRTIMER
 70
     1
  9
$ANGBASE
 50
0.0
  9
$ANGDIR
 70
     0
  9
$PDMODE
 70
     0
  9
$PDSIZE
 40
0.0
  9
$PLINEWID
 40
0.0
  9
$COORDS
 70
     1
  9
$SPLFRAME
 70
     0
  9
$SPLINETYPE
 70
     6
  9
$SPLINESEGS
 70
     8
  9
$ATTDIA
 70
     0
  9
$ATTREQ
 70
     1
  9
$HANDLING
 70
     1
  9
$HANDSEED
  5
1326
  9
$SURFTAB1
 70
     6
  9
$SURFTAB2
 70
     6
  9
$SURFTYPE
 70
     6
  9
$SURFU
 70
     6
  9
$SURFV
 70
     6
  9
$UCSNAME
  2

  9
$UCSORG
 10
0.0
 20
0.0
 30
0.0
  9
$UCSXDIR
 10
1.0
 20
0.0
 30
0.0
  9
$UCSYDIR
 10
0.0
 20
1.0
 30
0.0
  9
$PUCSNAME
  2

  9
$PUCSORG
 10
0.0
 20
0.0
 30
0.0
  9
$PUCSXDIR
 10
1.0
 20
0.0
 30
0.0
  9
$PUCSYDIR
 10
0.0
 20
1.0
 30
0.0
  9
$USERI1
 70
     0
  9
$USERI2
 70
     0
  9
$USERI3
 70
     0
  9
$USERI4
 70
     0
  9
$USERI5
 70
     0
  9
$USERR1
 40
0.0
  9
$USERR2
 40
0.0
  9
$USERR3
 40
0.0
  9
$USERR4
 40
0.0
  9
$USERR5
 40
0.0
  9
$WORLDVIEW
 70
     1
  9
$SHADEDGE
 70
     3
  9
$SHADEDIF
 70
    70
  9
$TILEMODE
 70
     1
  9
$MAXACTVP
 70
    16
  9
$PINSBASE
 10
0.0
 20
0.0
 30
1.076194E+26
  9
$PLIMCHECK
 70
     0
  9
$PEXTMIN
 10
1.000000E+20
 20
1.000000E+20
 30
1.000000E+20
  9
$PEXTMAX
 10
-1.000000E+20
 20
-1.000000E+20
 30
-1.000000E+20
  9
$PLIMMIN
 10
0.0
 20
0.0
  9
$PLIMMAX
 10
12.0
 20
9.0
  9
$UNITMODE
 70
     0
  9
$VISRETAIN
 70
     0
  9
$PLINEGEN
 70
     0
  9
$PSLTSCALE
 70
     1
  9
$TREEDEPTH
 70
  3020
  9
$DWGCODEPAGE
  3
iso8859-1
  0
ENDSEC
  0
SECTION
  2
TABLES
  0
TABLE
  2
VPORT
 70
     1
  0
VPORT
  2
*ACTIVE
 70
     0
 10
0.0
 20
0.0
 11
1.0
 21
1.0
 12
35.000764
 22
25.234176
 13
0.0
 23
0.0
 14
1.0
 24
1.0
 15
0.0
 25
0.0
 16
0.0
 26
0.0
 36
1.0
 17
0.0
 27
0.0
 37
0.0
 40
50.276222
 41
1.379728
 42
50.0
 43
0.0
 44
0.0
 50
0.0
 51
0.0
 71
     0
 72
   100
 73
     1
 74
     0
 75
     0
 76
     0
 77
     0
 78
     0
  0
ENDTAB
  0
TABLE
  2
LTYPE
 70
     5
  0
LTYPE
  2
CONTINUOUS
 70
    64
  3
Solid line
 72
    65
 73
     0
 40
0.0
  0
LTYPE
  2
CENTER
 70
    64
  3
CENTER_._._._
 72
    65
 73
     4
 40
0.6
 49
0.4
 49
-0.1
 49
0.0
 49
-0.1
  0
LTYPE
  2
CENTERX2
 70
    64
  3
________  __  ________  __  ________  __  _____
 72
    65
 73
     4
 40
4.0
 49
2.5
 49
-0.5
 49
0.5
 49
-0.5
  0
LTYPE
  2
DASHED
 70
    64
  3
DASHED_ _ _ _ _ _ _ _
 72
    65
 73
     2
 40
0.5
 49
0.4
 49
-0.1
  0
LTYPE
  2
DASHED2
 70
    64
  3
_ _ _ _ _ _ _ _ _ _ _ _ _ _ _ _ _ _ _ _ _ _ _ _
 72
    65
 73
     2
 40
0.375
 49
0.25
 49
-0.125
  0
ENDTAB
  0
TABLE
  2
LAYER
 70
     2
  0
LAYER
  2
0
 70
    64
 62
     7
  6
CONTINUOUS
  0
LAYER
  2
OBJ
 70
    64
 62
     7
  6
CONTINUOUS
  0
ENDTAB
  0
TABLE
  2
STYLE
 70
     2
  0
STYLE
  2
STANDARD
 70
     0
 40
0.0
 41
1.0
 50
0.0
 71
     0
 42
0.2
  3
txt
  4

  0
STYLE
  2
ROMAND
 70
    64
 40
0.0
 41
1.0
 50
0.0
 71
     0
 42
0.225
  3
romand
  4

  0
ENDTAB
  0
TABLE
  2
VIEW
 70
     0
  0
ENDTAB
  0
TABLE
  2
UCS
 70
     0
  0
ENDTAB
  0
TABLE
  2
APPID
 70
     1
  0
APPID
  2
ACAD
 70
    64
  0
ENDTAB
  0
TABLE
  2
DIMSTYLE
 70
     0
  0
ENDTAB
  0
ENDSEC
  0
SECTION
  2
BLOCKS
  0
BLOCK
  8
0
  5
E2F
  2
BLTHD
 70
    64
 10
0.0
 20
0.0
 30
0.0
  3
BLTHD
  0
LINE
  8
OBJ
  6
CONTINUOUS
  5
E30
 10
-0.406
 20
0.085
 30
0.0
 11
-0.406
 21
0.0
 31
0.0
  0
LINE
  8
OBJ
  6
CONTINUOUS
  5
E31
 10
0.406
 20
0.085
 30
0.0
 11
0.406
 21
0.0
 31
0.0
  0
LINE
  8
OBJ
  5
E32
 10
-0.406
 20
0.0
 30
0.0
 11
0.406
 21
0.0
 31
0.0
  0
LINE
  8
OBJ
  5
E33
 10
-0.406
 20
0.085
 30
0.0
 11
0.406
 21
0.085
 31
0.0
  0
LINE
  8
OBJ
  5
E34
 10
-0.342
 20
0.179
 30
0.0
 11
0.342
 21
0.179
 31
0.0
  0
LINE
  8
OBJ
  5
E35
 10
0.325
 20
0.399
 30
0.0
 11
0.294776
 21
0.429
 31
0.0
  0
ARC
  8
OBJ
  5
E36
 10
0.24375
 20
0.303974
 30
0.0
 40
0.125026
 50
49.468605
 51
130.531395
  0
LINE
  8
OBJ
  6
CONTINUOUS
  5
E37
 10
-0.342
 20
0.179
 30
0.0
 11
-0.342
 21
0.085
 31
0.0
  0
LINE
  8
OBJ
  5
E38
 10
-0.112665
 20
0.179
 30
0.0
 11
-0.112665
 21
0.085
 31
0.0
  0
LINE
  8
OBJ
  5
E39
 10
0.1625
 20
0.429
 30
0.0
 11
0.294776
 21
0.429
 31
0.0
  0
LINE
  8
OBJ
  6
CONTINUOUS
  5
E3A
 10
0.1625
 20
0.399
 30
0.0
 11
0.1625
 21
0.179
 31
0.0
  0
LINE
  8
OBJ
  6
CONTINUOUS
  5
E3B
 10
-0.1625
 20
0.399
 30
0.0
 11
-0.1625
 21
0.179
 31
0.0
  0
LINE
  8
OBJ
  6
CONTINUOUS
  5
E3C
 10
-0.325
 20
0.399
 30
0.0
 11
-0.325
 21
0.179
 31
0.0
  0
LINE
  8
OBJ
  5
E3D
 10
-0.294776
 20
0.429
 30
0.0
 11
-0.1625
 21
0.429
 31
0.0
  0
LINE
  8
OBJ
  5
E3E
 10
-0.325
 20
0.399
 30
0.0
 11
-0.294776
 21
0.429
 31
0.0
  0
ARC
  8
OBJ
  5
E3F
 10
0.0
 20
-0.026104
 30
0.0
 40
0.455104
 50
69.080182
 51
110.919818
  0
ARC
  8
OBJ
  5
E40
 10
-0.24375
 20
0.303974
 30
0.0
 40
0.125026
 50
49.468605
 51
130.531395
  0
LINE
  8
OBJ
  5
E41
 10
-0.1625
 20
0.429
 30
0.0
 11
0.1625
 21
0.429
 31
0.0
  0
LINE
  8
OBJ
  6
CONTINUOUS
  5
E42
 10
0.342
 20
0.179
 30
0.0
 11
0.342
 21
0.085
 31
0.0
  0
LINE
  8
OBJ
  6
CONTINUOUS
  5
E43
 10
0.325
 20
0.399
 30
0.0
 11
0.325
 21
0.179
 31
0.0
  0
ENDBLK
  8
0
  5
E44
  0
BLOCK
  8
0
  5
B1A
  2
WBBLTTP
 70
    64
 10
0.0
 20
0.0
 30
0.0
  3
WBBLTTP
  0
CIRCLE
  8
OBJ
 62
     7
  5
B1B
 10
0.0
 20
0.0
 30
0.0
 40
0.265973
  0
POLYLINE
  8
OBJ
 62
     7
  5
B1C
 66
     1
 10
0.0
 20
0.0
 30
0.0
 70
     1
  0
VERTEX
  8
OBJ
 62
     7
  5
B1D
 10
-0.1625
 20
0.281458
 30
0.0
  0
VERTEX
  8
OBJ
 62
     7
  5
B1E
 10
-0.325
 20
0.0
 30
0.0
  0
VERTEX
  8
OBJ
 62
     7
  5
B1F
 10
-0.1625
 20
-0.281458
 30
0.0
  0
VERTEX
  8
OBJ
 62
     7
  5
B20
 10
0.1625
 20
-0.281458
 30
0.0
  0
VERTEX
  8
OBJ
 62
     7
  5
B21
 10
0.325
 20
0.0
 30
0.0
  0
VERTEX
  8
OBJ
 62
     7
  5
B22
 10
0.1625
 20
0.281458
 30
0.0
  0
SEQEND
  8
OBJ
 62
     7
  5
B23
  0
CIRCLE
  8
OBJ
 62
     7
  5
B24
 10
0.0
 20
0.0
 30
0.0
 40
0.342
  0
CIRCLE
  8
OBJ
 62
     7
  5
B25
 10
0.0
 20
0.0
 30
0.0
 40
0.406
  0
LINE
  8
OBJ
  5
B26
 10
0.0
 20
-0.12
 30
0.0
 11
0.0
 21
0.12
 31
0.0
  0
LINE
  8
OBJ
  5
B27
 10
-0.12
 20
0.0
 30
0.0
 11
0.12
 21
0.0
 31
0.0
  0
ENDBLK
  8
0
  5
B28
  0
ENDSEC
  0
SECTION
  2
ENTITIES
  0
CIRCLE
  8
0
  5
EA1
 10
47.822869
 20
36.08895
 30
0.0
 40
0.315
  0
CIRCLE
  8
0
  5
EA2
 10
47.822869
 20
32.15095
 30
0.0
 40
0.315
  0
POLYLINE
  8
0
  5
EA3
 66
     1
 10
0.0
 20
0.0
 30
0.0
 70
     1
  0
VERTEX
  8
0
  5
EA4
 10
47.200744
 20
29.398806
 30
0.0
  0
VERTEX
  8
0
  5
EA5
 10
46.971619
 20
29.00195
 30
0.0
  0
VERTEX
  8
0
  5
EA6
 10
47.200744
 20
28.605094
 30
0.0
  0
VERTEX
  8
0
  5
EA7
 10
47.658994
 20
28.605094
 30
0.0
  0
VERTEX
  8
0
  5
EA8
 10
47.888119
 20
29.00195
 30
0.0
  0
VERTEX
  8
0
  5
EA9
 10
47.658994
 20
29.398806
 30
0.0
  0
SEQEND
  8
0
  5
EAA
  0
CIRCLE
  8
0
  5
EAB
 10
47.429869
 20
29.00195
 30
0.0
 40
0.511454
  0
POLYLINE
  8
0
  5
EAC
 66
     1
 10
0.0
 20
0.0
 30
0.0
 70
     1
  0
VERTEX
  8
0
  5
EAD
 10
47.593744
 20
32.547806
 30
0.0
  0
VERTEX
  8
0
  5
EAE
 10
47.364619
 20
32.15095
 30
0.0
  0
VERTEX
  8
0
  5
EAF
 10
47.593744
 20
31.754094
 30
0.0
  0
VERTEX
  8
0
  5
EB0
 10
48.051994
 20
31.754094
 30
0.0
  0
VERTEX
  8
0
  5
EB1
 10
48.281119
 20
32.15095
 30
0.0
  0
VERTEX
  8
0
  5
EB2
 10
48.051994
 20
32.547806
 30
0.0
  0
SEQEND
  8
0
  5
EB3
  0
CIRCLE
  8
0
  5
EB4
 10
47.822869
 20
32.15095
 30
0.0
 40
0.511454
  0
POLYLINE
  8
0
  5
EB5
 66
     1
 10
0.0
 20
0.0
 30
0.0
 70
     1
  0
VERTEX
  8
0
  5
EB6
 10
47.593744
 20
36.485806
 30
0.0
  0
VERTEX
  8
0
  5
EB7
 10
47.364619
 20
36.08895
 30
0.0
  0
VERTEX
  8
0
  5
EB8
 10
47.593744
 20
35.692094
 30
0.0
  0
VERTEX
  8
0
  5
EB9
 10
48.051994
 20
35.692094
 30
0.0
  0
VERTEX
  8
0
  5
EBA
 10
48.281119
 20
36.08895
 30
0.0
  0
VERTEX
  8
0
  5
EBB
 10
48.051994
 20
36.485806
 30
0.0
  0
SEQEND
  8
0
  5
EBC
  0
CIRCLE
  8
0
  5
EBD
 10
47.822869
 20
36.08895
 30
0.0
 40
0.511454
  0
CIRCLE
  8
0
  5
EBE
 10
47.429869
 20
39.23795
 30
0.0
 40
0.511454
  0
POLYLINE
  8
0
  5
EBF
 66
     1
 10
0.0
 20
0.0
 30
0.0
 70
     1
  0
VERTEX
  8
0
  5
EC0
 10
47.200744
 20
39.634806
 30
0.0
  0
VERTEX
  8
0
  5
EC1
 10
46.971619
 20
39.23795
 30
0.0
  0
VERTEX
  8
0
  5
EC2
 10
47.200744
 20
38.841094
 30
0.0
  0
VERTEX
  8
0
  5
EC3
 10
47.658994
 20
38.841094
 30
0.0
  0
VERTEX
  8
0
  5
EC4
 10
47.888119
 20
39.23795
 30
0.0
  0
VERTEX
  8
0
  5
EC5
 10
47.658994
 20
39.634806
 30
0.0
  0
SEQEND
  8
0
  5
EC6
  0
TEXT
  8
0
  5
EC7
 10
41.107991
 20
9.098682
 30
0.0
 40
1.5
  1
MODEL 6020
  7
ROMAND
  0
LINE
  8
OBJ
  5
EC8
 10
47.66028
 20
37.391732
 30
0.0
 11
48.252551
 21
38.937255
 31
0.0
  0
CIRCLE
  8
OBJ
  5
EC9
 10
47.822869
 20
36.08895
 30
0.0
 40
0.355
  0
ARC
  8
OBJ
  5
ECA
 10
47.822869
 20
36.08895
 30
0.0
 40
0.625
 50
273.091008
 51
90.67075
  0
CIRCLE
  8
OBJ
  5
ECB
 10
47.822869
 20
32.15095
 30
0.0
 40
0.355
  0
ARC
  8
OBJ
  5
ECC
 10
47.822869
 20
32.15095
 30
0.0
 40
0.625
 50
269.32925
 51
86.908992
  0
ARC
  8
OBJ
  5
ECD
 10
47.514863
 20
29.01995
 30
0.0
 40
0.79
 50
270.0
 51
20.967695
  0
LINE
  8
OBJ
  5
ECE
 10
47.66028
 20
30.848167
 30
0.0
 11
48.252551
 21
29.302644
 31
0.0
  0
ARC
  8
OBJ
  5
ECF
 10
47.429869
 20
29.00195
 30
0.0
 40
0.625
 50
217.44175
 51
76.443112
  0
ARC
  8
OBJ
  5
ED0
 10
47.514863
 20
39.21995
 30
0.0
 40
0.79
 50
339.032305
 51
90.0
  0
ARC
  8
OBJ
  5
ED1
 10
47.429869
 20
39.23795
 30
0.0
 40
0.625
 50
283.556888
 51
142.55825
  0
LINE
  8
OBJ
  5
ED2
 10
48.18451
 20
41.986559
 30
0.0
 11
47.85951
 21
41.986559
 31
0.0
  0
ARC
  8
OBJ
  5
ED3
 10
48.02201
 20
41.531454
 30
0.0
 40
0.455104
 50
69.080182
 51
110.919818
  0
LINE
  8
OBJ
  5
ED4
 10
48.36401
 20
41.736559
 30
0.0
 11
47.68001
 21
41.736559
 31
0.0
  0
LINE
  8
OBJ
  5
ED5
 10
48.42801
 20
41.642559
 30
0.0
 11
47.61601
 21
41.642559
 31
0.0
  0
LINE
  8
OBJ
  5
ED6
 10
48.42801
 20
41.557559
 30
0.0
 11
47.61601
 21
41.557559
 31
0.0
  0
LINE
  8
OBJ
  5
ED7
 10
48.585637
 20
41.557559
 30
0.0
 11
43.241728
 21
41.557559
 31
0.0
  0
LINE
  8
OBJ
  5
ED8
 10
42.336101
 20
41.402545
 30
0.0
 11
48.585637
 21
41.402545
 31
0.0
  0
LINE
  8
OBJ
  5
ED9
 10
49.730869
 20
41.402545
 30
0.0
 11
41.190869
 21
41.402545
 31
0.0
  0
LINE
  8
OBJ
  5
EDA
 10
49.730869
 20
39.986563
 30
0.0
 11
47.705662
 21
39.986563
 31
0.0
  0
INSERT
  8
OBJ
  5
EDB
  2
BLTHD
 10
48.065869
 20
26.836545
 30
0.0
 41
-1.0
 50
180.0
  0
LINE
  8
OBJ
  5
EDC
 10
49.730869
 20
28.252527
 30
0.0
 11
47.702377
 21
28.252527
 31
0.0
  0
LINE
  8
OBJ
  5
EDD
 10
49.730869
 20
26.836545
 30
0.0
 11
41.190869
 21
26.836545
 31
0.0
  0
LINE
  8
0
  6
CENTERX2
  5
EDE
 10
38.08673
 20
34.11995
 30
0.0
 11
52.86651
 21
34.11995
 31
0.0
  0
CIRCLE
  8
0
  5
EDF
 10
43.098869
 20
32.15095
 30
0.0
 40
0.315
  0
POLYLINE
  8
0
  5
EE0
 66
     1
 10
0.0
 20
0.0
 30
0.0
 70
     1
  0
VERTEX
  8
0
  5
EE1
 10
42.869744
 20
32.547806
 30
0.0
  0
VERTEX
  8
0
  5
EE2
 10
42.640619
 20
32.15095
 30
0.0
  0
VERTEX
  8
0
  5
EE3
 10
42.869744
 20
31.754094
 30
0.0
  0
VERTEX
  8
0
  5
EE4
 10
43.327994
 20
31.754094
 30
0.0
  0
VERTEX
  8
0
  5
EE5
 10
43.557119
 20
32.15095
 30
0.0
  0
VERTEX
  8
0
  5
EE6
 10
43.327994
 20
32.547806
 30
0.0
  0
SEQEND
  8
0
  5
EE7
  0
CIRCLE
  8
0
  5
EE8
 10
43.098869
 20
32.15095
 30
0.0
 40
0.511454
  0
ARC
  8
OBJ
  5
EE9
 10
31.396723
 20
32.15235
 30
0.0
 40
0.641697
 50
339.080182
 51
20.919818
  0
LINE
  8
OBJ
  5
EEA
 10
32.03842
 20
31.923225
 30
0.0
 11
32.03842
 21
32.381475
 31
0.0
  0
LINE
  8
OBJ
  5
EEB
 10
32.220809
 20
31.83735
 30
0.0
 11
32.220809
 21
32.46735
 31
0.0
  0
LINE
  8
OBJ
  5
EEC
 10
31.68592
 20
31.67013
 30
0.0
 11
31.68592
 21
32.63457
 31
0.0
  0
LINE
  8
OBJ
  5
EED
 10
31.55338
 20
31.67013
 30
0.0
 11
31.55338
 21
32.63457
 31
0.0
  0
LINE
  8
OBJ
  5
EEE
 10
32.73438
 20
34.11995
 30
0.0
 11
32.73438
 21
32.03395
 31
0.0
  0
LINE
  8
OBJ
  5
EEF
 10
29.93938
 20
28.44995
 30
0.0
 11
29.93938
 21
33.240281
 31
0.0
  0
LINE
  8
OBJ
  5
EF0
 10
31.55338
 20
28.44995
 30
0.0
 11
31.55338
 21
33.275861
 31
0.0
  0
LINE
  8
OBJ
  5
EF1
 10
23.419319
 20
28.22995
 30
0.0
 11
23.419319
 21
40.00995
 31
0.0
  0
LINE
  8
OBJ
  5
EF2
 10
22.949319
 20
28.22995
 30
0.0
 11
22.949319
 21
40.00995
 31
0.0
  0
ARC
  8
OBJ
  5
EF3
 10
43.098869
 20
32.15095
 30
0.0
 40
0.625
 50
96.443069
 51
270.67075
  0
LINE
  8
OBJ
  5
EF4
 10
45.224869
 20
31.993939
 30
0.0
 11
45.224869
 21
32.93895
 31
0.0
  0
LINE
  8
OBJ
  5
EF5
 10
45.696869
 20
31.993939
 30
0.0
 11
45.696869
 21
32.93895
 31
0.0
  0
LINE
  8
OBJ
  5
EF6
 10
43.984869
 20
30.68295
 30
0.0
 11
43.984869
 21
32.93895
 31
0.0
  0
LINE
  8
OBJ
  5
EF7
 10
46.936869
 20
30.68295
 30
0.0
 11
46.936869
 21
32.93895
 31
0.0
  0
LINE
  8
OBJ
  5
EF8
 10
43.984869
 20
30.68295
 30
0.0
 11
43.984869
 21
32.93895
 31
0.0
  0
CIRCLE
  8
OBJ
  5
EF9
 10
43.098869
 20
32.15095
 30
0.0
 40
0.355
  0
ARC
  8
OBJ
  5
EFA
 10
43.098869
 20
32.15095
 30
0.0
 40
0.708
 50
277.113819
 51
90.0
  0
ARC
  8
OBJ
  5
EFB
 10
113.230869
 20
34.11995
 30
0.0
 40
70.8
 50
175.822489
 51
184.177511
  0
ARC
  8
OBJ
  5
EFC
 10
47.822869
 20
32.15095
 30
0.0
 40
0.708
 50
95.370697
 51
262.886181
  0
ARC
  8
OBJ
  5
EFD
 10
40.912869
 20
31.825139
 30
0.0
 40
0.53
 50
102.774852
 51
262.219537
  0
ARC
  8
OBJ
  5
EFE
 10
93.522528
 20
34.119545
 30
0.0
 40
52.659514
 50
181.033696
 51
183.191509
  0
LINE
  8
OBJ
  6
CENTERX2
  5
EFF
 10
45.460869
 20
20.188927
 30
0.0
 11
45.460869
 21
48.061409
 31
0.0
  0
ARC
  8
OBJ
  5
F00
 10
4.908295
 20
29.210011
 30
0.0
 40
3.146998
 50
56.213951
 51
88.251462
  0
LINE
  8
OBJ
 62
     7
  5
F01
 10
22.949319
 20
40.10395
 30
0.0
 11
22.949319
 21
28.13595
 31
0.0
  0
LINE
  8
OBJ
  5
F02
 10
3.658319
 20
27.36995
 30
0.0
 11
3.658319
 21
34.11995
 31
0.0
  0
LINE
  8
OBJ
  5
F03
 10
2.158979
 20
32.24495
 30
0.0
 11
2.158979
 21
32.331866
 31
0.0
  0
LINE
  8
OBJ
  5
F04
 10
3.243319
 20
30.775541
 30
0.0
 11
3.243319
 21
40.86995
 31
0.0
  0
LINE
  8
OBJ
  5
F05
 10
2.158979
 20
32.132328
 30
0.0
 11
2.158979
 21
33.89759
 31
0.0
  0
LINE
  8
OBJ
  5
F06
 10
3.243319
 20
27.36995
 30
0.0
 11
3.243319
 21
34.11995
 31
0.0
  0
LINE
  8
OBJ
  6
CENTERX2
  5
F07
 10
8.220819
 20
20.748702
 30
0.0
 11
8.220819
 21
47.810578
 31
0.0
  0
LINE
  8
OBJ
  5
F08
 10
3.77678
 20
29.66695
 30
0.0
 11
21.52678
 21
29.66695
 31
0.0
  0
LINE
  8
OBJ
  5
F09
 10
3.77678
 20
32.26695
 30
0.0
 11
21.52678
 21
32.26695
 31
0.0
  0
LINE
  8
OBJ
  6
DASHED
  5
F0A
 10
3.77678
 20
32.02695
 30
0.0
 11
21.52678
 21
32.02695
 31
0.0
  0
LINE
  8
OBJ
  5
F0B
 10
22.949319
 20
28.13575
 30
0.0
 11
12.718319
 21
28.13575
 31
0.0
  0
LINE
  8
OBJ
  5
F0C
 10
18.449319
 20
28.88575
 30
0.0
 11
9.607761
 21
28.88575
 31
0.0
  0
LINE
  8
OBJ
  5
F0D
 10
15.616183
 20
6.054993
 30
0.0
 11
21.491183
 21
6.054993
 31
0.0
  0
ARC
  8
OBJ
  5
F0E
 10
1.438918
 20
203.852389
 30
0.0
 40
196.22943
 50
271.524159
 51
275.380703
  0
LINE
  8
OBJ
  5
F0F
 10
20.445337
 20
12.083953
 30
0.0
 11
12.651446
 21
12.083953
 31
0.0
  0
LINE
  8
OBJ
  5
F10
 10
20.445337
 20
12.558033
 30
0.0
 11
12.651446
 21
12.558033
 31
0.0
  0
LINE
  8
OBJ
  6
CONTINUOUS
  5
F11
 10
19.445337
 20
12.670993
 30
0.0
 11
12.640124
 21
12.670993
 31
0.0
  0
LINE
  8
OBJ
  6
CONTINUOUS
  5
F12
 10
19.445337
 20
11.970993
 30
0.0
 11
12.640124
 21
11.970993
 31
0.0
  0
LINE
  8
OBJ
  5
F13
 10
17.874319
 20
6.844993
 30
0.0
 11
7.374319
 21
6.844993
 31
0.0
  0
ARC
  8
OBJ
  5
F14
 10
1.438918
 20
-179.210403
 30
0.0
 40
196.22943
 50
83.706668
 51
86.683192
  0
LINE
  8
OBJ
  5
F15
 10
3.741183
 20
6.194993
 30
0.0
 11
21.491183
 21
6.194993
 31
0.0
  0
LINE
  8
OBJ
  5
F16
 10
3.741183
 20
6.414993
 30
0.0
 11
21.491183
 21
6.414993
 31
0.0
  0
LINE
  8
OBJ
  5
F17
 10
21.491183
 20
1.854993
 30
0.0
 11
15.616183
 21
1.854993
 31
0.0
  0
LINE
  8
OBJ
  5
F18
 10
21.491183
 20
1.714993
 30
0.0
 11
3.741183
 21
1.714993
 31
0.0
  0
LINE
  8
OBJ
  5
F19
 10
3.741183
 20
1.494993
 30
0.0
 11
21.491183
 21
1.494993
 31
0.0
  0
LINE
  8
OBJ
  6
CENTERX2
  5
F1A
 10
34.734502
 20
12.320993
 30
0.0
 11
1.687295
 21
12.320993
 31
0.0
  0
ARC
  8
OBJ
  5
F1B
 10
12.640124
 20
11.820993
 30
0.0
 40
0.15
 50
90.0
 51
173.545007
  0
LINE
  8
OBJ
  5
F1C
 10
3.243319
 20
7.242993
 30
0.0
 11
3.243319
 21
17.398993
 31
0.0
  0
ARC
  8
OBJ
  5
F1D
 10
8.220819
 20
12.320993
 30
0.0
 40
0.852658
 50
108.886443
 51
71.113557
  0
CIRCLE
  8
OBJ
  5
F1E
 10
8.220819
 20
12.320993
 30
0.0
 40
0.8858
  0
CIRCLE
  8
OBJ
  5
F1F
 10
8.220819
 20
12.320993
 30
0.0
 40
1.075
  0
CIRCLE
  8
OBJ
  5
F20
 10
8.220819
 20
12.320993
 30
0.0
 40
1.4155
  0
CIRCLE
  8
OBJ
  5
F21
 10
8.220819
 20
12.320993
 30
0.0
 40
4.2975
  0
CIRCLE
  8
OBJ
  5
F22
 10
8.220819
 20
12.320993
 30
0.0
 40
4.0625
  0
LINE
  8
OBJ
  6
CENTERX2
  5
F23
 10
8.220819
 20
7.242993
 30
0.0
 11
8.220819
 21
17.398993
 31
0.0
  0
LINE
  8
OBJ
  5
F24
 10
3.658319
 20
7.242993
 30
0.0
 11
3.658319
 21
17.398993
 31
0.0
  0
ARC
  8
OBJ
  5
F25
 10
16.920018
 20
13.894977
 30
0.0
 40
14.809156
 50
175.380032
 51
200.40875
  0
LINE
  8
OBJ
  5
F26
 10
7.551183
 20
2.444993
 30
0.0
 11
7.551183
 21
0.944993
 31
0.0
  0
LINE
  8
OBJ
  5
F27
 10
5.051183
 20
2.444993
 30
0.0
 11
5.051183
 21
0.944993
 31
0.0
  0
LINE
  8
OBJ
  5
F28
 10
3.741183
 20
1.494993
 30
0.0
 11
3.741183
 21
6.414993
 31
0.0
  0
LINE
  8
OBJ
  5
F29
 10
15.616183
 20
6.194993
 30
0.0
 11
15.616183
 21
1.714993
 31
0.0
  0
LINE
  8
OBJ
  5
F2A
 10
9.616183
 20
6.194993
 30
0.0
 11
9.616183
 21
1.714993
 31
0.0
  0
ARC
  8
OBJ
  5
F2B
 10
7.374319
 20
6.594993
 30
0.0
 40
0.25
 50
90.0
 51
180.0
  0
LINE
  8
OBJ
  5
F2C
 10
7.551183
 20
5.464993
 30
0.0
 11
7.551183
 21
6.964993
 31
0.0
  0
LINE
  8
OBJ
  5
F2D
 10
5.499319
 20
6.414993
 30
0.0
 11
5.499319
 21
7.609361
 31
0.0
  0
LINE
  8
OBJ
  5
F2E
 10
5.051183
 20
5.464993
 30
0.0
 11
5.051183
 21
6.964993
 31
0.0
  0
LINE
  8
OBJ
  6
CENTER
  5
F2F
 10
6.476819
 20
5.537525
 30
0.0
 11
6.476819
 21
8.655667
 31
0.0
  0
LINE
  8
OBJ
  5
F30
 10
6.604319
 20
6.414993
 30
0.0
 11
4.979319
 21
6.414993
 31
0.0
  0
LINE
  8
OBJ
  5
F31
 10
3.741183
 20
6.054993
 30
0.0
 11
9.616183
 21
6.054993
 31
0.0
  0
LINE
  8
OBJ
  5
F32
 10
3.741183
 20
6.054993
 30
0.0
 11
9.616183
 21
6.054993
 31
0.0
  0
LINE
  8
OBJ
  5
F33
 10
9.616183
 20
1.854993
 30
0.0
 11
3.741183
 21
1.854993
 31
0.0
  0
LINE
  8
OBJ
  5
F34
 10
9.616183
 20
1.854993
 30
0.0
 11
3.741183
 21
1.854993
 31
0.0
  0
LINE
  8
OBJ
  5
F35
 10
7.124319
 20
6.594993
 30
0.0
 11
7.124319
 21
6.414993
 31
0.0
  0
INSERT
  8
OBJ
  5
F36
  2
WBBLTTP
 10
5.659678
 20
9.759852
 30
0.0
 41
-1.0
  0
ARC
  8
OBJ
  5
F37
 10
6.679858
 20
55.88725
 30
0.0
 40
48.194868
 50
268.480624
 51
269.974394
  0
INSERT
  8
OBJ
  5
F38
  2
BLTHD
 10
3.243319
 20
9.723138
 30
0.0
 41
-1.0
 50
90.0
  0
LINE
  8
OBJ
  5
F39
 10
5.003976
 20
7.242993
 30
0.0
 11
3.243319
 21
7.242993
 31
0.0
  0
LINE
  8
OBJ
  5
F3A
 10
3.243319
 20
7.723138
 30
0.0
 11
4.958319
 21
7.723138
 31
0.0
  0
LINE
  8
OBJ
  5
F3B
 10
3.158319
 20
8.129138
 30
0.0
 11
3.158319
 21
7.317138
 31
0.0
  0
LINE
  8
OBJ
  5
F3C
 10
3.243319
 20
8.129138
 30
0.0
 11
3.243319
 21
7.317138
 31
0.0
  0
LINE
  8
OBJ
  5
F3D
 10
2.843319
 20
8.854138
 30
0.0
 11
2.843319
 21
8.047131
 31
0.0
  0
LINE
  8
OBJ
  5
F3E
 10
2.843319
 20
8.047131
 30
0.0
 11
2.843319
 21
8.873138
 31
0.0
  0
LINE
  8
OBJ
  6
CONTINUOUS
  5
F3F
 10
2.844319
 20
7.398138
 30
0.0
 11
3.064319
 21
7.398138
 31
0.0
  0
LINE
  8
OBJ
  6
CONTINUOUS
  5
F40
 10
2.844319
 20
8.048138
 30
0.0
 11
3.064319
 21
8.048138
 31
0.0
  0
LINE
  8
OBJ
  6
CONTINUOUS
  5
F41
 10
2.844319
 20
7.885638
 30
0.0
 11
3.064319
 21
7.885638
 31
0.0
  0
LINE
  8
OBJ
  6
CONTINUOUS
  5
F42
 10
2.844319
 20
7.560638
 30
0.0
 11
3.064319
 21
7.560638
 31
0.0
  0
LINE
  8
OBJ
  5
F43
 10
2.814319
 20
7.885638
 30
0.0
 11
2.814319
 21
7.560638
 31
0.0
  0
ARC
  8
OBJ
  5
F44
 10
2.939345
 20
7.966888
 30
0.0
 40
0.125026
 50
139.468605
 51
220.531395
  0
ARC
  8
OBJ
  5
F45
 10
3.269423
 20
7.723138
 30
0.0
 40
0.455104
 50
159.080182
 51
200.919818
  0
LINE
  8
OBJ
  5
F46
 10
2.844319
 20
8.048138
 30
0.0
 11
2.814319
 21
8.017914
 31
0.0
  0
LINE
  8
OBJ
  5
F47
 10
2.814319
 20
8.017914
 30
0.0
 11
2.814319
 21
7.885638
 31
0.0
  0
LINE
  8
OBJ
  5
F48
 10
2.814319
 20
7.560638
 30
0.0
 11
2.814319
 21
7.428362
 31
0.0
  0
ARC
  8
OBJ
  5
F49
 10
2.939345
 20
7.479388
 30
0.0
 40
0.125026
 50
139.468605
 51
220.531395
  0
LINE
  8
OBJ
  5
F4A
 10
2.844319
 20
7.398138
 30
0.0
 11
2.814319
 21
7.428362
 31
0.0
  0
LINE
  8
OBJ
  6
CONTINUOUS
  5
F4B
 10
3.158319
 20
7.317138
 30
0.0
 11
3.243319
 21
7.317138
 31
0.0
  0
LINE
  8
OBJ
  5
F4C
 10
3.064319
 20
8.065138
 30
0.0
 11
3.064319
 21
7.381138
 31
0.0
  0
LINE
  8
OBJ
  6
CONTINUOUS
  5
F4D
 10
3.064319
 20
7.381138
 30
0.0
 11
3.158319
 21
7.381138
 31
0.0
  0
LINE
  8
OBJ
  5
F4E
 10
3.064319
 20
7.835803
 30
0.0
 11
3.158319
 21
7.835803
 31
0.0
  0
LINE
  8
OBJ
  6
CONTINUOUS
  5
F4F
 10
3.064319
 20
8.065138
 30
0.0
 11
3.158319
 21
8.065138
 31
0.0
  0
ARC
  8
OBJ
  5
F50
 10
3.227897
 20
8.800542
 30
0.0
 40
0.2
 50
200.40875
 51
253.624762
  0
ARC
  8
OBJ
  5
F51
 10
2.903172
 20
8.933138
 30
0.0
 40
0.06
 50
270.0
 51
19.49351
  0
LINE
  8
OBJ
  5
F52
 10
2.593319
 20
8.610638
 30
0.0
 11
2.593319
 21
8.285638
 31
0.0
  0
ARC
  8
OBJ
  5
F53
 10
2.718345
 20
8.691888
 30
0.0
 40
0.125026
 50
139.468605
 51
220.531395
  0
ARC
  8
OBJ
  5
F54
 10
3.048423
 20
8.448138
 30
0.0
 40
0.455104
 50
159.080182
 51
200.919818
  0
LINE
  8
OBJ
  5
F55
 10
2.623319
 20
8.773138
 30
0.0
 11
2.593319
 21
8.742914
 31
0.0
  0
LINE
  8
OBJ
  5
F56
 10
2.593319
 20
8.742914
 30
0.0
 11
2.593319
 21
8.610638
 31
0.0
  0
LINE
  8
OBJ
  6
CONTINUOUS
  5
F57
 10
2.623319
 20
8.773138
 30
0.0
 11
2.843319
 21
8.773138
 31
0.0
  0
LINE
  8
OBJ
  6
CONTINUOUS
  5
F58
 10
2.623319
 20
8.610638
 30
0.0
 11
2.843319
 21
8.610638
 31
0.0
  0
LINE
  8
OBJ
  6
CONTINUOUS
  5
F59
 10
2.623319
 20
8.285638
 30
0.0
 11
2.843319
 21
8.285638
 31
0.0
  0
LINE
  8
OBJ
  5
F5A
 10
2.843319
 20
8.873138
 30
0.0
 11
2.903172
 21
8.873138
 31
0.0
  0
LINE
  8
OBJ
  6
CONTINUOUS
  5
F5B
 10
2.623319
 20
8.123138
 30
0.0
 11
2.843319
 21
8.123138
 31
0.0
  0
LINE
  8
OBJ
  5
F5C
 10
2.623319
 20
8.123138
 30
0.0
 11
2.593319
 21
8.153362
 31
0.0
  0
LINE
  8
OBJ
  5
F5D
 10
2.593319
 20
8.285638
 30
0.0
 11
2.593319
 21
8.153362
 31
0.0
  0
ARC
  8
OBJ
  5
F5E
 10
2.718345
 20
8.204388
 30
0.0
 40
0.125026
 50
139.468605
 51
220.531395
  0
LINE
  8
OBJ
  5
F5F
 10
2.843319
 20
8.773138
 30
0.0
 11
2.843319
 21
8.123138
 31
0.0
  0
ARC
  8
OBJ
  5
F60
 10
3.143319
 20
8.512712
 30
0.0
 40
0.1
 50
0.0
 51
73.624762
  0
LINE
  8
OBJ
  5
F61
 10
3.221166
 20
8.600542
 30
0.0
 11
3.227897
 21
8.600542
 31
0.0
  0
LINE
  8
OBJ
  6
CONTINUOUS
  5
F62
 10
3.158319
 20
8.129138
 30
0.0
 11
3.243319
 21
8.129138
 31
0.0
  0
ARC
  8
OBJ
  5
F63
 10
5.399319
 20
7.609361
 30
0.0
 40
0.1
 50
360.0
 51
88.480624
  0
ARC
  8
OBJ
  5
F64
 10
6.679858
 20
55.88725
 30
0.0
 40
48.194868
 50
267.952938
 51
268.480624
  0
ARC
  8
OBJ
  5
F65
 10
4.981148
 20
10.596781
 30
0.0
 40
3.353866
 50
269.610003
 51
278.887783
  0
CIRCLE
  8
OBJ
  5
F66
 10
5.659678
 20
9.759852
 30
0.0
 40
0.2125
  0
INSERT
  8
OBJ
  5
F67
  2
WBBLTTP
 10
10.78196
 20
9.759852
 30
0.0
 41
-1.0
  0
CIRCLE
  8
OBJ
  5
F68
 10
10.78196
 20
9.759852
 30
0.0
 40
0.2125
  0
ARC
  8
OBJ
  5
F69
 10
23.068723
 20
31.501823
 30
0.0
 40
20.922945
 50
178.36382
 51
188.555863
  0
ARC
  8
OBJ
  5
F6A
 10
3.12183
 20
15.160899
 30
0.0
 40
0.965622
 50
90.0
 51
184.341555
  0
ARC
  8
OBJ
  5
F6B
 10
1.438918
 20
-179.210403
 30
0.0
 40
196.22943
 50
87.296895
 51
88.475841
  0
ARC
  8
OBJ
  5
F6C
 10
4.981148
 20
14.045205
 30
0.0
 40
3.353866
 50
59.995295
 51
90.389997
  0
INSERT
  8
OBJ
  5
F6D
  2
BLTHD
 10
3.243319
 20
16.918848
 30
0.0
 41
-1.0
 50
90.0
  0
ARC
  8
OBJ
  5
F6E
 10
6.679858
 20
-31.245263
 30
0.0
 40
48.194868
 50
90.025606
 51
92.047062
  0
INSERT
  8
OBJ
  5
F6F
  2
WBBLTTP
 10
5.659678
 20
14.882134
 30
0.0
 41
-1.0
  0
LINE
  8
OBJ
  5
F70
 10
3.243319
 20
16.918848
 30
0.0
 11
4.958319
 21
16.918848
 31
0.0
  0
INSERT
  8
OBJ
  5
F71
  2
BLTHD
 10
3.243319
 20
14.918848
 30
0.0
 41
-1.0
 50
90.0
  0
ARC
  8
OBJ
  5
F72
 10
3.143319
 20
16.226521
 30
0.0
 40
0.1
 50
270.0
 51
0.0
  0
LINE
  8
OBJ
  5
F73
 10
3.12183
 20
16.126521
 30
0.0
 11
3.143319
 21
16.126521
 31
0.0
  0
CIRCLE
  8
OBJ
  5
F74
 10
5.659678
 20
14.882134
 30
0.0
 40
0.2125
  0
LINE
  8
OBJ
  5
F75
 10
8.220819
 20
11.945993
 30
0.0
 11
8.220819
 21
12.695993
 31
0.0
  0
LINE
  8
OBJ
  6
CONTINUOUS
  5
F76
 10
8.496819
 20
12.990193
 30
0.0
 11
8.496819
 21
13.162697
 31
0.0
  0
LINE
  8
OBJ
  6
CONTINUOUS
  5
F77
 10
7.944819
 20
12.990193
 30
0.0
 11
7.944819
 21
13.162697
 31
0.0
  0
LINE
  8
OBJ
  5
F78
 10
8.496819
 20
12.990193
 30
0.0
 11
7.944819
 21
12.990193
 31
0.0
  0
CIRCLE
  8
OBJ
  5
F79
 10
8.220819
 20
12.320993
 30
0.0
 40
0.1968
  0
LINE
  8
OBJ
  5
F7A
 10
5.003976
 20
17.398993
 30
0.0
 11
3.243319
 21
17.398993
 31
0.0
  0
CIRCLE
  8
OBJ
  5
F7B
 10
15.296319
 20
17.429847
 30
0.0
 40
0.551
  0
LINE
  8
OBJ
  5
F7C
 10
12.697928
 20
17.142038
 30
0.0
 11
12.697928
 21
16.790153
 31
0.0
  0
LINE
  8
OBJ
  5
F7D
 10
10.797928
 20
17.142038
 30
0.0
 11
10.797928
 21
16.900575
 31
0.0
  0
ARC
  8
OBJ
  5
F7E
 10
15.296319
 20
17.429847
 30
0.0
 40
0.951
 50
302.782983
 51
237.217017
  0
INSERT
  8
OBJ
  5
F7F
  2
WBBLTTP
 10
10.78196
 20
14.882134
 30
0.0
 41
-1.0
  0
ARC
  8
OBJ
  5
F80
 10
12.651446
 20
11.933953
 30
0.0
 40
0.15
 50
90.0
 51
175.007567
  0
ARC
  8
OBJ
  5
F81
 10
12.651446
 20
12.708033
 30
0.0
 40
0.15
 50
184.992433
 51
270.0
  0
ARC
  8
OBJ
  5
F82
 10
12.640124
 20
12.820993
 30
0.0
 40
0.15
 50
186.454993
 51
270.0
  0
ARC
  8
OBJ
  5
F83
 10
11.91185
 20
22.129952
 30
0.0
 40
5.502913
 50
258.458825
 51
277.887168
  0
ARC
  8
OBJ
  5
F84
 10
10.697928
 20
16.900575
 30
0.0
 40
0.1
 50
267.296895
 51
0.0
  0
ARC
  8
OBJ
  5
F85
 10
12.797928
 20
16.790153
 30
0.0
 40
0.1
 50
180.0
 51
266.683192
  0
LINE
  8
OBJ
  5
F86
 10
15.688319
 20
16.878847
 30
0.0
 11
14.904319
 21
16.878847
 31
0.0
  0
ARC
  8
OBJ
  5
F87
 10
14.904319
 20
16.778847
 30
0.0
 40
0.1
 50
90.0
 51
180.0
  0
ARC
  8
OBJ
  5
F88
 10
14.754319
 20
16.588279
 30
0.0
 40
0.05
 50
0.0
 51
57.217017
  0
LINE
  8
OBJ
  5
F89
 10
14.804319
 20
16.563332
 30
0.0
 11
14.804319
 21
16.778847
 31
0.0
  0
ARC
  8
OBJ
  5
F8A
 10
15.688319
 20
16.778847
 30
0.0
 40
0.1
 50
0.0
 51
90.0
  0
ARC
  8
OBJ
  5
F8B
 10
15.838319
 20
16.588279
 30
0.0
 40
0.05
 50
122.782983
 51
180.0
  0
LINE
  8
OBJ
  5
F8C
 10
15.788319
 20
16.493669
 30
0.0
 11
15.788319
 21
16.778847
 31
0.0
  0
LINE
  8
OBJ
  6
CONTINUOUS
  5
F8D
 10
12.851418
 20
17.142038
 30
0.0
 11
10.644438
 21
17.142038
 31
0.0
  0
ARC
  8
OBJ
  5
F8E
 10
11.747928
 20
16.249766
 30
0.0
 40
1.252272
 50
63.858144
 51
116.141856
  0
LINE
  8
OBJ
  6
CONTINUOUS
  5
F8F
 10
12.299673
 20
17.502038
 30
0.0
 11
11.196183
 21
17.502038
 31
0.0
  0
ARC
  8
OBJ
  5
F90
 10
11.797928
 20
13.530567
 30
0.0
 40
4.120471
 50
79.786344
 51
100.213656
  0
LINE
  8
OBJ
  5
F91
 10
10.797928
 20
17.142038
 30
0.0
 11
12.697928
 21
17.142038
 31
0.0
  0
ARC
  8
OBJ
  5
F92
 10
10.920311
 20
17.140933
 30
0.0
 40
0.361106
 50
40.184879
 51
139.815121
  0
LINE
  8
OBJ
  5
F93
 10
10.644438
 20
17.373938
 30
0.0
 11
10.76793
 21
17.502038
 31
0.0
  0
LINE
  8
OBJ
  5
F94
 10
10.644438
 20
17.373938
 30
0.0
 11
10.644438
 21
17.142038
 31
0.0
  0
LINE
  8
OBJ
  6
CONTINUOUS
  5
F95
 10
11.196183
 20
17.502038
 30
0.0
 11
10.76793
 21
17.502038
 31
0.0
  0
ARC
  8
OBJ
  5
F96
 10
11.077928
 20
17.526693
 30
0.0
 40
0.06
 50
100.213656
 51
180.0
  0
LINE
  8
OBJ
  5
F97
 10
10.967928
 20
17.502038
 30
0.0
 11
10.967928
 21
17.526693
 31
0.0
  0
LINE
  8
OBJ
  5
F98
 10
11.196183
 20
17.373938
 30
0.0
 11
11.196183
 21
17.142038
 31
0.0
  0
LINE
  8
OBJ
  5
F99
 10
10.925928
 20
17.142038
 30
0.0
 11
10.925928
 21
17.141038
 31
0.0
  0
ARC
  8
OBJ
  5
F9A
 10
12.517928
 20
17.526693
 30
0.0
 40
0.06
 50
0.0
 51
79.786344
  0
LINE
  8
OBJ
  6
CONTINUOUS
  5
F9B
 10
12.727927
 20
17.502038
 30
0.0
 11
12.299673
 21
17.502038
 31
0.0
  0
ARC
  8
OBJ
  5
F9C
 10
12.575546
 20
17.140933
 30
0.0
 40
0.361106
 50
40.184879
 51
139.815121
  0
LINE
  8
OBJ
  5
F9D
 10
12.527928
 20
17.502038
 30
0.0
 11
12.527928
 21
17.526693
 31
0.0
  0
LINE
  8
OBJ
  5
F9E
 10
12.299673
 20
17.373938
 30
0.0
 11
12.299673
 21
17.142038
 31
0.0
  0
LINE
  8
OBJ
  5
F9F
 10
12.569928
 20
17.142038
 30
0.0
 11
12.569928
 21
17.141038
 31
0.0
  0
LINE
  8
OBJ
  5
FA0
 10
12.851418
 20
17.373938
 30
0.0
 11
12.851418
 21
17.142038
 31
0.0
  0
LINE
  8
OBJ
  5
FA1
 10
12.851418
 20
17.373938
 30
0.0
 11
12.727927
 21
17.502038
 31
0.0
  0
LINE
  8
OBJ
  5
FA2
 10
10.014344
 20
26.653439
 30
0.0
 11
6.434344
 21
26.653439
 31
0.0
  0
LINE
  8
OBJ
  5
FA3
 10
12.518319
 20
26.8387
 30
0.0
 11
3.923319
 21
26.8387
 31
0.0
  0
LINE
  8
OBJ
  6
DASHED
  5
FA4
 10
9.65178
 20
29.90695
 30
0.0
 11
15.65178
 21
29.90695
 31
0.0
  0
LINE
  8
OBJ
  5
FA5
 10
3.923319
 20
26.8387
 30
0.0
 11
3.923319
 21
27.36995
 31
0.0
  0
INSERT
  8
OBJ
  5
FA6
  2
BLTHD
 10
5.619344
 20
26.8387
 30
0.0
 41
-1.0
 50
180.0
  0
LINE
  8
OBJ
  5
FA7
 10
9.109344
 20
22.166439
 30
0.0
 11
9.109344
 21
26.011439
 31
0.0
  0
LINE
  8
OBJ
  5
FA8
 10
8.499344
 20
22.136439
 30
0.0
 11
8.499344
 21
25.723432
 31
0.0
  0
LINE
  8
OBJ
  5
FA9
 10
7.339344
 20
22.166439
 30
0.0
 11
7.339344
 21
26.011439
 31
0.0
  0
LINE
  8
OBJ
  5
FAA
 10
7.949344
 20
22.136439
 30
0.0
 11
7.949344
 21
25.723432
 31
0.0
  0
LINE
  8
OBJ
  5
FAB
 10
7.339344
 20
22.166439
 30
0.0
 11
7.949344
 21
22.166439
 31
0.0
  0
LINE
  8
OBJ
  5
FAC
 10
9.079344
 20
22.136439
 30
0.0
 11
7.369344
 21
22.136439
 31
0.0
  0
LINE
  8
OBJ
  5
FAD
 10
7.369344
 20
22.136439
 30
0.0
 11
7.339344
 21
22.166439
 31
0.0
  0
LINE
  8
OBJ
  5
FAE
 10
9.109344
 20
22.166439
 30
0.0
 11
8.499344
 21
22.166439
 31
0.0
  0
LINE
  8
OBJ
  5
FAF
 10
9.109344
 20
22.166439
 30
0.0
 11
9.079344
 21
22.136439
 31
0.0
  0
LINE
  8
OBJ
  5
FB0
 10
7.279344
 20
26.066439
 30
0.0
 11
9.169344
 21
26.066439
 31
0.0
  0
LINE
  8
OBJ
  5
FB1
 10
6.434344
 20
26.653439
 30
0.0
 11
6.434344
 21
26.8387
 31
0.0
  0
LINE
  8
OBJ
  5
FB2
 10
7.284344
 20
26.066439
 30
0.0
 11
7.279344
 21
26.066439
 31
0.0
  0
ARC
  8
OBJ
  5
FB3
 10
7.284344
 20
26.011439
 30
0.0
 40
0.055
 50
0.0
 51
90.0
  0
LINE
  8
OBJ
  5
FB4
 10
7.279344
 20
26.066439
 30
0.0
 11
7.279344
 21
26.653439
 31
0.0
  0
ARC
  8
OBJ
  5
FB5
 10
8.224344
 20
25.723432
 30
0.0
 40
0.275
 50
0.0
 51
180.0
  0
LINE
  8
OBJ
  5
FB6
 10
9.169344
 20
26.066439
 30
0.0
 11
9.164344
 21
26.066439
 31
0.0
  0
ARC
  8
OBJ
  5
FB7
 10
9.164344
 20
26.011439
 30
0.0
 40
0.055
 50
90.0
 51
180.0
  0
LINE
  8
OBJ
  5
FB8
 10
9.169344
 20
26.066439
 30
0.0
 11
9.169344
 21
26.653439
 31
0.0
  0
LINE
  8
OBJ
  5
FB9
 10
5.08678
 20
30.92695
 30
0.0
 11
7.58678
 21
30.92695
 31
0.0
  0
ARC
  8
OBJ
  5
FBA
 10
4.908295
 20
34.441076
 30
0.0
 40
3.146998
 50
271.748538
 51
303.786049
  0
LINE
  8
OBJ
  5
FBB
 10
3.658319
 20
27.36995
 30
0.0
 11
6.813328
 21
27.36995
 31
0.0
  0
LINE
  8
OBJ
  5
FBC
 10
5.08678
 20
30.22695
 30
0.0
 11
7.58678
 21
30.22695
 31
0.0
  0
LINE
  8
OBJ
  5
FBD
 10
3.77678
 20
29.66695
 30
0.0
 11
3.77678
 21
32.26695
 31
0.0
  0
LINE
  8
OBJ
  5
FBE
 10
2.418319
 20
28.278855
 30
0.0
 11
2.418319
 21
32.09495
 31
0.0
  0
INSERT
  8
OBJ
  5
FBF
  2
BLTHD
 10
3.243319
 20
27.772351
 30
0.0
 41
-1.0
 50
90.0
  0
LINE
  8
OBJ
  5
FC0
 10
2.672848
 20
28.133682
 30
0.0
 11
3.064319
 21
28.130503
 31
0.0
  0
ARC
  8
OBJ
  5
FC1
 10
2.675285
 20
28.433673
 30
0.0
 40
0.3
 50
188.555863
 51
269.534668
  0
LINE
  8
OBJ
  5
FC2
 10
3.658319
 20
27.36995
 30
0.0
 11
3.923319
 21
27.36995
 31
0.0
  0
LINE
  8
OBJ
  5
FC3
 10
3.658319
 20
27.36995
 30
0.0
 11
3.243319
 21
27.36995
 31
0.0
  0
LINE
  8
OBJ
  5
FC4
 10
3.243319
 20
31.295544
 30
0.0
 11
5.004319
 21
31.295544
 31
0.0
  0
LINE
  8
OBJ
  5
FC5
 10
3.243319
 20
32.24495
 30
0.0
 11
2.304247
 21
32.24495
 31
0.0
  0
INSERT
  8
OBJ
  5
FC6
  2
BLTHD
 10
3.243319
 20
31.832852
 30
0.0
 41
-1.0
 50
90.0
  0
ARC
  8
OBJ
  5
FC7
 10
2.304247
 20
32.09495
 30
0.0
 40
0.15
 50
90.0
 51
178.36382
  0
ARC
  8
OBJ
  5
FC8
 10
2.568319
 20
32.09495
 30
0.0
 40
0.15
 50
90.0
 51
180.0
  0
ARC
  8
OBJ
  5
FC9
 10
5.08678
 20
30.57695
 30
0.0
 40
0.35
 50
90.0
 51
270.0
  0
LINE
  8
OBJ
  5
FCA
 10
9.65178
 20
29.66695
 30
0.0
 11
9.65178
 21
29.90695
 31
0.0
  0
ARC
  8
OBJ
  5
FCB
 10
6.813328
 20
27.66995
 30
0.0
 40
0.3
 50
270.0
 51
0.0
  0
ARC
  8
OBJ
  5
FCC
 10
9.607761
 20
28.63575
 30
0.0
 40
0.25
 50
90.0
 51
180.0
  0
ARC
  8
OBJ
  5
FCD
 10
7.58678
 20
30.57695
 30
0.0
 40
0.35
 50
270.0
 51
90.0
  0
CIRCLE
  8
OBJ
  5
FCE
 10
6.566819
 20
30.57695
 30
0.0
 40
0.35
  0
LINE
  8
OBJ
  5
FCF
 10
12.518319
 20
27.93575
 30
0.0
 11
12.518319
 21
26.8387
 31
0.0
  0
LINE
  8
OBJ
  5
FD0
 10
12.518319
 20
26.8387
 30
0.0
 11
12.518319
 21
28.286082
 31
0.0
  0
INSERT
  8
OBJ
  5
FD1
  2
BLTHD
 10
10.829344
 20
26.8387
 30
0.0
 41
-1.0
 50
180.0
  0
LINE
  8
OBJ
  5
FD2
 10
10.014344
 20
26.653439
 30
0.0
 11
10.014344
 21
26.844179
 31
0.0
  0
ARC
  8
OBJ
  5
FD3
 10
13.117987
 20
28.286082
 30
0.0
 40
0.599668
 50
90.0
 51
180.0
  0
ARC
  8
OBJ
  5
FD4
 10
13.117987
 20
28.286082
 30
0.0
 40
0.599668
 50
90.0
 51
180.0
  0
ARC
  8
OBJ
  5
FD5
 10
12.718319
 20
27.93575
 30
0.0
 40
0.2
 50
90.0
 51
180.0
  0
LINE
  8
OBJ
  5
FD6
 10
12.518319
 20
27.93575
 30
0.0
 11
12.518319
 21
28.286082
 31
0.0
  0
LINE
  8
OBJ
  5
FD7
 10
15.65178
 20
29.66695
 30
0.0
 11
15.65178
 21
29.90695
 31
0.0
  0
ARC
  8
OBJ
  5
FD8
 10
29.840419
 20
12.320993
 30
0.0
 40
2.362
 50
330.0
 51
30.0
  0
LINE
  8
OBJ
  5
FD9
 10
29.880419
 20
15.312993
 30
0.0
 11
29.880419
 21
9.328993
 31
0.0
  0
LINE
  8
OBJ
  5
FDA
 10
31.494419
 20
15.312993
 30
0.0
 11
31.494419
 21
9.328993
 31
0.0
  0
LINE
  8
OBJ
  5
FDB
 10
32.911419
 20
13.501993
 30
0.0
 11
32.911419
 21
11.139993
 31
0.0
  0
LINE
  8
OBJ
  5
FDC
 10
28.974419
 20
13.796993
 30
0.0
 11
28.974419
 21
10.844993
 31
0.0
  0
LINE
  8
OBJ
  5
FDD
 10
25.311319
 20
13.619993
 30
0.0
 11
25.311319
 21
11.021993
 31
0.0
  0
LINE
  8
OBJ
  5
FDE
 10
24.429319
 20
13.030779
 30
0.0
 11
24.429319
 21
6.460779
 31
0.0
  0
LINE
  8
OBJ
  5
FDF
 10
25.311319
 20
13.780993
 30
0.0
 11
25.311319
 21
10.860993
 31
0.0
  0
LINE
  8
OBJ
  5
FE0
 10
23.419319
 20
15.250993
 30
0.0
 11
23.419319
 21
9.661993
 31
0.0
  0
ARC
  8
OBJ
  5
FE1
 10
19.445337
 20
11.820993
 30
0.0
 40
0.15
 50
360.0
 51
90.0
  0
ARC
  8
OBJ
  5
FE2
 10
20.445337
 20
11.933953
 30
0.0
 40
0.15
 50
0.0
 51
90.0
  0
LINE
  8
OBJ
  5
FE3
 10
22.949319
 20
15.350993
 30
0.0
 11
22.949319
 21
9.561993
 31
0.0
  0
LINE
  8
OBJ
  5
FE4
 10
22.949319
 20
8.805493
 30
0.0
 11
22.949319
 21
15.391993
 31
0.0
  0
LINE
  8
OBJ
  5
FE5
 10
22.949319
 20
8.805493
 30
0.0
 11
22.949319
 21
15.836493
 31
0.0
  0
LINE
  8
OBJ
  5
FE6
 10
31.885971
 20
11.139993
 30
0.0
 11
32.911419
 21
11.139993
 31
0.0
  0
LINE
  8
OBJ
  5
FE7
 10
20.181183
 20
2.444993
 30
0.0
 11
20.181183
 21
0.944993
 31
0.0
  0
LINE
  8
OBJ
  5
FE8
 10
17.681183
 20
2.444993
 30
0.0
 11
17.681183
 21
0.944993
 31
0.0
  0
LINE
  8
OBJ
  5
FE9
 10
21.491183
 20
6.414993
 30
0.0
 11
21.491183
 21
1.494993
 31
0.0
  0
LINE
  8
OBJ
  5
FEA
 10
23.544319
 20
10.860993
 30
0.0
 11
25.311319
 21
10.860993
 31
0.0
  0
LINE
  8
OBJ
  5
FEB
 10
24.623371
 20
10.670993
 30
0.0
 11
25.539319
 21
10.670993
 31
0.0
  0
LINE
  8
OBJ
  5
FEC
 10
23.419319
 20
10.667893
 30
0.0
 11
29.880419
 21
10.667893
 31
0.0
  0
LINE
  8
OBJ
  5
FED
 10
23.419319
 20
10.037893
 30
0.0
 11
29.880419
 21
10.037893
 31
0.0
  0
LINE
  8
OBJ
  5
FEE
 10
23.419319
 20
9.643893
 30
0.0
 11
29.880419
 21
9.643893
 31
0.0
  0
LINE
  8
OBJ
  5
FEF
 10
22.949319
 20
8.780993
 30
0.0
 11
25.889319
 21
8.780993
 31
0.0
  0
LINE
  8
OBJ
  5
FF0
 10
20.181183
 20
5.464993
 30
0.0
 11
20.181183
 21
6.964993
 31
0.0
  0
LINE
  8
OBJ
  5
FF1
 10
19.749319
 20
6.414993
 30
0.0
 11
19.749319
 21
8.388065
 31
0.0
  0
LINE
  8
OBJ
  6
CENTER
  5
FF2
 10
18.986819
 20
5.537525
 30
0.0
 11
18.986819
 21
8.655667
 31
0.0
  0
LINE
  8
OBJ
  5
FF3
 10
17.681183
 20
5.464993
 30
0.0
 11
17.681183
 21
6.964993
 31
0.0
  0
ARC
  8
OBJ
  5
FF4
 10
17.874319
 20
6.594993
 30
0.0
 40
0.25
 50
0.0
 51
90.0
  0
LINE
  8
OBJ
  5
FF5
 10
19.229319
 20
6.414993
 30
0.0
 11
17.604319
 21
6.414993
 31
0.0
  0
LINE
  8
OBJ
  5
FF6
 10
18.124319
 20
6.414993
 30
0.0
 11
18.124319
 21
6.594993
 31
0.0
  0
ARC
  8
OBJ
  5
FF7
 10
1.438918
 20
203.852389
 30
0.0
 40
196.22943
 50
275.380703
 51
276.293332
  0
LINE
  8
OBJ
  5
FF8
 10
20.595337
 20
9.082954
 30
0.0
 11
20.595337
 21
11.933953
 31
0.0
  0
LINE
  8
OBJ
  5
FF9
 10
19.685337
 20
8.910685
 30
0.0
 11
19.685337
 21
11.820993
 31
0.0
  0
ARC
  8
OBJ
  5
FFA
 10
19.285337
 20
8.910685
 30
0.0
 40
0.4
 50
275.202319
 51
360.0
  0
ARC
  8
OBJ
  5
FFB
 10
19.849319
 20
8.388065
 30
0.0
 40
0.1
 50
95.380703
 51
180.0
  0
ARC
  8
OBJ
  5
FFC
 10
20.995337
 20
9.082954
 30
0.0
 40
0.4
 50
180.0
 51
275.731371
  0
LINE
  8
OBJ
  5
FFD
 10
22.969319
 20
9.561993
 30
0.0
 11
22.969319
 21
8.780993
 31
0.0
  0
LINE
  8
OBJ
  5
FFE
 10
22.949319
 20
9.561993
 30
0.0
 11
23.319319
 21
9.561993
 31
0.0
  0
ARC
  8
OBJ
  5
FFF
 10
23.319319
 20
9.661993
 30
0.0
 40
0.1
 50
270.0
 51
0.0
  0
ARC
  8
OBJ
  5
1000
 10
23.319319
 20
9.661993
 30
0.0
 40
0.1
 50
270.0
 51
0.0
  0
ARC
  8
OBJ
  5
1001
 10
23.544319
 20
10.735993
 30
0.0
 40
0.125
 50
90.0
 51
180.0
  0
ARC
  8
OBJ
  5
1002
 10
24.623371
 20
10.765993
 30
0.0
 40
0.095
 50
90.0
 51
270.0
  0
LINE
  8
OBJ
  5
1003
 10
25.311319
 20
11.021993
 30
0.0
 11
28.974419
 21
11.021993
 31
0.0
  0
LINE
  8
OBJ
  5
1004
 10
25.889319
 20
9.643893
 30
0.0
 11
25.889319
 21
8.780993
 31
0.0
  0
ARC
  8
OBJ
  5
1005
 10
25.539319
 20
10.320993
 30
0.0
 40
0.35
 50
82.368577
 51
90.0
  0
ARC
  8
OBJ
  5
1006
 10
25.311319
 20
10.765993
 30
0.0
 40
0.095
 50
90.0
 51
270.0
  0
LINE
  8
OBJ
  5
1007
 10
31.848419
 20
9.367993
 30
0.0
 11
31.848419
 21
9.500643
 31
0.0
  0
LINE
  8
OBJ
  5
1008
 10
29.880419
 20
9.328993
 30
0.0
 11
31.494419
 21
9.328993
 31
0.0
  0
LINE
  8
OBJ
  5
1009
 10
31.494419
 20
9.367993
 30
0.0
 11
31.848419
 21
9.367993
 31
0.0
  0
LINE
  8
OBJ
  6
CONTINUOUS
  5
100A
 10
31.477207
 20
10.903993
 30
0.0
 11
29.880419
 21
10.903993
 31
0.0
  0
LINE
  8
OBJ
  6
CONTINUOUS
  5
100B
 10
31.494419
 20
9.722993
 30
0.0
 11
29.880419
 21
9.722993
 31
0.0
  0
ARC
  8
OBJ
  5
100C
 10
29.683419
 20
10.647993
 30
0.0
 40
0.197
 50
360.0
 51
90.0
  0
LINE
  8
OBJ
  5
100D
 10
28.974419
 20
10.844993
 30
0.0
 11
29.683419
 21
10.844993
 31
0.0
  0
LINE
  8
OBJ
  5
100E
 10
31.979459
 20
10.582018
 30
0.0
 11
31.979459
 21
10.768527
 31
0.0
  0
ARC
  8
OBJ
  5
100F
 10
31.803172
 20
10.696581
 30
0.0
 40
0.176287
 50
319.468605
 51
40.531395
  0
ARC
  8
OBJ
  5
1010
 10
31.477207
 20
11.375993
 30
0.0
 40
0.944
 50
311.400445
 51
330.0
  0
ARC
  8
OBJ
  5
1011
 10
31.477207
 20
11.375993
 30
0.0
 40
0.944
 50
271.044734
 51
330.0
  0
LINE
  8
OBJ
  5
1012
 10
31.494419
 20
9.870673
 30
0.0
 11
31.494419
 21
10.835113
 31
0.0
  0
LINE
  8
OBJ
  5
1013
 10
31.626959
 20
9.476673
 30
0.0
 11
31.626959
 21
10.835113
 31
0.0
  0
LINE
  8
OBJ
  5
1014
 10
32.161848
 20
10.667893
 30
0.0
 11
32.161848
 21
9.643893
 31
0.0
  0
LINE
  8
OBJ
  6
CONTINUOUS
  5
1015
 10
31.937159
 20
10.123768
 30
0.0
 11
31.626959
 21
10.123768
 31
0.0
  0
LINE
  8
OBJ
  6
CONTINUOUS
  5
1016
 10
31.937159
 20
10.582018
 30
0.0
 11
31.626959
 21
10.582018
 31
0.0
  0
LINE
  8
OBJ
  6
CONTINUOUS
  5
1017
 10
31.937159
 20
9.500643
 30
0.0
 11
31.626959
 21
9.500643
 31
0.0
  0
LINE
  8
OBJ
  6
CONTINUOUS
  5
1018
 10
31.937159
 20
9.729768
 30
0.0
 11
31.626959
 21
9.729768
 31
0.0
  0
LINE
  8
OBJ
  6
CONTINUOUS
  5
1019
 10
31.937159
 20
9.894643
 30
0.0
 11
31.626959
 21
9.894643
 31
0.0
  0
LINE
  8
OBJ
  5
101A
 10
31.62526
 20
10.179127
 30
0.0
 11
31.496117
 21
10.208942
 31
0.0
  0
LINE
  8
OBJ
  6
CONTINUOUS
  5
101B
 10
31.626959
 20
9.476673
 30
0.0
 11
31.494419
 21
9.476673
 31
0.0
  0
LINE
  8
OBJ
  6
CONTINUOUS
  5
101C
 10
31.626959
 20
9.870673
 30
0.0
 11
31.494419
 21
9.870673
 31
0.0
  0
LINE
  8
OBJ
  5
101D
 10
31.62526
 20
9.785127
 30
0.0
 11
31.496117
 21
9.814942
 31
0.0
  0
LINE
  8
OBJ
  5
101E
 10
31.979459
 20
10.123768
 30
0.0
 11
31.979459
 21
10.582018
 31
0.0
  0
ARC
  8
OBJ
  5
101F
 10
31.337762
 20
10.352893
 30
0.0
 40
0.641697
 50
339.080182
 51
20.919818
  0
LINE
  8
OBJ
  5
1020
 10
31.979459
 20
9.93726
 30
0.0
 11
31.979459
 21
10.123768
 31
0.0
  0
LINE
  8
OBJ
  5
1021
 10
31.979459
 20
10.037893
 30
0.0
 11
32.161848
 21
10.037893
 31
0.0
  0
ARC
  8
OBJ
  5
1022
 10
31.803172
 20
9.615206
 30
0.0
 40
0.176287
 50
319.468605
 51
40.531395
  0
LINE
  8
OBJ
  5
1023
 10
31.937159
 20
9.500643
 30
0.0
 11
31.979459
 21
9.54326
 31
0.0
  0
LINE
  8
OBJ
  5
1024
 10
31.979459
 20
9.643893
 30
0.0
 11
32.161848
 21
9.643893
 31
0.0
  0
ARC
  8
OBJ
  5
1025
 10
31.803172
 20
10.009206
 30
0.0
 40
0.176287
 50
319.468605
 51
40.531395
  0
LINE
  8
OBJ
  5
1026
 10
31.937159
 20
9.894643
 30
0.0
 11
31.979459
 21
9.93726
 31
0.0
  0
LINE
  8
OBJ
  5
1027
 10
31.979459
 20
9.54326
 30
0.0
 11
31.979459
 21
9.958893
 31
0.0
  0
ARC
  8
OBJ
  5
1028
 10
31.337762
 20
9.958893
 30
0.0
 40
0.641697
 50
339.080182
 51
358.034021
  0
LINE
  8
OBJ
  6
CONTINUOUS
  5
1029
 10
31.937159
 20
10.811143
 30
0.0
 11
31.626959
 21
10.811143
 31
0.0
  0
ARC
  8
OBJ
  5
102A
 10
31.477207
 20
11.375993
 30
0.0
 40
0.472
 50
288.674857
 51
330.0
  0
ARC
  8
OBJ
  5
102B
 10
31.477207
 20
11.375993
 30
0.0
 40
0.472
 50
288.674857
 51
330.0
  0
LINE
  8
OBJ
  6
CONTINUOUS
  5
102C
 10
31.626959
 20
10.835113
 30
0.0
 11
31.494419
 21
10.835113
 31
0.0
  0
ARC
  8
OBJ
  5
102D
 10
31.691419
 20
10.742216
 30
0.0
 40
0.197
 50
108.674857
 51
151.864254
  0
ARC
  8
OBJ
  5
102E
 10
31.691419
 20
10.742216
 30
0.0
 40
0.197
 50
108.674857
 51
180.0
  0
LINE
  8
OBJ
  5
102F
 10
31.937159
 20
10.811143
 30
0.0
 11
31.979459
 21
10.768527
 31
0.0
  0
LINE
  8
OBJ
  5
1030
 10
31.979459
 20
10.667893
 30
0.0
 11
32.161848
 21
10.667893
 31
0.0
  0
ARC
  8
OBJ
  5
1031
 10
29.840419
 20
12.320993
 30
0.0
 40
2.834
 50
330.0
 51
335.371975
  0
LINE
  8
OBJ
  5
1032
 10
32.157887
 20
29.59295
 30
0.0
 11
32.97138
 21
29.59295
 31
0.0
  0
LINE
  8
OBJ
  5
1033
 10
32.220809
 20
31.95495
 30
0.0
 11
32.97138
 21
31.95495
 31
0.0
  0
LINE
  8
OBJ
  5
1034
 10
31.885971
 20
13.501993
 30
0.0
 11
32.911419
 21
13.501993
 31
0.0
  0
LINE
  8
OBJ
  5
1035
 10
23.544319
 20
13.780993
 30
0.0
 11
25.311319
 21
13.780993
 31
0.0
  0
LINE
  8
OBJ
  5
1036
 10
23.419319
 20
14.998093
 30
0.0
 11
29.880419
 21
14.998093
 31
0.0
  0
LINE
  8
OBJ
  5
1037
 10
23.419319
 20
14.604093
 30
0.0
 11
29.880419
 21
14.604093
 31
0.0
  0
LINE
  8
OBJ
  5
1038
 10
23.419319
 20
13.974093
 30
0.0
 11
29.880419
 21
13.974093
 31
0.0
  0
LINE
  8
OBJ
  5
1039
 10
20.595337
 20
12.708033
 30
0.0
 11
20.595337
 21
15.518507
 31
0.0
  0
LINE
  8
OBJ
  5
103A
 10
19.595337
 20
12.820993
 30
0.0
 11
19.595337
 21
15.690776
 31
0.0
  0
ARC
  8
OBJ
  5
103B
 10
19.445337
 20
12.820993
 30
0.0
 40
0.15
 50
270.0
 51
0.0
  0
ARC
  8
OBJ
  5
103C
 10
20.445337
 20
12.708033
 30
0.0
 40
0.15
 50
270.0
 51
360.0
  0
ARC
  8
OBJ
  5
103D
 10
19.195337
 20
15.690776
 30
0.0
 40
0.4
 50
360.0
 51
84.797681
  0
ARC
  8
OBJ
  5
103E
 10
20.995337
 20
15.518507
 30
0.0
 40
0.4
 50
84.268629
 51
180.0
  0
ARC
  8
OBJ
  5
103F
 10
23.544319
 20
13.905993
 30
0.0
 40
0.125
 50
180.0
 51
270.0
  0
LINE
  8
OBJ
  5
1040
 10
22.949319
 20
15.350993
 30
0.0
 11
23.319319
 21
15.350993
 31
0.0
  0
ARC
  8
OBJ
  5
1041
 10
23.319319
 20
15.250993
 30
0.0
 40
0.1
 50
0.0
 51
90.0
  0
LINE
  8
OBJ
  5
1042
 10
25.311319
 20
13.619993
 30
0.0
 11
28.974419
 21
13.619993
 31
0.0
  0
ARC
  8
OBJ
  5
1043
 10
31.337762
 20
14.289093
 30
0.0
 40
0.641697
 50
339.080182
 51
20.919818
  0
LINE
  8
OBJ
  5
1044
 10
31.979459
 20
14.518218
 30
0.0
 11
31.979459
 21
14.059968
 31
0.0
  0
LINE
  8
OBJ
  5
1045
 10
31.494419
 20
14.771313
 30
0.0
 11
31.494419
 21
13.806873
 31
0.0
  0
LINE
  8
OBJ
  5
1046
 10
32.161848
 20
13.974093
 30
0.0
 11
32.161848
 21
14.998093
 31
0.0
  0
LINE
  8
OBJ
  5
1047
 10
31.626959
 20
15.165313
 30
0.0
 11
31.626959
 21
13.806873
 31
0.0
  0
LINE
  8
OBJ
  5
1048
 10
30.667419
 20
16.248362
 30
0.0
 11
30.667419
 21
13.296362
 31
0.0
  0
LINE
  8
OBJ
  6
CONTINUOUS
  5
1049
 10
31.477207
 20
13.737993
 30
0.0
 11
29.880419
 21
13.737993
 31
0.0
  0
ARC
  8
OBJ
  5
104A
 10
29.683419
 20
13.993993
 30
0.0
 40
0.197
 50
270.0
 51
360.0
  0
LINE
  8
OBJ
  5
104B
 10
29.486419
 20
13.974093
 30
0.0
 11
29.486419
 21
13.796993
 31
0.0
  0
LINE
  8
OBJ
  5
104C
 10
28.974419
 20
13.796993
 30
0.0
 11
29.683419
 21
13.796993
 31
0.0
  0
LINE
  8
OBJ
  6
CONTINUOUS
  5
104D
 10
31.937159
 20
13.830843
 30
0.0
 11
31.626959
 21
13.830843
 31
0.0
  0
LINE
  8
OBJ
  6
CONTINUOUS
  5
104E
 10
31.937159
 20
14.059968
 30
0.0
 11
31.626959
 21
14.059968
 31
0.0
  0
ARC
  8
OBJ
  5
104F
 10
31.477207
 20
13.265993
 30
0.0
 40
0.472
 50
30.0
 51
71.325143
  0
LINE
  8
OBJ
  5
1050
 10
31.62526
 20
14.462859
 30
0.0
 11
31.496117
 21
14.433044
 31
0.0
  0
LINE
  8
OBJ
  6
CONTINUOUS
  5
1051
 10
31.626959
 20
13.806873
 30
0.0
 11
31.494419
 21
13.806873
 31
0.0
  0
ARC
  8
OBJ
  5
1052
 10
31.691419
 20
13.899771
 30
0.0
 40
0.197
 50
208.135746
 51
251.325143
  0
LINE
  8
OBJ
  5
1053
 10
31.937159
 20
13.830843
 30
0.0
 11
31.979459
 21
13.87346
 31
0.0
  0
ARC
  8
OBJ
  5
1054
 10
31.803172
 20
13.945406
 30
0.0
 40
0.176287
 50
319.468605
 51
40.531395
  0
LINE
  8
OBJ
  5
1055
 10
31.979459
 20
14.059968
 30
0.0
 11
31.979459
 21
13.87346
 31
0.0
  0
LINE
  8
OBJ
  5
1056
 10
31.979459
 20
13.974093
 30
0.0
 11
32.161848
 21
13.974093
 31
0.0
  0
ARC
  8
OBJ
  5
1057
 10
29.840419
 20
12.320993
 30
0.0
 40
2.834
 50
24.628025
 51
30.0
  0
ARC
  8
OBJ
  5
1058
 10
31.477207
 20
13.265993
 30
0.0
 40
0.944
 50
30.0
 51
48.599555
  0
LINE
  8
OBJ
  6
CONTINUOUS
  5
1059
 10
31.494419
 20
14.918993
 30
0.0
 11
29.880419
 21
14.918993
 31
0.0
  0
LINE
  8
OBJ
  5
105A
 10
29.880419
 20
15.312993
 30
0.0
 11
31.494419
 21
15.312993
 31
0.0
  0
LINE
  8
OBJ
  5
105B
 10
29.486419
 20
15.273993
 30
0.0
 11
29.880419
 21
15.273993
 31
0.0
  0
LINE
  8
OBJ
  5
105C
 10
29.486419
 20
15.273993
 30
0.0
 11
29.486419
 21
14.998093
 31
0.0
  0
LINE
  8
OBJ
  6
CONTINUOUS
  5
105D
 10
31.937159
 20
14.912218
 30
0.0
 11
31.626959
 21
14.912218
 31
0.0
  0
LINE
  8
OBJ
  6
CONTINUOUS
  5
105E
 10
31.937159
 20
15.141343
 30
0.0
 11
31.626959
 21
15.141343
 31
0.0
  0
LINE
  8
OBJ
  5
105F
 10
31.494419
 20
15.273993
 30
0.0
 11
31.848419
 21
15.273993
 31
0.0
  0
LINE
  8
OBJ
  6
CONTINUOUS
  5
1060
 10
31.937159
 20
14.518218
 30
0.0
 11
31.626959
 21
14.518218
 31
0.0
  0
LINE
  8
OBJ
  6
CONTINUOUS
  5
1061
 10
31.937159
 20
14.747343
 30
0.0
 11
31.626959
 21
14.747343
 31
0.0
  0
LINE
  8
OBJ
  6
CONTINUOUS
  5
1062
 10
31.626959
 20
15.165313
 30
0.0
 11
31.494419
 21
15.165313
 31
0.0
  0
LINE
  8
OBJ
  5
1063
 10
31.62526
 20
14.856859
 30
0.0
 11
31.496117
 21
14.827044
 31
0.0
  0
LINE
  8
OBJ
  6
CONTINUOUS
  5
1064
 10
31.626959
 20
14.771313
 30
0.0
 11
31.494419
 21
14.771313
 31
0.0
  0
LINE
  8
OBJ
  5
1065
 10
31.848419
 20
15.273993
 30
0.0
 11
31.848419
 21
15.141343
 31
0.0
  0
LINE
  8
OBJ
  5
1066
 10
31.937159
 20
15.141343
 30
0.0
 11
31.979459
 21
15.098727
 31
0.0
  0
ARC
  8
OBJ
  5
1067
 10
31.803172
 20
15.026781
 30
0.0
 40
0.176287
 50
319.468605
 51
40.531395
  0
LINE
  8
OBJ
  5
1068
 10
31.979459
 20
14.998093
 30
0.0
 11
32.161848
 21
14.998093
 31
0.0
  0
LINE
  8
OBJ
  5
1069
 10
31.979459
 20
14.704727
 30
0.0
 11
31.979459
 21
14.518218
 31
0.0
  0
LINE
  8
OBJ
  5
106A
 10
31.937159
 20
14.747343
 30
0.0
 11
31.979459
 21
14.704727
 31
0.0
  0
ARC
  8
OBJ
  5
106B
 10
31.803172
 20
14.632781
 30
0.0
 40
0.176287
 50
319.468605
 51
40.531395
  0
LINE
  8
OBJ
  5
106C
 10
31.979459
 20
14.604093
 30
0.0
 11
32.161848
 21
14.604093
 31
0.0
  0
ARC
  8
OBJ
  5
106D
 10
31.337762
 20
14.683093
 30
0.0
 40
0.641697
 50
1.965979
 51
20.919818
  0
LINE
  8
OBJ
  5
106E
 10
31.979459
 20
15.098727
 30
0.0
 11
31.979459
 21
14.683093
 31
0.0
  0
LINE
  8
OBJ
  5
106F
 10
23.419319
 20
31.83735
 30
0.0
 11
29.93938
 21
31.83735
 31
0.0
  0
LINE
  8
OBJ
  5
1070
 10
23.47828
 20
29.31735
 30
0.0
 11
29.93938
 21
29.31735
 31
0.0
  0
LINE
  8
OBJ
  5
1071
 10
23.419319
 20
28.68735
 30
0.0
 11
29.93938
 21
28.68735
 31
0.0
  0
LINE
  8
OBJ
  5
1072
 10
23.419319
 20
29.31495
 30
0.0
 11
25.311319
 21
29.31495
 31
0.0
  0
LINE
  8
OBJ
  5
1073
 10
19.449319
 20
28.13575
 30
0.0
 11
18.449319
 21
28.88575
 31
0.0
  0
CIRCLE
  8
OBJ
  5
1074
 10
19.164819
 20
30.57695
 30
0.0
 40
0.35
  0
LINE
  8
OBJ
  5
1075
 10
20.21678
 20
30.22695
 30
0.0
 11
17.71678
 21
30.22695
 31
0.0
  0
LINE
  8
OBJ
  5
1076
 10
20.21678
 20
30.92695
 30
0.0
 11
17.71678
 21
30.92695
 31
0.0
  0
ARC
  8
OBJ
  5
1077
 10
17.71678
 20
30.57695
 30
0.0
 40
0.35
 50
90.0
 51
270.0
  0
ARC
  8
OBJ
  5
1078
 10
20.21678
 20
30.57695
 30
0.0
 40
0.35
 50
270.0
 51
90.0
  0
LINE
  8
OBJ
  5
1079
 10
21.52678
 20
29.66695
 30
0.0
 11
21.52678
 21
32.26695
 31
0.0
  0
LINE
  8
OBJ
  5
107A
 10
22.949319
 20
28.22995
 30
0.0
 11
23.419319
 21
28.22995
 31
0.0
  0
CIRCLE
  8
OBJ
  5
107B
 10
22.489319
 20
30.77995
 30
0.0
 40
0.27
  0
ARC
  8
OBJ
  5
107C
 10
22.489319
 20
30.77995
 30
0.0
 40
0.43
 50
270.0
 51
90.0
  0
LINE
  8
OBJ
  5
107D
 10
22.489319
 20
30.34995
 30
0.0
 11
21.403254
 21
30.34995
 31
0.0
  0
ARC
  8
OBJ
  5
107E
 10
21.403254
 20
30.24995
 30
0.0
 40
0.1
 50
90.0
 51
180.0
  0
LINE
  8
OBJ
  5
107F
 10
21.303254
 20
30.191509
 30
0.0
 11
21.303254
 21
30.24995
 31
0.0
  0
CIRCLE
  8
OBJ
  5
1080
 10
22.489319
 20
30.77995
 30
0.0
 40
0.2302
  0
LINE
  8
OBJ
  5
1081
 10
22.489319
 20
31.20995
 30
0.0
 11
21.403254
 21
31.20995
 31
0.0
  0
ARC
  8
OBJ
  5
1082
 10
21.403254
 20
31.30995
 30
0.0
 40
0.1
 50
180.0
 51
270.0
  0
LINE
  8
OBJ
  5
1083
 10
25.311319
 20
29.47895
 30
0.0
 11
29.03438
 21
29.47895
 31
0.0
  0
LINE
  8
OBJ
  5
1084
 10
25.311319
 20
29.31495
 30
0.0
 11
25.311319
 21
31.83735
 31
0.0
  0
ARC
  8
OBJ
  5
1085
 10
35.118598
 20
30.720736
 30
0.0
 40
3.270497
 50
162.679032
 51
200.234166
  0
LINE
  8
OBJ
  5
1086
 10
29.03438
 20
29.31735
 30
0.0
 11
29.03438
 21
31.83735
 31
0.0
  0
LINE
  8
OBJ
  5
1087
 10
30.01738
 20
29.63195
 30
0.0
 11
31.47538
 21
29.63195
 31
0.0
  0
LINE
  8
OBJ
  5
1088
 10
30.01738
 20
28.37195
 30
0.0
 11
31.47538
 21
28.37195
 31
0.0
  0
ARC
  8
OBJ
  5
1089
 10
30.01738
 20
28.44995
 30
0.0
 40
0.078
 50
180.0
 51
270.0
  0
ARC
  8
OBJ
  5
108A
 10
30.01738
 20
29.55395
 30
0.0
 40
0.078
 50
90.0
 51
180.0
  0
ARC
  8
OBJ
  5
108B
 10
31.47538
 20
28.44995
 30
0.0
 40
0.078
 50
270.0
 51
0.0
  0
LINE
  8
OBJ
  5
108C
 10
31.684221
 20
28.828584
 30
0.0
 11
31.555078
 21
28.858399
 31
0.0
  0
LINE
  8
OBJ
  6
CONTINUOUS
  5
108D
 10
31.68592
 20
29.48457
 30
0.0
 11
31.55338
 21
29.48457
 31
0.0
  0
LINE
  8
OBJ
  6
CONTINUOUS
  5
108E
 10
31.68592
 20
28.52013
 30
0.0
 11
31.55338
 21
28.52013
 31
0.0
  0
LINE
  8
OBJ
  5
108F
 10
31.55338
 20
28.52013
 30
0.0
 11
31.55338
 21
29.48457
 31
0.0
  0
ARC
  8
OBJ
  5
1090
 10
31.47538
 20
29.55395
 30
0.0
 40
0.078
 50
0.0
 51
90.0
  0
LINE
  8
OBJ
  6
CONTINUOUS
  5
1091
 10
31.99612
 20
28.773225
 30
0.0
 11
31.68592
 21
28.773225
 31
0.0
  0
LINE
  8
OBJ
  6
CONTINUOUS
  5
1092
 10
31.99612
 20
28.5441
 30
0.0
 11
31.68592
 21
28.5441
 31
0.0
  0
LINE
  8
OBJ
  5
1093
 10
32.03842
 20
28.586716
 30
0.0
 11
32.03842
 21
28.773225
 31
0.0
  0
LINE
  8
OBJ
  5
1094
 10
31.99612
 20
28.5441
 30
0.0
 11
32.03842
 21
28.586716
 31
0.0
  0
ARC
  8
OBJ
  5
1095
 10
31.862133
 20
28.658662
 30
0.0
 40
0.176287
 50
319.468605
 51
40.531395
  0
LINE
  8
OBJ
  5
1096
 10
32.03842
 20
28.68735
 30
0.0
 11
32.220809
 21
28.68735
 31
0.0
  0
LINE
  8
OBJ
  6
CONTINUOUS
  5
1097
 10
31.99612
 20
29.4606
 30
0.0
 11
31.68592
 21
29.4606
 31
0.0
  0
LINE
  8
OBJ
  6
CONTINUOUS
  5
1098
 10
31.99612
 20
29.231475
 30
0.0
 11
31.68592
 21
29.231475
 31
0.0
  0
LINE
  8
OBJ
  5
1099
 10
31.99612
 20
29.4606
 30
0.0
 11
32.03842
 21
29.417983
 31
0.0
  0
ARC
  8
OBJ
  5
109A
 10
31.862133
 20
29.346037
 30
0.0
 40
0.176287
 50
319.468605
 51
40.531395
  0
LINE
  8
OBJ
  5
109B
 10
32.03842
 20
29.231475
 30
0.0
 11
32.03842
 21
29.417983
 31
0.0
  0
LINE
  8
OBJ
  5
109C
 10
32.03842
 20
29.31735
 30
0.0
 11
32.220809
 21
29.31735
 31
0.0
  0
LINE
  8
OBJ
  5
109D
 10
31.68592
 20
28.52013
 30
0.0
 11
31.68592
 21
29.48457
 31
0.0
  0
ARC
  8
OBJ
  5
109E
 10
31.396723
 20
29.00235
 30
0.0
 40
0.641697
 50
339.080182
 51
20.919818
  0
LINE
  8
OBJ
  5
109F
 10
32.03842
 20
28.773225
 30
0.0
 11
32.03842
 21
29.231475
 31
0.0
  0
LINE
  8
OBJ
  5
10A0
 10
32.220809
 20
28.68735
 30
0.0
 11
32.220809
 21
29.31735
 31
0.0
  0
ARC
  8
OBJ
  5
10A1
 10
32.157887
 20
29.51495
 30
0.0
 40
0.078
 50
90.0
 51
162.805255
  0
ARC
  8
OBJ
  5
10A2
 10
31.63438
 20
29.67695
 30
0.0
 40
0.47
 50
327.611619
 51
342.805255
  0
LINE
  8
OBJ
  5
10A3
 10
30.01738
 20
31.52195
 30
0.0
 11
31.47538
 21
31.52195
 31
0.0
  0
ARC
  8
OBJ
  5
10A4
 10
30.01738
 20
31.59995
 30
0.0
 40
0.078
 50
180.0
 51
270.0
  0
LINE
  8
OBJ
  5
10A5
 10
31.684221
 20
31.978584
 30
0.0
 11
31.555078
 21
32.008399
 31
0.0
  0
LINE
  8
OBJ
  6
CONTINUOUS
  5
10A6
 10
31.68592
 20
31.67013
 30
0.0
 11
31.55338
 21
31.67013
 31
0.0
  0
ARC
  8
OBJ
  5
10A7
 10
31.47538
 20
31.59995
 30
0.0
 40
0.078
 50
270.0
 51
0.0
  0
LINE
  8
OBJ
  6
CONTINUOUS
  5
10A8
 10
31.99612
 20
31.923225
 30
0.0
 11
31.68592
 21
31.923225
 31
0.0
  0
LINE
  8
OBJ
  6
CONTINUOUS
  5
10A9
 10
31.99612
 20
31.6941
 30
0.0
 11
31.68592
 21
31.6941
 31
0.0
  0
ARC
  8
OBJ
  5
10AA
 10
35.118598
 20
30.720736
 30
0.0
 40
3.270497
 50
160.036573
 51
160.357331
  0
LINE
  8
OBJ
  5
10AB
 10
32.03842
 20
31.736716
 30
0.0
 11
32.03842
 21
31.923225
 31
0.0
  0
LINE
  8
OBJ
  5
10AC
 10
31.99612
 20
31.6941
 30
0.0
 11
32.03842
 21
31.736716
 31
0.0
  0
ARC
  8
OBJ
  5
10AD
 10
31.862133
 20
31.808662
 30
0.0
 40
0.176287
 50
319.468605
 51
40.531395
  0
LINE
  8
OBJ
  5
10AE
 10
32.03842
 20
31.83735
 30
0.0
 11
32.220809
 21
31.83735
 31
0.0
  0
ARC
  8
OBJ
  5
10AF
 10
35.118598
 20
30.720736
 30
0.0
 40
3.270497
 50
160.357331
 51
160.373873
  0
LINE
  8
OBJ
  5
10B0
 10
46.345869
 20
22.149545
 30
0.0
 11
46.315869
 21
22.119545
 31
0.0
  0
LINE
  8
OBJ
  5
10B1
 10
44.575869
 20
22.149545
 30
0.0
 11
44.605869
 21
22.119545
 31
0.0
  0
LINE
  8
OBJ
  5
10B2
 10
45.735869
 20
22.119545
 30
0.0
 11
45.735869
 21
25.706538
 31
0.0
  0
LINE
  8
OBJ
  5
10B3
 10
45.185869
 20
22.119545
 30
0.0
 11
45.185869
 21
25.706538
 31
0.0
  0
LINE
  8
OBJ
  5
10B4
 10
46.315869
 20
22.119545
 30
0.0
 11
44.605869
 21
22.119545
 31
0.0
  0
LINE
  8
OBJ
  5
10B5
 10
32.97138
 20
31.95495
 30
0.0
 11
32.97138
 21
29.59295
 31
0.0
  0
ARC
  8
OBJ
  5
10B6
 10
32.81338
 20
32.03395
 30
0.0
 40
0.079
 50
180.0
 51
270.0
  0
LINE
  8
OBJ
  5
10B7
 10
41.190869
 20
26.836545
 30
0.0
 11
41.190869
 21
28.252527
 31
0.0
  0
LINE
  8
OBJ
  5
10B8
 10
47.250869
 20
26.636545
 30
0.0
 11
43.670869
 21
26.636545
 31
0.0
  0
INSERT
  8
OBJ
  5
10B9
  2
BLTHD
 10
42.855869
 20
26.836545
 30
0.0
 41
-1.0
 50
180.0
  0
LINE
  8
OBJ
  5
10BA
 10
43.670869
 20
26.636545
 30
0.0
 11
43.670869
 21
26.836545
 31
0.0
  0
LINE
  8
OBJ
  5
10BB
 10
46.345869
 20
22.149545
 30
0.0
 11
46.345869
 21
25.994545
 31
0.0
  0
LINE
  8
OBJ
  5
10BC
 10
44.575869
 20
22.149545
 30
0.0
 11
44.575869
 21
25.994545
 31
0.0
  0
LINE
  8
OBJ
  5
10BD
 10
46.345869
 20
22.149545
 30
0.0
 11
45.735869
 21
22.149545
 31
0.0
  0
LINE
  8
OBJ
  5
10BE
 10
44.575869
 20
22.149545
 30
0.0
 11
45.185869
 21
22.149545
 31
0.0
  0
LINE
  8
OBJ
  5
10BF
 10
44.515869
 20
26.049545
 30
0.0
 11
46.405869
 21
26.049545
 31
0.0
  0
ARC
  8
OBJ
  5
10C0
 10
45.460869
 20
25.706538
 30
0.0
 40
0.275
 50
0.0
 51
180.0
  0
ARC
  8
OBJ
  5
10C1
 10
44.520869
 20
25.994545
 30
0.0
 40
0.055
 50
0.0
 51
90.0
  0
LINE
  8
OBJ
  5
10C2
 10
44.520869
 20
26.049545
 30
0.0
 11
44.515869
 21
26.049545
 31
0.0
  0
LINE
  8
OBJ
  5
10C3
 10
44.515869
 20
26.049545
 30
0.0
 11
44.515869
 21
26.636545
 31
0.0
  0
ARC
  8
OBJ
  5
10C4
 10
46.400869
 20
25.994545
 30
0.0
 40
0.055
 50
90.0
 51
180.0
  0
LINE
  8
OBJ
  5
10C5
 10
46.405869
 20
26.049545
 30
0.0
 11
46.400869
 21
26.049545
 31
0.0
  0
LINE
  8
OBJ
  5
10C6
 10
46.405869
 20
26.049545
 30
0.0
 11
46.405869
 21
26.636545
 31
0.0
  0
LINE
  8
OBJ
  5
10C7
 10
47.250869
 20
26.636545
 30
0.0
 11
47.250869
 21
26.836545
 31
0.0
  0
ARC
  8
OBJ
  5
10C8
 10
43.491869
 20
29.00195
 30
0.0
 40
0.708
 50
330.466138
 51
97.113819
  0
LINE
  8
OBJ
  5
10C9
 10
46.870913
 20
28.65295
 30
0.0
 11
44.050825
 21
28.65295
 31
0.0
  0
ARC
  8
OBJ
  5
10CA
 10
45.460869
 20
30.68295
 30
0.0
 40
1.476
 50
180.0
 51
0.0
  0
ARC
  8
OBJ
  5
10CB
 10
43.491869
 20
29.00195
 30
0.0
 40
0.625
 50
103.556888
 51
322.55825
  0
LINE
  8
OBJ
  5
10CC
 10
43.406875
 20
28.22995
 30
0.0
 11
47.514863
 21
28.22995
 31
0.0
  0
LINE
  8
OBJ
  5
10CD
 10
43.679708
 20
30.77395
 30
0.0
 11
47.24203
 21
30.77395
 31
0.0
  0
ARC
  8
OBJ
  5
10CE
 10
93.522528
 20
34.120355
 30
0.0
 40
52.659514
 50
183.191509
 51
186.396845
  0
LINE
  8
OBJ
  5
10CF
 10
43.405236
 20
29.696118
 30
0.0
 11
43.185502
 21
31.456781
 31
0.0
  0
LINE
  8
OBJ
  5
10D0
 10
43.21936
 20
28.252527
 30
0.0
 11
41.190869
 21
28.252527
 31
0.0
  0
ARC
  8
OBJ
  5
10D1
 10
43.406875
 20
29.01995
 30
0.0
 40
0.79
 50
184.177511
 51
270.0
  0
POLYLINE
  8
0
  5
10D2
 66
     1
 10
0.0
 20
0.0
 30
0.0
 70
     1
  0
VERTEX
  8
0
  5
10D3
 10
43.262744
 20
29.398806
 30
0.0
  0
VERTEX
  8
0
  5
10D4
 10
43.033619
 20
29.00195
 30
0.0
  0
VERTEX
  8
0
  5
10D5
 10
43.262744
 20
28.605094
 30
0.0
  0
VERTEX
  8
0
  5
10D6
 10
43.720994
 20
28.605094
 30
0.0
  0
VERTEX
  8
0
  5
10D7
 10
43.950119
 20
29.00195
 30
0.0
  0
VERTEX
  8
0
  5
10D8
 10
43.720994
 20
29.398806
 30
0.0
  0
SEQEND
  8
0
  5
10D9
  0
CIRCLE
  8
0
  5
10DA
 10
43.491869
 20
29.00195
 30
0.0
 40
0.511454
  0
CIRCLE
  8
0
  5
10DB
 10
43.491869
 20
29.00195
 30
0.0
 40
0.315
  0
ARC
  8
OBJ
  5
10DC
 10
43.326844
 20
29.686335
 30
0.0
 40
0.079
 50
283.556888
 51
7.113819
  0
ARC
  8
OBJ
  5
10DD
 10
44.050825
 20
28.57395
 30
0.0
 40
0.079
 50
90.0
 51
142.55825
  0
CIRCLE
  8
OBJ
  5
10DE
 10
43.491869
 20
29.00195
 30
0.0
 40
0.355
  0
ARC
  8
OBJ
  5
10DF
 10
40.824873
 20
31.181122
 30
0.0
 40
0.12
 50
3.191509
 51
82.219537
  0
ARC
  8
OBJ
  5
10E0
 10
43.10711
 20
31.446998
 30
0.0
 40
0.079
 50
7.113819
 51
90.67075
  0
CIRCLE
  8
OBJ
  5
10E1
 10
45.460869
 20
30.77395
 30
0.0
 40
1.181
  0
LINE
  8
OBJ
  5
10E2
 10
47.516502
 20
29.696118
 30
0.0
 11
47.736236
 21
31.456781
 31
0.0
  0
ARC
  8
OBJ
  5
10E3
 10
47.429869
 20
29.00195
 30
0.0
 40
0.708
 50
82.886181
 51
209.533862
  0
ARC
  8
OBJ
  5
10E4
 10
45.460869
 20
28.61095
 30
0.0
 40
0.203
 50
168.059456
 51
11.940544
  0
ARC
  8
OBJ
  5
10E5
 10
46.870913
 20
28.57395
 30
0.0
 40
0.079
 50
37.44175
 51
90.0
  0
CIRCLE
  8
0
  5
10E6
 10
47.429869
 20
29.00195
 30
0.0
 40
0.315
  0
ARC
  8
OBJ
  5
10E7
 10
47.594894
 20
29.686335
 30
0.0
 40
0.079
 50
172.886181
 51
256.443112
  0
CIRCLE
  8
OBJ
  5
10E8
 10
47.429869
 20
29.00195
 30
0.0
 40
0.355
  0
CIRCLE
  8
OBJ
  5
10E9
 10
45.460869
 20
30.77395
 30
0.0
 40
0.690846
  0
CIRCLE
  8
OBJ
  5
10EA
 10
45.460869
 20
30.77395
 30
0.0
 40
0.769138
  0
CIRCLE
  8
OBJ
  5
10EB
 10
45.460869
 20
30.77395
 30
0.0
 40
0.837
  0
ARC
  8
OBJ
  5
10EC
 10
45.775869
 20
31.993939
 30
0.0
 40
0.079
 50
180.0
 51
255.522488
  0
ARC
  8
OBJ
  5
10ED
 10
45.145869
 20
31.993939
 30
0.0
 40
0.079
 50
284.477512
 51
0.0
  0
ARC
  8
OBJ
  5
10EE
 10
47.814628
 20
31.446998
 30
0.0
 40
0.079
 50
89.32925
 51
172.886181
  0
LINE
  8
OBJ
  5
10EF
 10
3.77678
 20
35.97295
 30
0.0
 11
21.52678
 21
35.97295
 31
0.0
  0
LINE
  8
OBJ
  6
DASHED
  5
10F0
 10
3.77678
 20
36.21295
 30
0.0
 11
21.52678
 21
36.21295
 31
0.0
  0
LINE
  8
OBJ
  5
10F1
 10
3.77678
 20
38.57295
 30
0.0
 11
21.52678
 21
38.57295
 31
0.0
  0
LINE
  8
OBJ
  5
10F2
 10
22.949319
 20
40.10415
 30
0.0
 11
12.718319
 21
40.10415
 31
0.0
  0
LINE
  8
OBJ
  5
10F3
 10
18.449319
 20
39.35415
 30
0.0
 11
9.607761
 21
39.35415
 31
0.0
  0
LINE
  8
0
  6
CENTERX2
  5
10F4
 10
0.385834
 20
34.11995
 30
0.0
 11
34.206911
 21
34.11995
 31
0.0
  0
ARC
  8
OBJ
  5
10F5
 10
2.651868
 20
34.123577
 30
0.0
 40
0.543
 50
110.022588
 51
179.911345
  0
ARC
  8
OBJ
  5
10F6
 10
23.068723
 20
36.738076
 30
0.0
 40
20.922945
 50
171.444137
 51
181.63618
  0
ARC
  8
OBJ
  5
10F7
 10
2.65187
 20
34.125422
 30
0.0
 40
0.543
 50
180.0
 51
249.888752
  0
LINE
  8
OBJ
  5
10F8
 10
9.528773
 20
46.24485
 30
0.0
 11
9.869097
 21
42.192612
 31
0.0
  0
LINE
  8
OBJ
  5
10F9
 10
6.912736
 20
46.243323
 30
0.0
 11
6.57254
 21
42.192612
 31
0.0
  0
LINE
  8
OBJ
  5
10FA
 10
9.869097
 20
42.192612
 30
0.0
 11
6.57254
 21
42.192612
 31
0.0
  0
LINE
  8
OBJ
  5
10FB
 10
5.096051
 20
41.4012
 30
0.0
 11
11.345587
 21
41.4012
 31
0.0
  0
LINE
  8
OBJ
  5
10FC
 10
11.345587
 20
41.556214
 30
0.0
 11
6.001678
 21
41.556214
 31
0.0
  0
LINE
  8
OBJ
  5
10FD
 10
12.518319
 20
41.4012
 30
0.0
 11
3.923319
 21
41.4012
 31
0.0
  0
LINE
  8
OBJ
  6
DASHED
  5
10FE
 10
9.65178
 20
38.33295
 30
0.0
 11
15.65178
 21
38.33295
 31
0.0
  0
ARC
  8
OBJ
  5
10FF
 10
7.58678
 20
37.66295
 30
0.0
 40
0.35
 50
270.0
 51
90.0
  0
CIRCLE
  8
OBJ
  5
1100
 10
6.566819
 20
37.66295
 30
0.0
 40
0.35
  0
ARC
  8
OBJ
  5
1101
 10
5.08678
 20
37.66295
 30
0.0
 40
0.35
 50
90.0
 51
270.0
  0
LINE
  8
OBJ
  5
1102
 10
3.77678
 20
38.57295
 30
0.0
 11
3.77678
 21
35.97295
 31
0.0
  0
LINE
  8
OBJ
  5
1103
 10
3.658319
 20
40.86995
 30
0.0
 11
3.658319
 21
34.11995
 31
0.0
  0
LINE
  8
OBJ
  5
1104
 10
2.418319
 20
36.14495
 30
0.0
 11
2.418319
 21
39.961045
 31
0.0
  0
LINE
  8
OBJ
  5
1105
 10
3.243319
 20
40.86995
 30
0.0
 11
3.243319
 21
34.11995
 31
0.0
  0
LINE
  8
OBJ
  5
1106
 10
5.08678
 20
37.31295
 30
0.0
 11
7.58678
 21
37.31295
 31
0.0
  0
ARC
  8
OBJ
  5
1107
 10
4.908295
 20
39.029888
 30
0.0
 40
3.146998
 50
271.748538
 51
303.786049
  0
ARC
  8
OBJ
  5
1108
 10
4.908295
 20
33.798823
 30
0.0
 40
3.146998
 50
56.213951
 51
88.251462
  0
LINE
  8
OBJ
  5
1109
 10
2.158979
 20
36.107572
 30
0.0
 11
2.158979
 21
34.351412
 31
0.0
  0
LINE
  8
OBJ
  5
110A
 10
3.243319
 20
32.355544
 30
0.0
 11
5.004319
 21
32.355544
 31
0.0
  0
ARC
  8
OBJ
  5
110B
 10
2.527725
 20
33.665389
 30
0.0
 40
0.08
 50
180.0
 51
270.0
  0
ARC
  8
OBJ
  6
CONTINUOUS
  5
110C
 10
2.653725
 20
33.665389
 30
0.0
 40
0.08
 50
180.0
 51
270.0
  0
ARC
  8
OBJ
  5
110D
 10
2.65187
 20
34.125422
 30
0.0
 40
0.543
 50
278.030336
 51
0.0
  0
ARC
  8
OBJ
  5
110E
 10
2.701149
 20
34.11995
 30
0.0
 40
0.543
 50
278.030336
 51
0.0
  0
ARC
  8
OBJ
  5
110F
 10
2.701147
 20
34.118104
 30
0.0
 40
0.543
 50
359.911345
 51
86.279863
  0
ARC
  8
OBJ
  5
1110
 10
2.651868
 20
34.123577
 30
0.0
 40
0.543
 50
359.911345
 51
83.919054
  0
LINE
  8
OBJ
  6
CONTINUOUS
  5
1111
 10
2.448436
 20
34.583925
 30
0.0
 11
2.447724
 21
34.123893
 31
0.0
  0
LINE
  8
OBJ
  6
CONTINUOUS
  5
1112
 10
2.574436
 20
34.58373
 30
0.0
 11
2.573724
 21
34.123698
 31
0.0
  0
LINE
  8
OBJ
  5
1113
 10
2.681554
 20
34.663564
 30
0.0
 11
2.727725
 21
34.123964
 31
0.0
  0
LINE
  8
OBJ
  6
CONTINUOUS
  5
1114
 10
2.70939
 20
34.663521
 30
0.0
 11
2.654559
 21
34.663606
 31
0.0
  0
ARC
  8
OBJ
  5
1115
 10
2.528436
 20
34.583801
 30
0.0
 40
0.08
 50
89.911318
 51
179.911345
  0
LINE
  8
OBJ
  5
1116
 10
2.52856
 20
34.663801
 30
0.0
 11
2.654436
 21
34.663606
 31
0.0
  0
ARC
  8
OBJ
  6
CONTINUOUS
  5
1117
 10
2.654436
 20
34.583606
 30
0.0
 40
0.08
 50
89.911345
 51
179.911345
  0
LINE
  8
OBJ
  6
CONTINUOUS
  5
1118
 10
2.796512
 20
33.585389
 30
0.0
 11
2.653725
 21
33.585389
 31
0.0
  0
LINE
  8
OBJ
  5
1119
 10
2.527725
 20
33.585389
 30
0.0
 11
2.653725
 21
33.585389
 31
0.0
  0
LINE
  8
OBJ
  6
CONTINUOUS
  5
111A
 10
2.447725
 20
33.665389
 30
0.0
 11
2.447725
 21
34.125422
 31
0.0
  0
LINE
  8
OBJ
  6
CONTINUOUS
  5
111B
 10
2.573725
 20
33.665389
 30
0.0
 11
2.573725
 21
34.125422
 31
0.0
  0
LINE
  8
OBJ
  5
111C
 10
2.68072
 20
33.585389
 30
0.0
 11
2.727725
 21
34.124917
 31
0.0
  0
LINE
  8
OBJ
  5
111D
 10
3.243319
 20
36.944356
 30
0.0
 11
5.004319
 21
36.944356
 31
0.0
  0
LINE
  8
OBJ
  5
111E
 10
3.243319
 20
35.884356
 30
0.0
 11
5.004319
 21
35.884356
 31
0.0
  0
ARC
  8
OBJ
  5
111F
 10
2.568319
 20
36.14495
 30
0.0
 40
0.15
 50
180.0
 51
270.0
  0
INSERT
  8
OBJ
  5
1120
  2
BLTHD
 10
3.243319
 20
36.414356
 30
0.0
 41
-1.0
 50
90.0
  0
ARC
  8
OBJ
  5
1121
 10
2.304247
 20
36.14495
 30
0.0
 40
0.15
 50
181.63618
 51
270.0
  0
LINE
  8
OBJ
  5
1122
 10
3.243319
 20
35.99495
 30
0.0
 11
2.304247
 21
35.99495
 31
0.0
  0
LINE
  8
OBJ
  5
1123
 10
2.158979
 20
35.99495
 30
0.0
 11
2.158979
 21
35.949982
 31
0.0
  0
ARC
  8
OBJ
  5
1124
 10
5.903428
 20
41.860188
 30
0.0
 40
0.125026
 50
49.468605
 51
130.531395
  0
LINE
  8
OBJ
  5
1125
 10
5.954454
 20
41.985214
 30
0.0
 11
5.822178
 21
41.985214
 31
0.0
  0
INSERT
  8
OBJ
  5
1126
  2
BLTHD
 10
5.659678
 20
41.4012
 30
0.0
 41
-1.0
  0
LINE
  8
OBJ
  5
1127
 10
3.658319
 20
40.86995
 30
0.0
 11
6.813328
 21
40.86995
 31
0.0
  0
LINE
  8
OBJ
  5
1128
 10
5.08678
 20
38.01295
 30
0.0
 11
7.58678
 21
38.01295
 31
0.0
  0
ARC
  8
OBJ
  5
1129
 10
2.675285
 20
39.806227
 30
0.0
 40
0.3
 50
90.465332
 51
171.444137
  0
LINE
  8
OBJ
  5
112A
 10
3.923319
 20
40.86995
 30
0.0
 11
3.923319
 21
41.4012
 31
0.0
  0
LINE
  8
OBJ
  5
112B
 10
2.672848
 20
40.106217
 30
0.0
 11
3.064319
 21
40.109396
 31
0.0
  0
INSERT
  8
OBJ
  5
112C
  2
BLTHD
 10
3.243319
 20
40.451396
 30
0.0
 41
-1.0
 50
90.0
  0
LINE
  8
OBJ
  5
112D
 10
3.658319
 20
40.86995
 30
0.0
 11
3.243319
 21
40.86995
 31
0.0
  0
LINE
  8
OBJ
  6
CENTER
  5
112E
 10
5.659678
 20
40.43219
 30
0.0
 11
5.659678
 21
42.482022
 31
0.0
  0
LINE
  8
OBJ
  5
112F
 10
5.317678
 20
41.556214
 30
0.0
 11
5.096051
 21
41.556214
 31
0.0
  0
LINE
  8
OBJ
  5
1130
 10
5.334678
 20
41.641214
 30
0.0
 11
5.253678
 21
41.641214
 31
0.0
  0
LINE
  8
OBJ
  5
1131
 10
5.334678
 20
41.735214
 30
0.0
 11
5.317678
 21
41.735214
 31
0.0
  0
LINE
  8
OBJ
  6
CONTINUOUS
  5
1132
 10
5.334678
 20
41.955214
 30
0.0
 11
5.334678
 21
41.735214
 31
0.0
  0
LINE
  8
OBJ
  6
CONTINUOUS
  5
1133
 10
5.317678
 20
41.735214
 30
0.0
 11
5.317678
 21
41.641214
 31
0.0
  0
LINE
  8
OBJ
  5
1134
 10
5.822178
 20
41.985214
 30
0.0
 11
5.497178
 21
41.985214
 31
0.0
  0
ARC
  8
OBJ
  5
1135
 10
5.659678
 20
41.530109
 30
0.0
 40
0.455104
 50
69.080182
 51
110.919818
  0
LINE
  8
OBJ
  6
CONTINUOUS
  5
1136
 10
5.822178
 20
41.955214
 30
0.0
 11
5.822178
 21
41.8302
 31
0.0
  0
LINE
  8
OBJ
  6
CONTINUOUS
  5
1137
 10
5.497178
 20
41.955214
 30
0.0
 11
5.497178
 21
41.8302
 31
0.0
  0
LINE
  8
OBJ
  5
1138
 10
5.497178
 20
41.985214
 30
0.0
 11
5.364903
 21
41.985214
 31
0.0
  0
ARC
  8
OBJ
  5
1139
 10
5.415928
 20
41.860188
 30
0.0
 40
0.125026
 50
49.468605
 51
130.531395
  0
LINE
  8
OBJ
  5
113A
 10
5.334678
 20
41.955214
 30
0.0
 11
5.364903
 21
41.985214
 31
0.0
  0
LINE
  8
OBJ
  6
CONTINUOUS
  5
113B
 10
5.253678
 20
41.641214
 30
0.0
 11
5.253678
 21
41.556214
 31
0.0
  0
LINE
  8
OBJ
  5
113C
 10
5.096051
 20
41.556214
 30
0.0
 11
5.096051
 21
41.4012
 31
0.0
  0
LINE
  8
OBJ
  5
113D
 10
9.65178
 20
38.57295
 30
0.0
 11
9.65178
 21
38.33295
 31
0.0
  0
ARC
  8
OBJ
  5
113E
 10
9.607761
 20
39.60415
 30
0.0
 40
0.25
 50
180.0
 51
270.0
  0
ARC
  8
OBJ
  5
113F
 10
6.813328
 20
40.56995
 30
0.0
 40
0.3
 50
0.0
 51
90.0
  0
LINE
  8
OBJ
  5
1140
 10
5.984678
 20
41.955214
 30
0.0
 11
5.954454
 21
41.985214
 31
0.0
  0
LINE
  8
OBJ
  6
CONTINUOUS
  5
1141
 10
5.984678
 20
41.955214
 30
0.0
 11
5.984678
 21
41.735214
 31
0.0
  0
LINE
  8
OBJ
  6
CONTINUOUS
  5
1142
 10
6.001678
 20
41.735214
 30
0.0
 11
6.001678
 21
41.641214
 31
0.0
  0
LINE
  8
OBJ
  5
1143
 10
6.001678
 20
41.735214
 30
0.0
 11
5.984678
 21
41.735214
 31
0.0
  0
LINE
  8
OBJ
  5
1144
 10
6.021143
 20
41.641214
 30
0.0
 11
5.984678
 21
41.641214
 31
0.0
  0
LINE
  8
OBJ
  5
1145
 10
5.984678
 20
41.604749
 30
0.0
 11
6.57254
 21
42.192612
 31
0.0
  0
POLYLINE
  8
OBJ
  5
1146
 66
     1
 10
0.0
 20
0.0
 30
0.0
 70
     1
  0
VERTEX
  8
OBJ
  5
1147
 10
12.308319
 20
35.072578
 30
0.0
  0
VERTEX
  8
OBJ
  5
1148
 10
12.858319
 20
34.11995
 30
0.0
  0
VERTEX
  8
OBJ
  5
1149
 10
12.308319
 20
33.167322
 30
0.0
  0
VERTEX
  8
OBJ
  5
114A
 10
11.208319
 20
33.167322
 30
0.0
  0
VERTEX
  8
OBJ
  5
114B
 10
10.658319
 20
34.11995
 30
0.0
  0
VERTEX
  8
OBJ
  5
114C
 10
11.208319
 20
35.072578
 30
0.0
  0
SEQEND
  8
OBJ
  5
114D
  0
CIRCLE
  8
OBJ
  5
114E
 10
11.758319
 20
34.11995
 30
0.0
 40
0.785
  0
CIRCLE
  8
OBJ
  5
114F
 10
11.758319
 20
34.11995
 30
0.0
 40
0.059508
  0
ARC
  8
OBJ
  5
1150
 10
15.296319
 20
34.11995
 30
0.0
 40
0.492
 50
28.10017
 51
151.89983
  0
ARC
  8
OBJ
  5
1151
 10
15.296319
 20
34.11995
 30
0.0
 40
0.540588
 50
21.713606
 51
158.286394
  0
LINE
  8
OBJ
  5
1152
 10
16.047319
 20
34.31995
 30
0.0
 11
14.545319
 21
34.31995
 31
0.0
  0
LINE
  8
OBJ
  5
1153
 10
16.047319
 20
33.91995
 30
0.0
 11
14.545319
 21
33.91995
 31
0.0
  0
ARC
  8
OBJ
  5
1154
 10
15.296319
 20
34.11995
 30
0.0
 40
0.492
 50
208.10017
 51
331.89983
  0
ARC
  8
OBJ
  5
1155
 10
15.296319
 20
34.11995
 30
0.0
 40
0.540588
 50
201.713606
 51
338.286394
  0
ARC
  8
OBJ
  5
1156
 10
14.545319
 20
34.11995
 30
0.0
 40
0.2
 50
90.0
 51
270.0
  0
ARC
  8
OBJ
  5
1157
 10
14.809386
 20
33.85995
 30
0.0
 40
0.06
 50
28.10017
 51
90.0
  0
ARC
  8
OBJ
  5
1158
 10
14.809386
 20
34.37995
 30
0.0
 40
0.06
 50
270.0
 51
331.89983
  0
ARC
  8
OBJ
  5
1159
 10
16.047319
 20
34.11995
 30
0.0
 40
0.2
 50
270.0
 51
90.0
  0
ARC
  8
OBJ
  5
115A
 10
15.783252
 20
33.85995
 30
0.0
 40
0.06
 50
90.0
 51
151.89983
  0
ARC
  8
OBJ
  5
115B
 10
15.783252
 20
34.37995
 30
0.0
 40
0.06
 50
208.10017
 51
270.0
  0
ARC
  8
OBJ
  5
115C
 10
13.117987
 20
39.953817
 30
0.0
 40
0.599668
 50
180.0
 51
270.0
  0
LINE
  8
OBJ
  6
CENTER
  5
115D
 10
10.78196
 20
40.43219
 30
0.0
 11
10.78196
 21
42.482022
 31
0.0
  0
INSERT
  8
OBJ
  5
115E
  2
BLTHD
 10
10.78196
 20
41.556214
 30
0.0
 41
-1.0
  0
LINE
  8
OBJ
  5
115F
 10
10.420495
 20
41.641214
 30
0.0
 11
9.869097
 21
42.192612
 31
0.0
  0
LINE
  8
OBJ
  5
1160
 10
11.345587
 20
41.556214
 30
0.0
 11
11.345587
 21
41.4012
 31
0.0
  0
LINE
  8
OBJ
  5
1161
 10
10.76576
 20
41.556214
 30
0.0
 11
10.76576
 21
41.4012
 31
0.0
  0
LINE
  8
OBJ
  5
1162
 10
12.518319
 20
40.30415
 30
0.0
 11
12.518319
 21
41.4012
 31
0.0
  0
ARC
  8
OBJ
  5
1163
 10
12.718319
 20
40.30415
 30
0.0
 40
0.2
 50
180.0
 51
270.0
  0
LINE
  8
OBJ
  5
1164
 10
12.518319
 20
40.30415
 30
0.0
 11
12.518319
 21
39.953817
 31
0.0
  0
LINE
  8
OBJ
  5
1165
 10
15.65178
 20
38.57295
 30
0.0
 11
15.65178
 21
38.33295
 31
0.0
  0
LINE
  8
OBJ
  5
1166
 10
9.429124
 20
46.336481
 30
0.0
 11
7.012502
 21
46.336481
 31
0.0
  0
LINE
  8
OBJ
  5
1167
 10
9.429124
 20
46.331467
 30
0.0
 11
6.990877
 21
46.331467
 31
0.0
  0
ARC
  8
OBJ
  5
1168
 10
7.012502
 20
46.236481
 30
0.0
 40
0.1
 50
90.0
 51
176.076592
  0
ARC
  8
OBJ
  5
1169
 10
9.429124
 20
46.236481
 30
0.0
 40
0.1
 50
3.923408
 51
90.0
  0
LINE
  8
OBJ
  5
116A
 10
32.157887
 20
38.64695
 30
0.0
 11
32.97138
 21
38.64695
 31
0.0
  0
LINE
  8
OBJ
  5
116B
 10
33.90789
 20
37.46595
 30
0.0
 11
31.106461
 21
37.46595
 31
0.0
  0
LINE
  8
OBJ
  5
116C
 10
32.220809
 20
36.28495
 30
0.0
 11
32.97138
 21
36.28495
 31
0.0
  0
LINE
  8
OBJ
  5
116D
 10
31.72631
 20
33.48995
 30
0.0
 11
32.73438
 21
33.48995
 31
0.0
  0
LINE
  8
OBJ
  5
116E
 10
31.55338
 20
33.01795
 30
0.0
 11
32.73438
 21
33.01795
 31
0.0
  0
LINE
  8
OBJ
  5
116F
 10
31.72631
 20
34.74995
 30
0.0
 11
32.65638
 21
34.74995
 31
0.0
  0
LINE
  8
OBJ
  5
1170
 10
31.63138
 20
35.22195
 30
0.0
 11
32.65638
 21
35.22195
 31
0.0
  0
LINE
  8
OBJ
  5
1171
 10
23.419319
 20
32.46735
 30
0.0
 11
29.93938
 21
32.46735
 31
0.0
  0
LINE
  8
OBJ
  5
1172
 10
23.419319
 20
38.92495
 30
0.0
 11
25.311319
 21
38.92495
 31
0.0
  0
LINE
  8
OBJ
  5
1173
 10
23.47828
 20
39.55255
 30
0.0
 11
29.93938
 21
39.55255
 31
0.0
  0
LINE
  8
OBJ
  5
1174
 10
23.47828
 20
38.92255
 30
0.0
 11
29.93938
 21
38.92255
 31
0.0
  0
CIRCLE
  8
OBJ
  6
DASHED2
  5
1175
 10
24.48928
 20
34.11995
 30
0.0
 40
1.475
  0
CIRCLE
  8
OBJ
  6
DASHED2
  5
1176
 10
24.48928
 20
34.11995
 30
0.0
 40
1.088838
  0
CIRCLE
  8
OBJ
  6
DASHED2
  5
1177
 10
24.48928
 20
34.11995
 30
0.0
 40
1.1875
  0
LINE
  8
OBJ
  5
1178
 10
23.47828
 20
36.40255
 30
0.0
 11
29.93938
 21
36.40255
 31
0.0
  0
LINE
  8
OBJ
  5
1179
 10
23.47828
 20
35.77255
 30
0.0
 11
29.93938
 21
35.77255
 31
0.0
  0
CIRCLE
  8
OBJ
  5
117A
 10
22.489319
 20
37.45995
 30
0.0
 40
0.27
  0
CIRCLE
  8
OBJ
  5
117B
 10
22.489319
 20
37.45995
 30
0.0
 40
0.2302
  0
ARC
  8
OBJ
  5
117C
 10
20.21678
 20
37.66295
 30
0.0
 40
0.35
 50
270.0
 51
90.0
  0
CIRCLE
  8
OBJ
  5
117D
 10
19.164819
 20
37.66295
 30
0.0
 40
0.35
  0
LINE
  8
OBJ
  5
117E
 10
21.52678
 20
38.57295
 30
0.0
 11
21.52678
 21
35.97295
 31
0.0
  0
ARC
  8
OBJ
  5
117F
 10
22.489319
 20
37.45995
 30
0.0
 40
0.43
 50
270.0
 51
90.0
  0
ARC
  8
OBJ
  5
1180
 10
17.71678
 20
37.66295
 30
0.0
 40
0.35
 50
90.0
 51
270.0
  0
LINE
  8
OBJ
  5
1181
 10
20.21678
 20
37.31295
 30
0.0
 11
17.71678
 21
37.31295
 31
0.0
  0
LINE
  8
OBJ
  5
1182
 10
22.489319
 20
34.54995
 30
0.0
 11
21.766138
 21
34.54995
 31
0.0
  0
LINE
  8
OBJ
  5
1183
 10
22.489319
 20
33.68995
 30
0.0
 11
21.766138
 21
33.68995
 31
0.0
  0
ARC
  8
OBJ
  5
1184
 10
21.766138
 20
34.64995
 30
0.0
 40
0.1
 50
180.0
 51
270.0
  0
ARC
  8
OBJ
  5
1185
 10
21.766138
 20
33.58995
 30
0.0
 40
0.1
 50
90.0
 51
180.0
  0
CIRCLE
  8
OBJ
  5
1186
 10
22.489319
 20
34.11995
 30
0.0
 40
0.2302
  0
CIRCLE
  8
OBJ
  5
1187
 10
22.489319
 20
34.11995
 30
0.0
 40
0.27
  0
ARC
  8
OBJ
  5
1188
 10
22.489319
 20
34.11995
 30
0.0
 40
0.43
 50
270.0
 51
90.0
  0
LINE
  8
OBJ
  5
1189
 10
24.48928
 20
33.600289
 30
0.0
 11
24.48928
 21
34.639611
 31
0.0
  0
LINE
  8
OBJ
  5
118A
 10
22.489319
 20
37.02995
 30
0.0
 11
21.403254
 21
37.02995
 31
0.0
  0
ARC
  8
OBJ
  5
118B
 10
21.403254
 20
36.92995
 30
0.0
 40
0.1
 50
90.0
 51
180.0
  0
LINE
  8
OBJ
  5
118C
 10
19.449319
 20
40.10415
 30
0.0
 11
18.449319
 21
39.35415
 31
0.0
  0
LINE
  8
OBJ
  5
118D
 10
20.21678
 20
38.01295
 30
0.0
 11
17.71678
 21
38.01295
 31
0.0
  0
LINE
  8
OBJ
  5
118E
 10
22.489319
 20
37.88995
 30
0.0
 11
21.403254
 21
37.88995
 31
0.0
  0
ARC
  8
OBJ
  5
118F
 10
21.403254
 20
37.98995
 30
0.0
 40
0.1
 50
180.0
 51
270.0
  0
LINE
  8
OBJ
  5
1190
 10
21.303254
 20
38.048391
 30
0.0
 11
21.303254
 21
37.98995
 31
0.0
  0
LINE
  8
OBJ
  5
1191
 10
22.949319
 20
40.00995
 30
0.0
 11
23.419319
 21
40.00995
 31
0.0
  0
LINE
  8
OBJ
  5
1192
 10
22.949319
 20
40.10415
 30
0.0
 11
22.949319
 21
40.10415
 31
0.0
  0
LINE
  8
OBJ
  5
1193
 10
31.55338
 20
34.964038
 30
0.0
 11
31.55338
 21
39.78995
 31
0.0
  0
LINE
  8
OBJ
  5
1194
 10
29.93938
 20
34.999618
 30
0.0
 11
29.93938
 21
39.78995
 31
0.0
  0
LINE
  8
OBJ
  5
1195
 10
25.311319
 20
36.40255
 30
0.0
 11
25.311319
 21
38.92495
 31
0.0
  0
LINE
  8
OBJ
  5
1196
 10
29.03438
 20
36.40255
 30
0.0
 11
29.03438
 21
38.92255
 31
0.0
  0
ARC
  8
OBJ
  5
1197
 10
35.118598
 20
37.519164
 30
0.0
 40
3.270497
 50
159.765834
 51
197.319678
  0
LINE
  8
OBJ
  5
1198
 10
25.311319
 20
32.82495
 30
0.0
 11
29.03438
 21
32.82495
 31
0.0
  0
LINE
  8
OBJ
  5
1199
 10
25.311319
 20
35.41495
 30
0.0
 11
29.03438
 21
35.41495
 31
0.0
  0
LINE
  8
OBJ
  5
119A
 10
25.311319
 20
32.46735
 30
0.0
 11
25.311319
 21
35.77255
 31
0.0
  0
LINE
  8
OBJ
  5
119B
 10
29.03438
 20
32.46735
 30
0.0
 11
29.03438
 21
35.77255
 31
0.0
  0
CIRCLE
  8
OBJ
  5
119C
 10
30.72738
 20
34.11995
 30
0.0
 40
0.880097
  0
CIRCLE
  8
OBJ
  5
119D
 10
30.72738
 20
34.11995
 30
0.0
 40
0.743695
  0
CIRCLE
  8
OBJ
  5
119E
 10
30.72738
 20
34.11995
 30
0.0
 40
0.837
  0
LINE
  8
OBJ
  5
119F
 10
30.72738
 20
32.454369
 30
0.0
 11
30.72738
 21
35.785531
 31
0.0
  0
CIRCLE
  8
OBJ
  5
11A0
 10
30.72738
 20
34.11995
 30
0.0
 40
1.181
  0
LINE
  8
OBJ
  5
11A1
 10
30.01738
 20
32.78195
 30
0.0
 11
31.47538
 21
32.78195
 31
0.0
  0
ARC
  8
OBJ
  5
11A2
 10
30.01738
 20
32.70395
 30
0.0
 40
0.078
 50
90.0
 51
180.0
  0
LINE
  8
OBJ
  5
11A3
 10
32.10438
 20
33.48995
 30
0.0
 11
32.10438
 21
34.67195
 31
0.0
  0
LINE
  8
OBJ
  6
CONTINUOUS
  5
11A4
 10
31.68592
 20
32.63457
 30
0.0
 11
31.55338
 21
32.63457
 31
0.0
  0
ARC
  8
OBJ
  5
11A5
 10
31.47538
 20
32.70395
 30
0.0
 40
0.078
 50
0.0
 51
90.0
  0
LINE
  8
OBJ
  6
CONTINUOUS
  5
11A6
 10
31.99612
 20
32.381475
 30
0.0
 11
31.68592
 21
32.381475
 31
0.0
  0
LINE
  8
OBJ
  5
11A7
 10
32.03842
 20
32.46735
 30
0.0
 11
32.220809
 21
32.46735
 31
0.0
  0
LINE
  8
OBJ
  6
CONTINUOUS
  5
11A8
 10
31.99612
 20
32.6106
 30
0.0
 11
31.68592
 21
32.6106
 31
0.0
  0
LINE
  8
OBJ
  5
11A9
 10
31.99612
 20
32.6106
 30
0.0
 11
32.03842
 21
32.567983
 31
0.0
  0
ARC
  8
OBJ
  5
11AA
 10
31.862133
 20
32.496037
 30
0.0
 40
0.176287
 50
319.468605
 51
40.531395
  0
LINE
  8
OBJ
  5
11AB
 10
32.03842
 20
32.381475
 30
0.0
 11
32.03842
 21
32.567983
 31
0.0
  0
ARC
  8
OBJ
  5
11AC
 10
32.18238
 20
33.56795
 30
0.0
 40
0.078
 50
180.0
 51
270.0
  0
ARC
  8
OBJ
  5
11AD
 10
32.18238
 20
32.93995
 30
0.0
 40
0.078
 50
90.0
 51
180.0
  0
LINE
  8
OBJ
  5
11AE
 10
32.10438
 20
32.93995
 30
0.0
 11
32.10438
 21
32.46735
 31
0.0
  0
ARC
  8
OBJ
  5
11AF
 10
32.18238
 20
34.67195
 30
0.0
 40
0.078
 50
90.0
 51
180.0
  0
LINE
  8
OBJ
  5
11B0
 10
30.01738
 20
36.71795
 30
0.0
 11
31.47538
 21
36.71795
 31
0.0
  0
LINE
  8
OBJ
  5
11B1
 10
30.01738
 20
35.45795
 30
0.0
 11
31.47538
 21
35.45795
 31
0.0
  0
ARC
  8
OBJ
  5
11B2
 10
30.01738
 20
35.53595
 30
0.0
 40
0.078
 50
180.0
 51
270.0
  0
ARC
  8
OBJ
  5
11B3
 10
30.01738
 20
36.63995
 30
0.0
 40
0.078
 50
90.0
 51
180.0
  0
LINE
  8
OBJ
  5
11B4
 10
32.220809
 20
36.40255
 30
0.0
 11
32.220809
 21
35.77255
 31
0.0
  0
LINE
  8
OBJ
  5
11B5
 10
32.03842
 20
36.316675
 30
0.0
 11
32.03842
 21
35.858425
 31
0.0
  0
ARC
  8
OBJ
  5
11B6
 10
31.396723
 20
36.08755
 30
0.0
 40
0.641697
 50
339.080182
 51
20.919818
  0
LINE
  8
OBJ
  5
11B7
 10
31.68592
 20
36.56977
 30
0.0
 11
31.68592
 21
35.60533
 31
0.0
  0
LINE
  8
OBJ
  5
11B8
 10
31.55338
 20
36.56977
 30
0.0
 11
31.55338
 21
35.60533
 31
0.0
  0
LINE
  8
OBJ
  6
CONTINUOUS
  5
11B9
 10
31.68592
 20
35.60533
 30
0.0
 11
31.55338
 21
35.60533
 31
0.0
  0
ARC
  8
OBJ
  5
11BA
 10
31.63138
 20
35.29995
 30
0.0
 40
0.078
 50
180.0
 51
270.0
  0
ARC
  8
OBJ
  5
11BB
 10
31.47538
 20
35.53595
 30
0.0
 40
0.078
 50
270.0
 51
0.0
  0
ARC
  8
OBJ
  5
11BC
 10
32.18238
 20
35.29995
 30
0.0
 40
0.078
 50
180.0
 51
270.0
  0
LINE
  8
OBJ
  5
11BD
 10
32.03842
 20
35.77255
 30
0.0
 11
32.220809
 21
35.77255
 31
0.0
  0
LINE
  8
OBJ
  5
11BE
 10
32.03842
 20
35.858425
 30
0.0
 11
32.03842
 21
35.671916
 31
0.0
  0
ARC
  8
OBJ
  5
11BF
 10
31.862133
 20
35.743862
 30
0.0
 40
0.176287
 50
319.468605
 51
40.531395
  0
LINE
  8
OBJ
  5
11C0
 10
31.99612
 20
35.6293
 30
0.0
 11
32.03842
 21
35.671916
 31
0.0
  0
LINE
  8
OBJ
  5
11C1
 10
32.10438
 20
35.29995
 30
0.0
 11
32.10438
 21
35.77255
 31
0.0
  0
LINE
  8
OBJ
  6
CONTINUOUS
  5
11C2
 10
31.99612
 20
35.858425
 30
0.0
 11
31.68592
 21
35.858425
 31
0.0
  0
LINE
  8
OBJ
  6
CONTINUOUS
  5
11C3
 10
31.99612
 20
35.6293
 30
0.0
 11
31.68592
 21
35.6293
 31
0.0
  0
LINE
  8
OBJ
  6
CONTINUOUS
  5
11C4
 10
31.68592
 20
36.56977
 30
0.0
 11
31.55338
 21
36.56977
 31
0.0
  0
LINE
  8
OBJ
  5
11C5
 10
31.684221
 20
36.261315
 30
0.0
 11
31.555078
 21
36.2315
 31
0.0
  0
ARC
  8
OBJ
  5
11C6
 10
31.47538
 20
36.63995
 30
0.0
 40
0.078
 50
0.0
 51
90.0
  0
LINE
  8
OBJ
  5
11C7
 10
32.03842
 20
36.40255
 30
0.0
 11
32.220809
 21
36.40255
 31
0.0
  0
ARC
  8
OBJ
  5
11C8
 10
31.862133
 20
36.431237
 30
0.0
 40
0.176287
 50
319.468605
 51
40.531395
  0
LINE
  8
OBJ
  5
11C9
 10
31.99612
 20
36.5458
 30
0.0
 11
32.03842
 21
36.503183
 31
0.0
  0
LINE
  8
OBJ
  5
11CA
 10
32.03842
 20
36.503183
 30
0.0
 11
32.03842
 21
36.316675
 31
0.0
  0
ARC
  8
OBJ
  5
11CB
 10
35.118598
 20
37.519164
 30
0.0
 40
3.270497
 50
199.642669
 51
199.963427
  0
LINE
  8
OBJ
  6
CONTINUOUS
  5
11CC
 10
31.99612
 20
36.5458
 30
0.0
 11
31.68592
 21
36.5458
 31
0.0
  0
LINE
  8
OBJ
  6
CONTINUOUS
  5
11CD
 10
31.99612
 20
36.316675
 30
0.0
 11
31.68592
 21
36.316675
 31
0.0
  0
LINE
  8
OBJ
  5
11CE
 10
25.311319
 20
38.76095
 30
0.0
 11
29.03438
 21
38.76095
 31
0.0
  0
LINE
  8
OBJ
  5
11CF
 10
30.01738
 20
39.86795
 30
0.0
 11
31.47538
 21
39.86795
 31
0.0
  0
LINE
  8
OBJ
  5
11D0
 10
30.01738
 20
38.60795
 30
0.0
 11
31.47538
 21
38.60795
 31
0.0
  0
ARC
  8
OBJ
  5
11D1
 10
30.01738
 20
38.68595
 30
0.0
 40
0.078
 50
180.0
 51
270.0
  0
ARC
  8
OBJ
  5
11D2
 10
30.01738
 20
39.78995
 30
0.0
 40
0.078
 50
90.0
 51
180.0
  0
ARC
  8
OBJ
  5
11D3
 10
32.157887
 20
38.72495
 30
0.0
 40
0.078
 50
197.194745
 51
270.0
  0
ARC
  8
OBJ
  5
11D4
 10
31.47538
 20
38.68595
 30
0.0
 40
0.078
 50
270.0
 51
0.0
  0
LINE
  8
OBJ
  6
CONTINUOUS
  5
11D5
 10
31.68592
 20
39.71977
 30
0.0
 11
31.55338
 21
39.71977
 31
0.0
  0
LINE
  8
OBJ
  6
CONTINUOUS
  5
11D6
 10
31.68592
 20
38.75533
 30
0.0
 11
31.55338
 21
38.75533
 31
0.0
  0
LINE
  8
OBJ
  5
11D7
 10
31.684221
 20
39.411315
 30
0.0
 11
31.555078
 21
39.3815
 31
0.0
  0
ARC
  8
OBJ
  5
11D8
 10
31.47538
 20
39.78995
 30
0.0
 40
0.078
 50
0.0
 51
90.0
  0
LINE
  8
OBJ
  5
11D9
 10
31.55338
 20
39.71977
 30
0.0
 11
31.55338
 21
38.75533
 31
0.0
  0
LINE
  8
OBJ
  5
11DA
 10
32.220809
 20
39.55255
 30
0.0
 11
32.220809
 21
38.92255
 31
0.0
  0
LINE
  8
OBJ
  5
11DB
 10
32.03842
 20
39.55255
 30
0.0
 11
32.220809
 21
39.55255
 31
0.0
  0
LINE
  8
OBJ
  5
11DC
 10
32.03842
 20
38.92255
 30
0.0
 11
32.220809
 21
38.92255
 31
0.0
  0
LINE
  8
OBJ
  5
11DD
 10
32.03842
 20
39.008425
 30
0.0
 11
32.03842
 21
38.821916
 31
0.0
  0
ARC
  8
OBJ
  5
11DE
 10
31.862133
 20
38.893862
 30
0.0
 40
0.176287
 50
319.468605
 51
40.531395
  0
LINE
  8
OBJ
  5
11DF
 10
32.03842
 20
39.466675
 30
0.0
 11
32.03842
 21
39.008425
 31
0.0
  0
ARC
  8
OBJ
  5
11E0
 10
31.862133
 20
39.581237
 30
0.0
 40
0.176287
 50
319.468605
 51
40.531395
  0
ARC
  8
OBJ
  5
11E1
 10
31.396723
 20
39.23755
 30
0.0
 40
0.641697
 50
339.080182
 51
20.919818
  0
LINE
  8
OBJ
  5
11E2
 10
31.99612
 20
39.6958
 30
0.0
 11
32.03842
 21
39.653183
 31
0.0
  0
LINE
  8
OBJ
  5
11E3
 10
32.03842
 20
39.653183
 30
0.0
 11
32.03842
 21
39.466675
 31
0.0
  0
LINE
  8
OBJ
  5
11E4
 10
31.99612
 20
38.7793
 30
0.0
 11
32.03842
 21
38.821916
 31
0.0
  0
ARC
  8
OBJ
  5
11E5
 10
31.63438
 20
38.56295
 30
0.0
 40
0.47
 50
17.194745
 51
32.388381
  0
LINE
  8
OBJ
  5
11E6
 10
31.68592
 20
39.71977
 30
0.0
 11
31.68592
 21
38.75533
 31
0.0
  0
LINE
  8
OBJ
  6
CONTINUOUS
  5
11E7
 10
31.99612
 20
39.6958
 30
0.0
 11
31.68592
 21
39.6958
 31
0.0
  0
LINE
  8
OBJ
  6
CONTINUOUS
  5
11E8
 10
31.99612
 20
39.466675
 30
0.0
 11
31.68592
 21
39.466675
 31
0.0
  0
LINE
  8
OBJ
  6
CONTINUOUS
  5
11E9
 10
31.99612
 20
39.008425
 30
0.0
 11
31.68592
 21
39.008425
 31
0.0
  0
LINE
  8
OBJ
  6
CONTINUOUS
  5
11EA
 10
31.99612
 20
38.7793
 30
0.0
 11
31.68592
 21
38.7793
 31
0.0
  0
LINE
  8
OBJ
  5
11EB
 10
46.768823
 20
46.246195
 30
0.0
 11
47.109147
 21
42.193957
 31
0.0
  0
LINE
  8
OBJ
  5
11EC
 10
44.152786
 20
46.244668
 30
0.0
 11
43.812591
 21
42.193957
 31
0.0
  0
ARC
  8
OBJ
  5
11ED
 10
40.255169
 20
34.839545
 30
0.0
 40
0.06
 50
90.0
 51
169.786344
  0
ARC
  8
OBJ
  5
11EE
 10
40.255169
 20
33.399545
 30
0.0
 40
0.06
 50
190.213656
 51
270.0
  0
LINE
  8
OBJ
  5
11EF
 10
40.967595
 20
34.31995
 30
0.0
 11
39.601015
 21
34.31995
 31
0.0
  0
LINE
  8
OBJ
  5
11F0
 10
40.967595
 20
33.91995
 30
0.0
 11
39.601015
 21
33.91995
 31
0.0
  0
LINE
  8
OBJ
  5
11F1
 10
41.090669
 20
34.11995
 30
0.0
 11
38.634343
 21
34.11995
 31
0.0
  0
LINE
  8
OBJ
  5
11F2
 10
32.97138
 20
36.28495
 30
0.0
 11
32.97138
 21
38.64695
 31
0.0
  0
LINE
  8
OBJ
  5
11F3
 10
32.73438
 20
34.11995
 30
0.0
 11
32.73438
 21
36.20595
 31
0.0
  0
ARC
  8
OBJ
  5
11F4
 10
32.65638
 20
33.41195
 30
0.0
 40
0.078
 50
0.0
 51
90.0
  0
LINE
  8
OBJ
  5
11F5
 10
32.73438
 20
33.41195
 30
0.0
 11
32.73438
 21
33.399949
 31
0.0
  0
ARC
  8
OBJ
  5
11F6
 10
32.65638
 20
33.09595
 30
0.0
 40
0.078
 50
270.0
 51
0.0
  0
LINE
  8
OBJ
  5
11F7
 10
32.73438
 20
34.82795
 30
0.0
 11
32.73438
 21
34.83995
 31
0.0
  0
ARC
  8
OBJ
  5
11F8
 10
32.65638
 20
34.82795
 30
0.0
 40
0.078
 50
270.0
 51
360.0
  0
ARC
  8
OBJ
  5
11F9
 10
32.65638
 20
35.14395
 30
0.0
 40
0.078
 50
0.0
 51
90.0
  0
ARC
  8
OBJ
  5
11FA
 10
32.81338
 20
36.20595
 30
0.0
 40
0.079
 50
90.0
 51
180.0
  0
ARC
  8
OBJ
  5
11FB
 10
44.251296
 20
34.119545
 30
0.0
 40
4.120471
 50
182.776485
 51
190.213656
  0
ARC
  8
OBJ
  5
11FC
 10
44.251296
 20
34.119545
 30
0.0
 40
4.120471
 50
169.786344
 51
177.212238
  0
ARC
  8
OBJ
  5
11FD
 10
39.601015
 20
34.11995
 30
0.0
 40
0.2
 50
90.0
 51
270.0
  0
CIRCLE
  8
OBJ
  5
11FE
 10
45.460869
 20
37.46595
 30
0.0
 40
1.181
  0
LINE
  8
OBJ
  5
11FF
 10
43.405236
 20
38.543781
 30
0.0
 11
43.185502
 21
36.783118
 31
0.0
  0
LINE
  8
OBJ
  5
1200
 10
43.984869
 20
37.55695
 30
0.0
 11
43.984869
 21
35.30095
 31
0.0
  0
LINE
  8
OBJ
  5
1201
 10
46.936869
 20
35.30095
 30
0.0
 11
46.936869
 21
37.55695
 31
0.0
  0
CIRCLE
  8
OBJ
  5
1202
 10
45.460869
 20
37.46595
 30
0.0
 40
0.837
  0
CIRCLE
  8
OBJ
  5
1203
 10
45.460869
 20
37.46595
 30
0.0
 40
0.769138
  0
CIRCLE
  8
OBJ
  5
1204
 10
45.460869
 20
37.46595
 30
0.0
 40
0.690846
  0
LINE
  8
OBJ
  5
1205
 10
47.516502
 20
38.543781
 30
0.0
 11
47.736236
 21
36.783118
 31
0.0
  0
ARC
  8
OBJ
  5
1206
 10
93.522528
 20
34.119545
 30
0.0
 40
52.659514
 50
173.603155
 51
176.808491
  0
LINE
  8
OBJ
  5
1207
 10
43.591869
 20
35.22195
 30
0.0
 11
45.145869
 21
35.22195
 31
0.0
  0
LINE
  8
OBJ
  5
1208
 10
43.591869
 20
34.74995
 30
0.0
 11
45.145869
 21
34.74995
 31
0.0
  0
LINE
  8
OBJ
  5
1209
 10
43.591869
 20
33.48995
 30
0.0
 11
45.145869
 21
33.48995
 31
0.0
  0
LINE
  8
OBJ
  5
120A
 10
43.591869
 20
33.01795
 30
0.0
 11
45.145869
 21
33.01795
 31
0.0
  0
LINE
  8
OBJ
  5
120B
 10
42.510869
 20
32.949825
 30
0.0
 11
42.510869
 21
35.290075
 31
0.0
  0
LINE
  8
OBJ
  5
120C
 10
40.639824
 20
34.31995
 30
0.0
 11
40.639824
 21
35.069545
 31
0.0
  0
ARC
  8
OBJ
  5
120D
 10
40.64093
 20
34.947162
 30
0.0
 40
0.361106
 50
130.184879
 51
229.815121
  0
LINE
  8
OBJ
  6
CONTINUOUS
  5
120E
 10
40.279824
 20
35.099543
 30
0.0
 11
40.279824
 21
34.67129
 31
0.0
  0
LINE
  8
OBJ
  6
CONTINUOUS
  5
120F
 10
40.639824
 20
35.223035
 30
0.0
 11
40.639824
 21
34.31995
 31
0.0
  0
ARC
  8
0
  5
1210
 10
41.322773
 20
33.731135
 30
0.0
 40
0.186973
 50
213.495739
 51
273.741164
  0
LINE
  8
OBJ
  5
1211
 10
41.363015
 20
34.665402
 30
0.0
 11
41.363015
 21
33.574497
 31
0.0
  0
LINE
  8
OBJ
  6
CONTINUOUS
  5
1212
 10
40.639824
 20
33.91995
 30
0.0
 11
40.639824
 21
33.016055
 31
0.0
  0
LINE
  8
OBJ
  6
CONTINUOUS
  5
1213
 10
40.279824
 20
33.91995
 30
0.0
 11
40.279824
 21
33.5678
 31
0.0
  0
ARC
  8
OBJ
  5
1214
 10
41.532096
 20
34.119545
 30
0.0
 40
1.252272
 50
189.171274
 51
206.141856
  0
LINE
  8
OBJ
  5
1215
 10
40.639824
 20
33.169545
 30
0.0
 11
40.639824
 21
33.91995
 31
0.0
  0
ARC
  8
OBJ
  5
1216
 10
40.945634
 20
33.069545
 30
0.0
 40
0.1
 50
357.296895
 51
90.0
  0
LINE
  8
OBJ
  5
1217
 10
40.407924
 20
33.016055
 30
0.0
 11
40.279824
 21
33.139546
 31
0.0
  0
ARC
  8
OBJ
  5
1218
 10
40.64093
 20
33.291927
 30
0.0
 40
0.361106
 50
130.184879
 51
229.815121
  0
LINE
  8
OBJ
  6
CONTINUOUS
  5
1219
 10
40.279824
 20
33.5678
 30
0.0
 11
40.279824
 21
33.139546
 31
0.0
  0
LINE
  8
OBJ
  5
121A
 10
40.279824
 20
33.339545
 30
0.0
 11
40.255169
 21
33.339545
 31
0.0
  0
LINE
  8
OBJ
  5
121B
 10
40.639824
 20
33.297545
 30
0.0
 11
40.640824
 21
33.297545
 31
0.0
  0
LINE
  8
OBJ
  5
121C
 10
40.407924
 20
33.5678
 30
0.0
 11
40.639824
 21
33.5678
 31
0.0
  0
LINE
  8
OBJ
  5
121D
 10
40.407924
 20
33.016055
 30
0.0
 11
40.639824
 21
33.016055
 31
0.0
  0
ARC
  8
OBJ
  5
121E
 10
40.769141
 20
32.459049
 30
0.0
 40
0.12
 50
282.774852
 51
1.80288
  0
LINE
  8
OBJ
  5
121F
 10
40.639824
 20
33.169545
 30
0.0
 11
40.945634
 21
33.169545
 31
0.0
  0
ARC
  8
0
  5
1220
 10
41.333015
 20
33.574497
 30
0.0
 40
0.03
 50
273.741164
 51
0.0
  0
ARC
  8
0
  5
1221
 10
41.322773
 20
34.508764
 30
0.0
 40
0.186973
 50
86.258836
 51
146.504261
  0
LINE
  8
OBJ
  5
1222
 10
41.363015
 20
34.61195
 30
0.0
 11
41.003015
 21
34.61195
 31
0.0
  0
LINE
  8
OBJ
  5
1223
 10
41.363015
 20
33.62795
 30
0.0
 11
41.003015
 21
33.62795
 31
0.0
  0
ARC
  8
OBJ
  5
1224
 10
40.967595
 20
34.11995
 30
0.0
 40
0.2
 50
270.0
 51
302.398799
  0
ARC
  8
OBJ
  5
1225
 10
40.967595
 20
34.11995
 30
0.0
 40
0.2
 50
57.601201
 51
90.0
  0
ARC
  8
OBJ
  5
1226
 10
41.532096
 20
34.119545
 30
0.0
 40
1.252272
 50
153.858144
 51
170.791183
  0
ARC
  8
OBJ
  5
1227
 10
40.853015
 20
34.36995
 30
0.0
 40
0.05
 50
270.0
 51
0.0
  0
LINE
  8
OBJ
  5
1228
 10
40.903015
 20
34.51195
 30
0.0
 11
40.903015
 21
34.379344
 31
0.0
  0
LINE
  8
OBJ
  6
CONTINUOUS
  5
1229
 10
40.279824
 20
34.67129
 30
0.0
 11
40.279824
 21
34.31995
 31
0.0
  0
LINE
  8
OBJ
  5
122A
 10
40.407924
 20
34.67129
 30
0.0
 11
40.639824
 21
34.67129
 31
0.0
  0
ARC
  8
OBJ
  5
122B
 10
40.853015
 20
33.86995
 30
0.0
 40
0.05
 50
360.0
 51
90.0
  0
LINE
  8
OBJ
  5
122C
 10
40.903015
 20
33.879344
 30
0.0
 11
40.903015
 21
33.72795
 31
0.0
  0
ARC
  8
OBJ
  5
122D
 10
41.003015
 20
33.72795
 30
0.0
 40
0.1
 50
180.0
 51
270.0
  0
ARC
  8
OBJ
  5
122E
 10
41.003015
 20
34.51195
 30
0.0
 40
0.1
 50
90.0
 51
180.0
  0
ARC
  8
0
  5
122F
 10
41.333015
 20
34.665402
 30
0.0
 40
0.03
 50
0.0
 51
86.258836
  0
LINE
  8
OBJ
  5
1230
 10
43.984869
 20
34.67095
 30
0.0
 11
43.984869
 21
33.56895
 31
0.0
  0
ARC
  8
OBJ
  5
1231
 10
43.019869
 20
32.850503
 30
0.0
 40
0.079
 50
276.443069
 51
0.0
  0
ARC
  8
OBJ
  5
1232
 10
43.019869
 20
32.85995
 30
0.0
 40
0.079
 50
0.0
 51
90.0
  0
ARC
  8
OBJ
  5
1233
 10
43.019869
 20
33.119383
 30
0.0
 40
0.079
 50
0.0
 51
90.0
  0
LINE
  8
OBJ
  5
1234
 10
42.550869
 20
32.93895
 30
0.0
 11
43.019869
 21
32.93895
 31
0.0
  0
ARC
  8
OBJ
  5
1235
 10
42.550869
 20
33.01795
 30
0.0
 40
0.079
 50
239.580378
 51
270.0
  0
LINE
  8
OBJ
  5
1236
 10
43.098869
 20
32.850503
 30
0.0
 11
43.098869
 21
32.85995
 31
0.0
  0
LINE
  8
OBJ
  5
1237
 10
43.098869
 20
32.850503
 30
0.0
 11
43.098869
 21
33.119383
 31
0.0
  0
ARC
  8
OBJ
  5
1238
 10
43.591869
 20
32.93895
 30
0.0
 40
0.079
 50
90.0
 51
180.0
  0
ARC
  8
OBJ
  5
1239
 10
43.591869
 20
33.56895
 30
0.0
 40
0.079
 50
180.0
 51
270.0
  0
ARC
  8
OBJ
  5
123A
 10
43.905869
 20
32.93895
 30
0.0
 40
0.079
 50
0.0
 51
90.0
  0
ARC
  8
OBJ
  5
123B
 10
43.905869
 20
33.56895
 30
0.0
 40
0.079
 50
270.0
 51
0.0
  0
ARC
  8
OBJ
  5
123C
 10
43.591869
 20
34.67095
 30
0.0
 40
0.079
 50
90.0
 51
180.0
  0
ARC
  8
OBJ
  5
123D
 10
43.905869
 20
34.67095
 30
0.0
 40
0.079
 50
0.0
 51
90.0
  0
ARC
  8
OBJ
  5
123E
 10
40.912869
 20
36.413951
 30
0.0
 40
0.53
 50
97.780463
 51
257.225148
  0
ARC
  8
OBJ
  5
123F
 10
93.522528
 20
34.119545
 30
0.0
 40
52.659514
 50
176.808491
 51
178.966304
  0
ARC
  8
OBJ
  5
1240
 10
40.945634
 20
35.169545
 30
0.0
 40
0.1
 50
270.0
 51
356.683192
  0
ARC
  8
OBJ
  5
1241
 10
40.769141
 20
35.780041
 30
0.0
 40
0.12
 50
358.19712
 51
77.225148
  0
LINE
  8
OBJ
  5
1242
 10
40.407924
 20
35.223035
 30
0.0
 11
40.279824
 21
35.099543
 31
0.0
  0
LINE
  8
OBJ
  5
1243
 10
40.279824
 20
34.899545
 30
0.0
 11
40.255169
 21
34.899545
 31
0.0
  0
LINE
  8
OBJ
  5
1244
 10
40.639824
 20
34.941545
 30
0.0
 11
40.640824
 21
34.941545
 31
0.0
  0
LINE
  8
OBJ
  5
1245
 10
40.407924
 20
35.223035
 30
0.0
 11
40.639824
 21
35.223035
 31
0.0
  0
LINE
  8
OBJ
  5
1246
 10
40.639824
 20
35.069545
 30
0.0
 11
40.945634
 21
35.069545
 31
0.0
  0
ARC
  8
OBJ
  5
1247
 10
40.824873
 20
37.057967
 30
0.0
 40
0.12
 50
277.780463
 51
356.808491
  0
CIRCLE
  8
0
  5
1248
 10
43.098869
 20
36.08895
 30
0.0
 40
0.315
  0
POLYLINE
  8
0
  5
1249
 66
     1
 10
0.0
 20
0.0
 30
0.0
 70
     1
  0
VERTEX
  8
0
  5
124A
 10
42.869744
 20
36.485806
 30
0.0
  0
VERTEX
  8
0
  5
124B
 10
42.640619
 20
36.08895
 30
0.0
  0
VERTEX
  8
0
  5
124C
 10
42.869744
 20
35.692094
 30
0.0
  0
VERTEX
  8
0
  5
124D
 10
43.327994
 20
35.692094
 30
0.0
  0
VERTEX
  8
0
  5
124E
 10
43.557119
 20
36.08895
 30
0.0
  0
VERTEX
  8
0
  5
124F
 10
43.327994
 20
36.485806
 30
0.0
  0
SEQEND
  8
0
  5
1250
  0
CIRCLE
  8
0
  5
1251
 10
43.098869
 20
36.08895
 30
0.0
 40
0.511454
  0
ARC
  8
OBJ
  5
1252
 10
43.098869
 20
36.08895
 30
0.0
 40
0.625
 50
89.32925
 51
263.556931
  0
CIRCLE
  8
OBJ
  5
1253
 10
43.098869
 20
36.08895
 30
0.0
 40
0.355
  0
ARC
  8
OBJ
  5
1254
 10
43.098869
 20
36.08895
 30
0.0
 40
0.708
 50
270.0
 51
82.886181
  0
ARC
  8
OBJ
  5
1255
 10
43.019869
 20
35.389396
 30
0.0
 40
0.079
 50
0.0
 51
83.556931
  0
ARC
  8
OBJ
  5
1256
 10
43.019869
 20
35.120517
 30
0.0
 40
0.079
 50
270.0
 51
0.0
  0
ARC
  8
OBJ
  5
1257
 10
43.019869
 20
35.37995
 30
0.0
 40
0.079
 50
270.0
 51
0.0
  0
ARC
  8
OBJ
  5
1258
 10
42.550869
 20
35.22195
 30
0.0
 40
0.079
 50
90.0
 51
120.419622
  0
LINE
  8
OBJ
  5
1259
 10
42.550869
 20
35.30095
 30
0.0
 11
43.019869
 21
35.30095
 31
0.0
  0
LINE
  8
OBJ
  5
125A
 10
43.098869
 20
35.389396
 30
0.0
 11
43.098869
 21
35.37995
 31
0.0
  0
LINE
  8
OBJ
  5
125B
 10
43.098869
 20
35.389396
 30
0.0
 11
43.098869
 21
35.120517
 31
0.0
  0
ARC
  8
OBJ
  5
125C
 10
43.591869
 20
35.30095
 30
0.0
 40
0.079
 50
180.0
 51
270.0
  0
ARC
  8
OBJ
  5
125D
 10
43.905869
 20
35.30095
 30
0.0
 40
0.079
 50
270.0
 51
0.0
  0
LINE
  8
OBJ
  5
125E
 10
43.984869
 20
35.82495
 30
0.0
 11
43.984869
 21
35.30095
 31
0.0
  0
ARC
  8
OBJ
  5
125F
 10
43.10711
 20
36.792901
 30
0.0
 40
0.079
 50
269.32925
 51
352.886181
  0
ARC
  8
OBJ
  5
1260
 10
47.431143
 20
34.86795
 30
0.0
 40
0.079
 50
140.325187
 51
270.0
  0
LINE
  8
OBJ
  5
1261
 10
47.800025
 20
35.43641
 30
0.0
 11
47.131334
 21
34.630246
 31
0.0
  0
LINE
  8
OBJ
  5
1262
 10
45.775869
 20
34.74995
 30
0.0
 11
47.085703
 21
34.74995
 31
0.0
  0
LINE
  8
OBJ
  5
1263
 10
45.775869
 20
33.48995
 30
0.0
 11
47.085703
 21
33.48995
 31
0.0
  0
LINE
  8
OBJ
  5
1264
 10
45.775869
 20
33.01795
 30
0.0
 11
47.329869
 21
33.01795
 31
0.0
  0
LINE
  8
OBJ
  5
1265
 10
45.224869
 20
33.56895
 30
0.0
 11
45.224869
 21
34.67095
 31
0.0
  0
LINE
  8
OBJ
  5
1266
 10
45.696869
 20
33.56895
 30
0.0
 11
45.696869
 21
34.67095
 31
0.0
  0
ARC
  8
OBJ
  5
1267
 10
45.775869
 20
33.56895
 30
0.0
 40
0.079
 50
180.0
 51
270.0
  0
ARC
  8
OBJ
  5
1268
 10
45.775869
 20
32.93895
 30
0.0
 40
0.079
 50
90.0
 51
180.0
  0
ARC
  8
OBJ
  5
1269
 10
45.145869
 20
32.93895
 30
0.0
 40
0.079
 50
0.0
 51
90.0
  0
ARC
  8
OBJ
  5
126A
 10
45.145869
 20
33.56895
 30
0.0
 40
0.079
 50
270.0
 51
0.0
  0
ARC
  8
OBJ
  5
126B
 10
45.775869
 20
34.67095
 30
0.0
 40
0.079
 50
90.0
 51
180.0
  0
ARC
  8
OBJ
  5
126C
 10
45.145869
 20
34.67095
 30
0.0
 40
0.079
 50
0.0
 51
90.0
  0
ARC
  8
OBJ
  5
126D
 10
47.015869
 20
33.559217
 30
0.0
 40
0.079
 50
90.0
 51
180.0
  0
LINE
  8
OBJ
  5
126E
 10
47.500869
 20
33.45095
 30
0.0
 11
47.500869
 21
34.78895
 31
0.0
  0
LINE
  8
OBJ
  5
126F
 10
47.800025
 20
32.80349
 30
0.0
 11
47.131334
 21
33.609653
 31
0.0
  0
ARC
  8
OBJ
  5
1270
 10
47.015869
 20
33.56895
 30
0.0
 40
0.079
 50
180.0
 51
270.0
  0
ARC
  8
OBJ
  5
1271
 10
47.015869
 20
32.93895
 30
0.0
 40
0.079
 50
90.0
 51
180.0
  0
ARC
  8
OBJ
  5
1272
 10
47.085703
 20
33.56895
 30
0.0
 40
0.079
 50
270.0
 51
0.0
  0
LINE
  8
OBJ
  5
1273
 10
47.431143
 20
33.45095
 30
0.0
 11
47.500869
 21
33.45095
 31
0.0
  0
ARC
  8
OBJ
  5
1274
 10
47.431143
 20
33.37195
 30
0.0
 40
0.079
 50
90.0
 51
219.674813
  0
ARC
  8
OBJ
  5
1275
 10
47.329869
 20
32.93895
 30
0.0
 40
0.079
 50
0.0
 51
90.0
  0
ARC
  8
OBJ
  5
1276
 10
47.86083
 20
32.853925
 30
0.0
 40
0.079
 50
219.674813
 51
266.908992
  0
POLYLINE
  8
OBJ
  5
1277
 66
     1
 10
0.0
 20
0.0
 30
0.0
  0
VERTEX
  8
OBJ
  5
1278
 10
47.015869
 20
34.601682
 30
0.0
 42
0.192532
  0
VERTEX
  8
OBJ
  5
1279
 10
46.94708
 20
34.574174
 30
0.0
 42
0.100231
  0
VERTEX
  8
OBJ
  5
127A
 10
46.86766
 20
34.460586
 30
0.0
 42
0.058086
 70
     2
 50
246.486415
  0
VERTEX
  8
OBJ
  5
127B
 10
46.823781
 20
34.315845
 30
0.0
 42
0.044607
 50
156.486415
  0
VERTEX
  8
OBJ
  5
127C
 10
46.80627
 20
34.11995
 30
0.0
 42
0.044607
  0
VERTEX
  8
OBJ
  5
127D
 10
46.823781
 20
33.924054
 30
0.0
 42
0.058086
  0
VERTEX
  8
OBJ
  5
127E
 10
46.86766
 20
33.779314
 30
0.0
 42
0.100231
 70
     2
 50
293.513585
  0
VERTEX
  8
OBJ
  5
127F
 10
46.94708
 20
33.665725
 30
0.0
 42
0.192532
 50
203.513585
  0
VERTEX
  8
OBJ
  5
1280
 10
47.015869
 20
33.638217
 30
0.0
 42
0.192532
  0
SEQEND
  8
OBJ
  5
1281
  0
LINE
  8
OBJ
  5
1282
 10
46.80627
 20
34.033459
 30
0.0
 11
46.80627
 21
34.196107
 31
0.0
  0
ARC
  8
OBJ
  5
1283
 10
47.015869
 20
34.67095
 30
0.0
 40
0.079
 50
90.0
 51
180.0
  0
ARC
  8
OBJ
  5
1284
 10
47.085703
 20
34.67095
 30
0.0
 40
0.079
 50
0.0
 51
90.0
  0
ARC
  8
OBJ
  5
1285
 10
47.015869
 20
34.680682
 30
0.0
 40
0.079
 50
180.0
 51
270.0
  0
ARC
  8
OBJ
  5
1286
 10
47.070529
 20
34.680682
 30
0.0
 40
0.079
 50
270.0
 51
320.325187
  0
LINE
  8
OBJ
  5
1287
 10
47.015869
 20
34.601682
 30
0.0
 11
47.070529
 21
34.601682
 31
0.0
  0
ARC
  8
OBJ
  5
1288
 10
47.070529
 20
33.559217
 30
0.0
 40
0.079
 50
39.674813
 51
90.0
  0
LINE
  8
OBJ
  5
1289
 10
47.015869
 20
33.638217
 30
0.0
 11
47.070529
 21
33.638217
 31
0.0
  0
LINE
  8
OBJ
  5
128A
 10
47.431143
 20
34.78895
 30
0.0
 11
47.500869
 21
34.78895
 31
0.0
  0
LINE
  8
OBJ
  5
128B
 10
45.775869
 20
35.22195
 30
0.0
 11
47.329869
 21
35.22195
 31
0.0
  0
LINE
  8
OBJ
  5
128C
 10
45.224869
 20
36.24596
 30
0.0
 11
45.224869
 21
35.30095
 31
0.0
  0
LINE
  8
OBJ
  5
128D
 10
45.224869
 20
35.30095
 30
0.0
 11
45.224869
 21
36.24596
 31
0.0
  0
LINE
  8
OBJ
  5
128E
 10
45.696869
 20
36.24596
 30
0.0
 11
45.696869
 21
35.30095
 31
0.0
  0
ARC
  8
OBJ
  5
128F
 10
45.775869
 20
35.30095
 30
0.0
 40
0.079
 50
180.0
 51
270.0
  0
ARC
  8
OBJ
  5
1290
 10
45.145869
 20
35.30095
 30
0.0
 40
0.079
 50
270.0
 51
0.0
  0
ARC
  8
OBJ
  5
1291
 10
45.775869
 20
36.24596
 30
0.0
 40
0.079
 50
104.477512
 51
180.0
  0
ARC
  8
OBJ
  5
1292
 10
45.145869
 20
36.24596
 30
0.0
 40
0.079
 50
0.0
 51
75.522488
  0
ARC
  8
OBJ
  5
1293
 10
47.822869
 20
36.08895
 30
0.0
 40
0.708
 50
97.113819
 51
264.629303
  0
ARC
  8
OBJ
  5
1294
 10
47.015869
 20
35.30095
 30
0.0
 40
0.079
 50
180.0
 51
270.0
  0
ARC
  8
OBJ
  5
1295
 10
47.86083
 20
35.385974
 30
0.0
 40
0.079
 50
93.091008
 51
140.325187
  0
ARC
  8
OBJ
  5
1296
 10
47.329869
 20
35.30095
 30
0.0
 40
0.079
 50
270.0
 51
0.0
  0
ARC
  8
OBJ
  5
1297
 10
47.814628
 20
36.792901
 30
0.0
 40
0.079
 50
187.113819
 51
270.67075
  0
LINE
  8
OBJ
  5
1298
 10
43.406875
 20
40.00995
 30
0.0
 11
47.514863
 21
40.00995
 31
0.0
  0
ARC
  8
OBJ
  5
1299
 10
43.491869
 20
39.23795
 30
0.0
 40
0.708
 50
262.886181
 51
29.533862
  0
ARC
  8
OBJ
  5
129A
 10
45.460869
 20
37.55695
 30
0.0
 40
1.476
 50
0.0
 51
180.0
  0
LINE
  8
OBJ
  5
129B
 10
46.870913
 20
39.58695
 30
0.0
 11
44.050825
 21
39.58695
 31
0.0
  0
LINE
  8
OBJ
  5
129C
 10
43.679708
 20
37.46595
 30
0.0
 11
47.24203
 21
37.46595
 31
0.0
  0
ARC
  8
OBJ
  5
129D
 10
43.491869
 20
39.23795
 30
0.0
 40
0.625
 50
37.44175
 51
256.443112
  0
LINE
  8
OBJ
  5
129E
 10
47.109147
 20
42.193957
 30
0.0
 11
43.812591
 21
42.193957
 31
0.0
  0
ARC
  8
OBJ
  5
129F
 10
43.406875
 20
39.21995
 30
0.0
 40
0.79
 50
90.0
 51
175.822489
  0
ARC
  8
OBJ
  5
12A0
 10
43.326844
 20
38.553565
 30
0.0
 40
0.079
 50
352.886181
 51
76.443112
  0
POLYLINE
  8
0
  5
12A1
 66
     1
 10
0.0
 20
0.0
 30
0.0
 70
     1
  0
VERTEX
  8
0
  5
12A2
 10
43.262744
 20
39.634806
 30
0.0
  0
VERTEX
  8
0
  5
12A3
 10
43.033619
 20
39.23795
 30
0.0
  0
VERTEX
  8
0
  5
12A4
 10
43.262744
 20
38.841094
 30
0.0
  0
VERTEX
  8
0
  5
12A5
 10
43.720994
 20
38.841094
 30
0.0
  0
VERTEX
  8
0
  5
12A6
 10
43.950119
 20
39.23795
 30
0.0
  0
VERTEX
  8
0
  5
12A7
 10
43.720994
 20
39.634806
 30
0.0
  0
SEQEND
  8
0
  5
12A8
  0
CIRCLE
  8
0
  5
12A9
 10
43.491869
 20
39.23795
 30
0.0
 40
0.511454
  0
CIRCLE
  8
0
  5
12AA
 10
43.491869
 20
39.23795
 30
0.0
 40
0.315
  0
ARC
  8
OBJ
  5
12AB
 10
44.050825
 20
39.66595
 30
0.0
 40
0.079
 50
217.44175
 51
270.0
  0
CIRCLE
  8
OBJ
  5
12AC
 10
43.491869
 20
39.23795
 30
0.0
 40
0.355
  0
LINE
  8
OBJ
  5
12AD
 10
43.216076
 20
39.986563
 30
0.0
 11
41.190869
 21
39.986563
 31
0.0
  0
LINE
  8
OBJ
  5
12AE
 10
41.190869
 20
39.986563
 30
0.0
 11
41.190869
 21
41.402545
 31
0.0
  0
LINE
  8
OBJ
  5
12AF
 10
43.194504
 20
41.986559
 30
0.0
 11
43.062228
 21
41.986559
 31
0.0
  0
ARC
  8
OBJ
  5
12B0
 10
43.143478
 20
41.861533
 30
0.0
 40
0.125026
 50
49.468605
 51
130.531395
  0
ARC
  8
OBJ
  5
12B1
 10
43.143478
 20
41.706519
 30
0.0
 40
0.125026
 50
49.468605
 51
130.531395
  0
LINE
  8
OBJ
  5
12B2
 10
43.194504
 20
41.831545
 30
0.0
 11
43.062228
 21
41.831545
 31
0.0
  0
LINE
  8
OBJ
  5
12B3
 10
43.241728
 20
41.581545
 30
0.0
 11
42.557728
 21
41.581545
 31
0.0
  0
LINE
  8
OBJ
  5
12B4
 10
43.305728
 20
41.487545
 30
0.0
 11
42.493728
 21
41.487545
 31
0.0
  0
LINE
  8
OBJ
  5
12B5
 10
43.305728
 20
41.402545
 30
0.0
 11
42.493728
 21
41.402545
 31
0.0
  0
LINE
  8
OBJ
  5
12B6
 10
43.062228
 20
41.956559
 30
0.0
 11
43.062228
 21
41.831545
 31
0.0
  0
LINE
  8
OBJ
  5
12B7
 10
42.737228
 20
41.956559
 30
0.0
 11
42.737228
 21
41.831545
 31
0.0
  0
LINE
  8
OBJ
  5
12B8
 10
42.574728
 20
41.642559
 30
0.0
 11
42.493728
 21
41.642559
 31
0.0
  0
LINE
  8
OBJ
  5
12B9
 10
42.574728
 20
41.736559
 30
0.0
 11
42.557728
 21
41.736559
 31
0.0
  0
LINE
  8
OBJ
  6
CONTINUOUS
  5
12BA
 10
42.493728
 20
41.642559
 30
0.0
 11
42.493728
 21
41.557559
 31
0.0
  0
LINE
  8
OBJ
  6
CONTINUOUS
  5
12BB
 10
42.557728
 20
41.736559
 30
0.0
 11
42.557728
 21
41.642559
 31
0.0
  0
LINE
  8
OBJ
  5
12BC
 10
42.574728
 20
41.956559
 30
0.0
 11
42.604953
 21
41.986559
 31
0.0
  0
ARC
  8
OBJ
  5
12BD
 10
42.655978
 20
41.861533
 30
0.0
 40
0.125026
 50
49.468605
 51
130.531395
  0
LINE
  8
OBJ
  5
12BE
 10
42.737228
 20
41.986559
 30
0.0
 11
42.604953
 21
41.986559
 31
0.0
  0
ARC
  8
OBJ
  5
12BF
 10
42.899728
 20
41.531454
 30
0.0
 40
0.455104
 50
69.080182
 51
110.919818
  0
LINE
  8
OBJ
  5
12C0
 10
43.062228
 20
41.986559
 30
0.0
 11
42.737228
 21
41.986559
 31
0.0
  0
LINE
  8
OBJ
  5
12C1
 10
42.557728
 20
41.557559
 30
0.0
 11
42.336101
 21
41.557559
 31
0.0
  0
LINE
  8
OBJ
  6
CONTINUOUS
  5
12C2
 10
42.574728
 20
41.956559
 30
0.0
 11
42.574728
 21
41.581545
 31
0.0
  0
LINE
  8
OBJ
  6
CONTINUOUS
  5
12C3
 10
42.557728
 20
41.581545
 30
0.0
 11
42.557728
 21
41.487545
 31
0.0
  0
LINE
  8
OBJ
  5
12C4
 10
43.062228
 20
41.831545
 30
0.0
 11
42.737228
 21
41.831545
 31
0.0
  0
ARC
  8
OBJ
  5
12C5
 10
42.899728
 20
41.376441
 30
0.0
 40
0.455104
 50
69.080182
 51
110.919818
  0
LINE
  8
OBJ
  6
CONTINUOUS
  5
12C6
 10
43.062228
 20
41.801545
 30
0.0
 11
43.062228
 21
41.581545
 31
0.0
  0
LINE
  8
OBJ
  6
CONTINUOUS
  5
12C7
 10
42.737228
 20
41.801545
 30
0.0
 11
42.737228
 21
41.581545
 31
0.0
  0
LINE
  8
OBJ
  5
12C8
 10
42.737228
 20
41.831545
 30
0.0
 11
42.604953
 21
41.831545
 31
0.0
  0
LINE
  8
OBJ
  5
12C9
 10
43.012394
 20
41.581545
 30
0.0
 11
43.012394
 21
41.487545
 31
0.0
  0
ARC
  8
OBJ
  5
12CA
 10
42.655978
 20
41.706519
 30
0.0
 40
0.125026
 50
49.468605
 51
130.531395
  0
LINE
  8
OBJ
  5
12CB
 10
42.574728
 20
41.801545
 30
0.0
 11
42.604953
 21
41.831545
 31
0.0
  0
LINE
  8
OBJ
  6
CONTINUOUS
  5
12CC
 10
42.493728
 20
41.487545
 30
0.0
 11
42.493728
 21
41.402545
 31
0.0
  0
LINE
  8
OBJ
  5
12CD
 10
42.336101
 20
41.557559
 30
0.0
 11
42.336101
 21
41.402545
 31
0.0
  0
LINE
  8
OBJ
  5
12CE
 10
43.241728
 20
41.736559
 30
0.0
 11
43.224728
 21
41.736559
 31
0.0
  0
LINE
  8
OBJ
  5
12CF
 10
43.261193
 20
41.642559
 30
0.0
 11
43.224728
 21
41.642559
 31
0.0
  0
LINE
  8
OBJ
  6
CONTINUOUS
  5
12D0
 10
43.241728
 20
41.736559
 30
0.0
 11
43.241728
 21
41.642559
 31
0.0
  0
LINE
  8
OBJ
  5
12D1
 10
43.224728
 20
41.956559
 30
0.0
 11
43.194504
 21
41.986559
 31
0.0
  0
LINE
  8
OBJ
  5
12D2
 10
43.224728
 20
41.801545
 30
0.0
 11
43.194504
 21
41.831545
 31
0.0
  0
LINE
  8
OBJ
  6
CONTINUOUS
  5
12D3
 10
43.224728
 20
41.956559
 30
0.0
 11
43.224728
 21
41.581545
 31
0.0
  0
LINE
  8
OBJ
  6
CONTINUOUS
  5
12D4
 10
43.241728
 20
41.581545
 30
0.0
 11
43.241728
 21
41.487545
 31
0.0
  0
LINE
  8
OBJ
  6
CONTINUOUS
  5
12D5
 10
43.305728
 20
41.487545
 30
0.0
 11
43.305728
 21
41.402545
 31
0.0
  0
LINE
  8
OBJ
  5
12D6
 10
43.224728
 20
41.606094
 30
0.0
 11
43.812591
 21
42.193957
 31
0.0
  0
ARC
  8
OBJ
  5
12D7
 10
45.460869
 20
39.62895
 30
0.0
 40
0.203
 50
348.059456
 51
191.940544
  0
ARC
  8
OBJ
  5
12D8
 10
47.429869
 20
39.23795
 30
0.0
 40
0.708
 50
150.466138
 51
277.113819
  0
ARC
  8
OBJ
  5
12D9
 10
47.594894
 20
38.553565
 30
0.0
 40
0.079
 50
103.556888
 51
187.113819
  0
ARC
  8
OBJ
  5
12DA
 10
46.870913
 20
39.66595
 30
0.0
 40
0.079
 50
270.0
 51
322.55825
  0
CIRCLE
  8
0
  5
12DB
 10
47.429869
 20
39.23795
 30
0.0
 40
0.315
  0
CIRCLE
  8
OBJ
  5
12DC
 10
47.429869
 20
39.23795
 30
0.0
 40
0.355
  0
LINE
  8
OBJ
  6
CONTINUOUS
  5
12DD
 10
47.69701
 20
41.956559
 30
0.0
 11
47.69701
 21
41.736559
 31
0.0
  0
LINE
  8
OBJ
  6
CONTINUOUS
  5
12DE
 10
47.68001
 20
41.736559
 30
0.0
 11
47.68001
 21
41.642559
 31
0.0
  0
LINE
  8
OBJ
  6
CONTINUOUS
  5
12DF
 10
47.85951
 20
41.956559
 30
0.0
 11
47.85951
 21
41.736559
 31
0.0
  0
LINE
  8
OBJ
  5
12E0
 10
47.85951
 20
41.986559
 30
0.0
 11
47.727234
 21
41.986559
 31
0.0
  0
ARC
  8
OBJ
  5
12E1
 10
47.77826
 20
41.861533
 30
0.0
 40
0.125026
 50
49.468605
 51
130.531395
  0
LINE
  8
OBJ
  5
12E2
 10
47.69701
 20
41.956559
 30
0.0
 11
47.727234
 21
41.986559
 31
0.0
  0
LINE
  8
OBJ
  6
CONTINUOUS
  5
12E3
 10
47.61601
 20
41.642559
 30
0.0
 11
47.61601
 21
41.557559
 31
0.0
  0
LINE
  8
OBJ
  5
12E4
 10
47.660545
 20
41.642559
 30
0.0
 11
47.109147
 21
42.193957
 31
0.0
  0
LINE
  8
OBJ
  5
12E5
 10
46.669174
 20
46.337826
 30
0.0
 11
44.252552
 21
46.337826
 31
0.0
  0
ARC
  8
OBJ
  5
12E6
 10
44.252552
 20
46.237826
 30
0.0
 40
0.1
 50
90.0
 51
176.076592
  0
ARC
  8
OBJ
  5
12E7
 10
46.669174
 20
46.237826
 30
0.0
 40
0.1
 50
3.923408
 51
90.0
  0
ARC
  8
OBJ
  5
12E8
 10
-2.60079
 20
34.119545
 30
0.0
 40
52.659514
 50
356.808491
 51
0.000441
  0
ARC
  8
OBJ
  5
12E9
 10
50.008869
 20
31.825139
 30
0.0
 40
0.53
 50
343.841606
 51
77.225148
  0
LINE
  8
OBJ
  5
12EA
 10
51.977537
 20
32.036545
 30
0.0
 11
55.706201
 21
32.036545
 31
0.0
  0
LINE
  8
OBJ
  5
12EB
 10
56.301869
 20
32.266545
 30
0.0
 11
51.381869
 21
32.266545
 31
0.0
  0
LINE
  8
OBJ
  5
12EC
 10
51.601869
 20
29.666545
 30
0.0
 11
56.081869
 21
29.666545
 31
0.0
  0
LINE
  8
OBJ
  5
12ED
 10
51.616046
 20
29.906545
 30
0.0
 11
56.067692
 21
29.906545
 31
0.0
  0
LINE
  8
OBJ
  5
12EE
 10
49.730869
 20
26.836545
 30
0.0
 11
49.730869
 21
28.252527
 31
0.0
  0
LINE
  8
OBJ
  6
CENTER
  5
12EF
 10
52.244337
 20
30.576545
 30
0.0
 11
51.124369
 21
30.576545
 31
0.0
  0
LINE
  8
OBJ
  5
12F0
 10
51.601869
 20
29.666545
 30
0.0
 11
51.727972
 21
31.801287
 31
0.0
  0
ARC
  8
OBJ
  5
12F1
 10
-2.60079
 20
34.120355
 30
0.0
 40
52.659514
 50
353.603155
 51
356.808491
  0
LINE
  8
OBJ
  5
12F2
 10
51.381869
 20
29.686545
 30
0.0
 11
51.381869
 21
31.336545
 31
0.0
  0
LINE
  8
OBJ
  5
12F3
 10
51.381869
 20
32.266545
 30
0.0
 11
51.381869
 21
29.666545
 31
0.0
  0
LINE
  8
OBJ
  5
12F4
 10
49.871734
 20
29.686545
 30
0.0
 11
51.381869
 21
29.686545
 31
0.0
  0
LINE
  8
OBJ
  5
12F5
 10
51.381869
 20
29.666545
 30
0.0
 11
51.601869
 21
29.666545
 31
0.0
  0
LINE
  8
OBJ
  5
12F6
 10
51.655624
 20
30.576545
 30
0.0
 11
51.381869
 21
30.576545
 31
0.0
  0
LINE
  8
OBJ
  5
12F7
 10
50.85903
 20
31.336545
 30
0.0
 11
50.022729
 21
32.172845
 31
0.0
  0
LINE
  8
OBJ
  5
12F8
 10
50.85903
 20
31.336545
 30
0.0
 11
51.381869
 21
31.336545
 31
0.0
  0
ARC
  8
OBJ
  5
12F9
 10
51.977537
 20
31.786545
 30
0.0
 40
0.25
 50
90.0
 51
176.619368
  0
LINE
  8
OBJ
  5
12FA
 10
56.301869
 20
29.666545
 30
0.0
 11
56.301869
 21
32.266545
 31
0.0
  0
LINE
  8
OBJ
  5
12FB
 10
55.955766
 20
31.801287
 30
0.0
 11
56.081869
 21
29.666545
 31
0.0
  0
LINE
  8
OBJ
  5
12FC
 10
56.081869
 20
29.666545
 30
0.0
 11
56.301869
 21
29.666545
 31
0.0
  0
LINE
  8
OBJ
  5
12FD
 10
56.301869
 20
30.576545
 30
0.0
 11
56.028114
 21
30.576545
 31
0.0
  0
ARC
  8
OBJ
  5
12FE
 10
55.706201
 20
31.786545
 30
0.0
 40
0.25
 50
3.380632
 51
90.0
  0
LINE
  8
OBJ
  5
12FF
 10
51.977537
 20
36.202545
 30
0.0
 11
55.706201
 21
36.202545
 31
0.0
  0
LINE
  8
OBJ
  5
1300
 10
51.601869
 20
38.572545
 30
0.0
 11
56.081869
 21
38.572545
 31
0.0
  0
LINE
  8
OBJ
  5
1301
 10
51.616046
 20
38.332545
 30
0.0
 11
56.067692
 21
38.332545
 31
0.0
  0
LINE
  8
OBJ
  5
1302
 10
56.301869
 20
35.972545
 30
0.0
 11
51.381869
 21
35.972545
 31
0.0
  0
ARC
  8
OBJ
  5
1303
 10
-2.60079
 20
34.119545
 30
0.0
 40
52.659514
 50
3.191509
 51
6.396845
  0
LINE
  8
OBJ
  5
1304
 10
51.601869
 20
38.572545
 30
0.0
 11
51.727972
 21
36.437802
 31
0.0
  0
LINE
  8
OBJ
  5
1305
 10
51.381869
 20
36.902545
 30
0.0
 11
51.381869
 21
38.552545
 31
0.0
  0
LINE
  8
OBJ
  5
1306
 10
51.381869
 20
35.972545
 30
0.0
 11
51.381869
 21
38.572545
 31
0.0
  0
ARC
  8
OBJ
  5
1307
 10
-2.60079
 20
34.119545
 30
0.0
 40
52.659514
 50
0.000441
 51
3.191509
  0
LINE
  8
OBJ
  5
1308
 10
49.000869
 20
32.64495
 30
0.0
 11
49.000869
 21
35.59495
 31
0.0
  0
LINE
  8
OBJ
  5
1309
 10
48.205738
 20
32.64495
 30
0.0
 11
49.000869
 21
32.64495
 31
0.0
  0
ARC
  8
OBJ
  5
130A
 10
50.152597
 20
32.459049
 30
0.0
 40
0.12
 50
178.19712
 51
257.225148
  0
LINE
  8
OBJ
  5
130B
 10
48.205738
 20
35.59495
 30
0.0
 11
49.000869
 21
35.59495
 31
0.0
  0
LINE
  8
OBJ
  5
130C
 10
50.85903
 20
36.902545
 30
0.0
 11
50.022729
 21
36.066244
 31
0.0
  0
ARC
  8
OBJ
  5
130D
 10
50.008869
 20
36.413951
 30
0.0
 40
0.53
 50
282.774852
 51
16.158394
  0
ARC
  8
OBJ
  5
130E
 10
50.152597
 20
35.780041
 30
0.0
 40
0.12
 50
102.774852
 51
181.80288
  0
LINE
  8
OBJ
  5
130F
 10
50.85903
 20
36.902545
 30
0.0
 11
51.381869
 21
36.902545
 31
0.0
  0
ARC
  8
OBJ
  5
1310
 10
51.977537
 20
36.452545
 30
0.0
 40
0.25
 50
183.380632
 51
270.0
  0
LINE
  8
OBJ
  6
CENTER
  5
1311
 10
52.244337
 20
37.662545
 30
0.0
 11
51.124369
 21
37.662545
 31
0.0
  0
LINE
  8
OBJ
  5
1312
 10
49.871802
 20
38.552545
 30
0.0
 11
51.381869
 21
38.552545
 31
0.0
  0
LINE
  8
OBJ
  5
1313
 10
51.381869
 20
38.572545
 30
0.0
 11
51.601869
 21
38.572545
 31
0.0
  0
LINE
  8
OBJ
  5
1314
 10
51.655624
 20
37.662545
 30
0.0
 11
51.381869
 21
37.662545
 31
0.0
  0
LINE
  8
OBJ
  5
1315
 10
49.730869
 20
39.986563
 30
0.0
 11
49.730869
 21
41.402545
 31
0.0
  0
LINE
  8
OBJ
  6
CONTINUOUS
  5
1316
 10
48.42801
 20
41.642559
 30
0.0
 11
48.42801
 21
41.557559
 31
0.0
  0
LINE
  8
OBJ
  5
1317
 10
48.585637
 20
41.557559
 30
0.0
 11
48.585637
 21
41.402545
 31
0.0
  0
ARC
  8
OBJ
  5
1318
 10
48.26576
 20
41.861533
 30
0.0
 40
0.125026
 50
49.468605
 51
130.531395
  0
LINE
  8
OBJ
  5
1319
 10
48.34701
 20
41.956559
 30
0.0
 11
48.316785
 21
41.986559
 31
0.0
  0
LINE
  8
OBJ
  5
131A
 10
48.316785
 20
41.986559
 30
0.0
 11
48.18451
 21
41.986559
 31
0.0
  0
LINE
  8
OBJ
  6
CONTINUOUS
  5
131B
 10
48.34701
 20
41.956559
 30
0.0
 11
48.34701
 21
41.736559
 31
0.0
  0
LINE
  8
OBJ
  6
CONTINUOUS
  5
131C
 10
48.18451
 20
41.956559
 30
0.0
 11
48.18451
 21
41.736559
 31
0.0
  0
LINE
  8
OBJ
  5
131D
 10
48.134675
 20
41.736559
 30
0.0
 11
48.134675
 21
41.642559
 31
0.0
  0
LINE
  8
OBJ
  6
CONTINUOUS
  5
131E
 10
48.36401
 20
41.736559
 30
0.0
 11
48.36401
 21
41.642559
 31
0.0
  0
LINE
  8
OBJ
  5
131F
 10
48.00581
 20
41.557559
 30
0.0
 11
48.00581
 21
41.402545
 31
0.0
  0
LINE
  8
OBJ
  5
1320
 10
55.955766
 20
36.437802
 30
0.0
 11
56.081869
 21
38.572545
 31
0.0
  0
LINE
  8
OBJ
  5
1321
 10
56.301869
 20
38.572545
 30
0.0
 11
56.301869
 21
35.972545
 31
0.0
  0
ARC
  8
OBJ
  5
1322
 10
55.706201
 20
36.452545
 30
0.0
 40
0.25
 50
270.0
 51
356.619368
  0
LINE
  8
OBJ
  5
1323
 10
56.081869
 20
38.572545
 30
0.0
 11
56.301869
 21
38.572545
 31
0.0
  0
LINE
  8
OBJ
  5
1324
 10
56.301869
 20
37.662545
 30
0.0
 11
56.028114
 21
37.662545
 31
0.0
  0
ENDSEC
  0
EOF
