  0
SECTION
  2
HEADER
  9
$ACADVER
  1
AC1009
  9
$INSBASE
 10
0.0
 20
0.0
 30
0.0
  9
$EXTMIN
 10
0.385037
 20
0.196295
 30
0.0
  9
$EXTMAX
 10
74.430866
 20
63.576971
 30
0.0
  9
$LIMMIN
 10
0.0
 20
0.0
  9
$LIMMAX
 10
12.0
 20
9.0
  9
$ORTHOMODE
 70
     1
  9
$REGENMODE
 70
     1
  9
$FILLMODE
 70
     1
  9
$QTEXTMODE
 70
     0
  9
$MIRRTEXT
 70
     1
  9
$DRAGMODE
 70
     2
  9
$LTSCALE
 40
1.0
  9
$OSMODE
 70
     0
  9
$ATTMODE
 70
     1
  9
$TEXTSIZE
 40
1.0
  9
$TRACEWID
 40
0.05
  9
$TEXTSTYLE
  7
STANDARD
  9
$CLAYER
  8
0
  9
$CELTYPE
  6
BYLAYER
  9
$CECOLOR
 62
   256
  9
$DIMSCALE
 40
0.3
  9
$DIMASZ
 40
1.0
  9
$DIMEXO
 40
0.38
  9
$DIMDLI
 40
2.0
  9
$DIMRND
 40
0.0
  9
$DIMDLE
 40
0.0
  9
$DIMEXE
 40
1.0
  9
$DIMTP
 40
0.0
  9
$DIMTM
 40
0.0
  9
$DIMTXT
 40
1.0
  9
$DIMCEN
 40
0.5
  9
$DIMTSZ
 40
0.0
  9
$DIMTOL
 70
     0
  9
$DIMLIM
 70
     0
  9
$DIMTIH
 70
     1
  9
$DIMTOH
 70
     1
  9
$DIMSE1
 70
     0
  9
$DIMSE2
 70
     0
  9
$DIMTAD
 70
     0
  9
$DIMZIN
 70
     0
  9
$DIMBLK
  1

  9
$DIMASO
 70
     1
  9
$DIMSHO
 70
     1
  9
$DIMPOST
  1

  9
$DIMAPOST
  1

  9
$DIMALT
 70
     0
  9
$DIMALTD
 70
     2
  9
$DIMALTF
 40
25.4
  9
$DIMLFAC
 40
1.0
  9
$DIMTOFL
 70
     0
  9
$DIMTVP
 40
0.0
  9
$DIMTIX
 70
     0
  9
$DIMSOXD
 70
     0
  9
$DIMSAH
 70
     0
  9
$DIMBLK1
  1

  9
$DIMBLK2
  1

  9
$DIMSTYLE
  2
*UNNAMED
  9
$DIMCLRD
 70
     0
  9
$DIMCLRE
 70
     0
  9
$DIMCLRT
 70
     0
  9
$DIMTFAC
 40
1.0
  9
$DIMGAP
 40
0.5
  9
$LUNITS
 70
     2
  9
$LUPREC
 70
     3
  9
$SKETCHINC
 40
0.1
  9
$FILLETRAD
 40
0.0
  9
$AUNITS
 70
     0
  9
$AUPREC
 70
     0
  9
$MENU
  1
C:\ACADWIN\SUPPORT\ACAD
  9
$ELEVATION
 40
0.0
  9
$PELEVATION
 40
0.0
  9
$THICKNESS
 40
0.0
  9
$LIMCHECK
 70
     0
  9
$BLIPMODE
 70
     1
  9
$CHAMFERA
 40
0.0
  9
$CHAMFERB
 40
0.0
  9
$SKPOLY
 70
     0
  9
$TDCREATE
 40
2451439.418352893
  9
$TDUPDATE
 40
2451439.418954282
  9
$TDINDWG
 40
0.0004163194
  9
$TDUSRTIMER
 40
0.0004163194
  9
$USRTIMER
 70
     1
  9
$ANGBASE
 50
0.0
  9
$ANGDIR
 70
     0
  9
$PDMODE
 70
     0
  9
$PDSIZE
 40
0.0
  9
$PLINEWID
 40
0.0
  9
$COORDS
 70
     1
  9
$SPLFRAME
 70
     0
  9
$SPLINETYPE
 70
     6
  9
$SPLINESEGS
 70
     8
  9
$ATTDIA
 70
     0
  9
$ATTREQ
 70
     1
  9
$HANDLING
 70
     0
  9
$HANDSEED
  5
0
  9
$SURFTAB1
 70
     6
  9
$SURFTAB2
 70
     6
  9
$SURFTYPE
 70
     6
  9
$SURFU
 70
     6
  9
$SURFV
 70
     6
  9
$UCSNAME
  2

  9
$UCSORG
 10
0.0
 20
0.0
 30
0.0
  9
$UCSXDIR
 10
1.0
 20
0.0
 30
0.0
  9
$UCSYDIR
 10
0.0
 20
1.0
 30
0.0
  9
$PUCSNAME
  2

  9
$PUCSORG
 10
0.0
 20
0.0
 30
0.0
  9
$PUCSXDIR
 10
1.0
 20
0.0
 30
0.0
  9
$PUCSYDIR
 10
0.0
 20
1.0
 30
0.0
  9
$USERI1
 70
     0
  9
$USERI2
 70
     0
  9
$USERI3
 70
     0
  9
$USERI4
 70
     0
  9
$USERI5
 70
     0
  9
$USERR1
 40
0.0
  9
$USERR2
 40
0.0
  9
$USERR3
 40
0.0
  9
$USERR4
 40
0.0
  9
$USERR5
 40
0.0
  9
$WORLDVIEW
 70
     1
  9
$SHADEDGE
 70
     3
  9
$SHADEDIF
 70
    70
  9
$TILEMODE
 70
     1
  9
$MAXACTVP
 70
    16
  9
$PINSBASE
 10
0.0
 20
0.0
 30
1.076194E+26
  9
$PLIMCHECK
 70
     0
  9
$PEXTMIN
 10
1.000000E+20
 20
1.000000E+20
 30
1.000000E+20
  9
$PEXTMAX
 10
-1.000000E+20
 20
-1.000000E+20
 30
-1.000000E+20
  9
$PLIMMIN
 10
0.0
 20
0.0
  9
$PLIMMAX
 10
12.0
 20
9.0
  9
$UNITMODE
 70
     0
  9
$VISRETAIN
 70
     0
  9
$PLINEGEN
 70
     0
  9
$PSLTSCALE
 70
     1
  9
$TREEDEPTH
 70
  3020
  9
$DWGCODEPAGE
  3
iso8859-1
  0
ENDSEC
  0
SECTION
  2
TABLES
  0
TABLE
  2
VPORT
 70
     1
  0
VPORT
  2
*ACTIVE
 70
     0
 10
0.0
 20
0.0
 11
1.0
 21
1.0
 12
13.700705
 22
10.006438
 13
0.0
 23
0.0
 14
1.0
 24
1.0
 15
0.0
 25
0.0
 16
0.0
 26
0.0
 36
1.0
 17
0.0
 27
0.0
 37
0.0
 40
20.990536
 41
1.379728
 42
50.0
 43
0.0
 44
0.0
 50
0.0
 51
0.0
 71
     0
 72
   100
 73
     1
 74
     0
 75
     0
 76
     0
 77
     0
 78
     0
  0
ENDTAB
  0
TABLE
  2
LTYPE
 70
     2
  0
LTYPE
  2
CONTINUOUS
 70
    64
  3
Solid line
 72
    65
 73
     0
 40
0.0
  0
LTYPE
  2
CENTER2
 70
    64
  3
CENTER2 _._._._._
 72
    65
 73
     4
 40
0.15
 49
0.1
 49
-0.025
 49
0.0
 49
-0.025
  0
ENDTAB
  0
TABLE
  2
LAYER
 70
     3
  0
LAYER
  2
0
 70
    64
 62
     7
  6
CONTINUOUS
  0
LAYER
  2
OBJ
 70
    64
 62
     7
  6
CONTINUOUS
  0
LAYER
  2
DEFPOINTS
 70
    64
 62
     7
  6
CONTINUOUS
  0
ENDTAB
  0
TABLE
  2
STYLE
 70
     1
  0
STYLE
  2
STANDARD
 70
     0
 40
0.0
 41
1.0
 50
0.0
 71
     0
 42
0.2
  3
txt
  4

  0
ENDTAB
  0
TABLE
  2
VIEW
 70
     0
  0
ENDTAB
  0
TABLE
  2
UCS
 70
     0
  0
ENDTAB
  0
TABLE
  2
APPID
 70
     1
  0
APPID
  2
ACAD
 70
    64
  0
ENDTAB
  0
TABLE
  2
DIMSTYLE
 70
     0
  0
ENDTAB
  0
ENDSEC
  0
SECTION
  2
BLOCKS
  0
ENDSEC
  0
SECTION
  2
ENTITIES
  0
LINE
  8
0
 10
13.589606
 20
0.786268
 30
0.0
 11
11.590106
 21
0.786268
 31
0.0
  0
LINE
  8
0
 10
13.589606
 20
6.574268
 30
0.0
 11
9.621606
 21
6.574268
 31
0.0
  0
LINE
  8
0
 10
13.589606
 20
15.955951
 30
0.0
 11
9.621606
 21
15.955951
 31
0.0
  0
LINE
  8
0
 10
13.589606
 20
10.045951
 30
0.0
 11
9.621606
 21
10.045951
 31
0.0
  0
LINE
  8
0
 10
1.528356
 20
15.13643
 30
0.0
 11
1.528356
 21
10.865472
 31
0.0
  0
LINE
  8
OBJ
 10
9.130606
 20
13.000951
 30
0.0
 11
8.568106
 21
13.97523
 31
0.0
  0
LINE
  8
OBJ
 10
7.443106
 20
13.97523
 30
0.0
 11
6.880606
 21
13.000951
 31
0.0
  0
CIRCLE
  8
OBJ
 10
8.005606
 20
13.000951
 30
0.0
 40
0.864576
  0
ARC
  8
OBJ
 10
-3.988464
 20
13.000951
 30
0.0
 40
4.865069
 50
0.0
 51
3.797744
  0
LINE
  8
OBJ
 10
0.401606
 20
12.652951
 30
0.0
 11
0.401606
 21
13.348951
 31
0.0
  0
LINE
  8
OBJ
 10
0.601606
 20
12.379951
 30
0.0
 11
0.601606
 21
13.621951
 31
0.0
  0
LINE
  8
0
 10
1.431606
 20
10.481951
 30
0.0
 11
1.431606
 21
15.519951
 31
0.0
  0
LINE
  8
0
 10
1.746606
 20
10.401951
 30
0.0
 11
1.746606
 21
15.599951
 31
0.0
  0
LINE
  8
0
 10
9.621606
 20
10.045951
 30
0.0
 11
9.621606
 21
15.955951
 31
0.0
  0
LINE
  8
0
 10
11.590106
 20
10.050951
 30
0.0
 11
11.590106
 21
15.950951
 31
0.0
  0
LINE
  8
0
 10
9.621606
 20
10.050951
 30
0.0
 11
9.621606
 21
15.950951
 31
0.0
  0
LINE
  8
0
 10
1.746606
 20
10.401951
 30
0.0
 11
1.511606
 21
10.401951
 31
0.0
  0
LINE
  8
0
 10
1.746606
 20
1.373268
 30
0.0
 11
1.511606
 21
1.373268
 31
0.0
  0
LINE
  8
0
 10
1.746606
 20
6.175268
 30
0.0
 11
1.511606
 21
6.175268
 31
0.0
  0
LINE
  8
0
 10
1.431606
 20
6.095268
 30
0.0
 11
1.431606
 21
1.453268
 31
0.0
  0
LINE
  8
0
 10
1.528356
 20
5.711747
 30
0.0
 11
1.528356
 21
1.836789
 31
0.0
  0
ARC
  8
OBJ
 10
0.481606
 20
3.426268
 30
0.0
 40
0.08
 50
180.0
 51
270.0
  0
LINE
  8
OBJ
 10
0.601606
 20
3.153268
 30
0.0
 11
0.601606
 21
4.395268
 31
0.0
  0
ARC
  8
0
 10
8.172483
 20
2.833946
 30
0.0
 40
7.551825
 50
157.677433
 51
180.908037
  0
ARC
  8
OBJ
 10
1.259303
 20
1.925221
 30
0.0
 40
0.33688
 50
142.158498
 51
217.841502
  0
LINE
  8
OBJ
 10
0.922423
 20
1.563204
 30
0.0
 11
0.922423
 21
2.287237
 31
0.0
  0
ARC
  8
0
 10
1.251606
 20
2.159396
 30
0.0
 40
0.1
 50
180.0
 51
270.0
  0
LINE
  8
0
 10
1.151606
 20
2.414268
 30
0.0
 11
1.151606
 21
1.473268
 31
0.0
  0
ARC
  8
0
 10
1.468356
 20
1.836789
 30
0.0
 40
0.06
 50
281.171353
 51
0.0
  0
ARC
  8
0
 10
1.491606
 20
1.719063
 30
0.0
 40
0.06
 50
101.171353
 51
180.0
  0
ARC
  8
0
 10
1.251606
 20
1.473268
 30
0.0
 40
0.1
 50
180.0
 51
270.0
  0
LINE
  8
0
 10
1.511606
 20
1.373268
 30
0.0
 11
1.251606
 21
1.373268
 31
0.0
  0
LINE
  8
OBJ
  6
CONTINUOUS
 10
1.151606
 20
1.718552
 30
0.0
 11
0.993265
 21
1.718552
 31
0.0
  0
LINE
  8
OBJ
 10
0.922423
 20
1.563204
 30
0.0
 11
0.966065
 21
1.530964
 31
0.0
  0
LINE
  8
OBJ
  6
CONTINUOUS
 10
1.151606
 20
1.516376
 30
0.0
 11
0.993265
 21
1.516376
 31
0.0
  0
ARC
  8
OBJ
 10
1.029968
 20
1.617464
 30
0.0
 40
0.107545
 50
109.954678
 51
250.045322
  0
LINE
  8
OBJ
  6
CONTINUOUS
 10
1.383798
 20
1.963795
 30
0.0
 11
1.224281
 21
1.963795
 31
0.0
  0
LINE
  8
0
 10
1.331606
 20
2.059396
 30
0.0
 11
1.251606
 21
2.059396
 31
0.0
  0
ARC
  8
0
 10
1.331606
 20
1.959396
 30
0.0
 40
0.1
 50
0.0
 51
90.0
  0
LINE
  8
OBJ
 10
1.18659
 20
1.93888
 30
0.0
 11
1.20981
 21
1.956033
 31
0.0
  0
LINE
  8
OBJ
 10
1.18659
 20
1.93888
 30
0.0
 11
1.18659
 21
1.856227
 31
0.0
  0
LINE
  8
OBJ
 10
1.18659
 20
1.63631
 30
0.0
 11
1.18659
 21
1.553657
 31
0.0
  0
LINE
  8
OBJ
 10
1.18659
 20
1.553657
 30
0.0
 11
1.20981
 21
1.536503
 31
0.0
  0
LINE
  8
OBJ
 10
1.18659
 20
1.856227
 30
0.0
 11
1.18659
 21
1.63631
 31
0.0
  0
LINE
  8
OBJ
  6
CONTINUOUS
 10
1.383798
 20
1.963795
 30
0.0
 11
1.224281
 21
1.963795
 31
0.0
  0
LINE
  8
OBJ
  6
CONTINUOUS
 10
1.383798
 20
1.856227
 30
0.0
 11
1.224281
 21
1.856227
 31
0.0
  0
POINT
  8
OBJ
 10
1.354246
 20
1.898893
 30
0.0
  0
LINE
  8
OBJ
 10
1.431606
 20
1.794661
 30
0.0
 11
1.383798
 21
1.842469
 31
0.0
  0
LINE
  8
OBJ
  6
CENTER2
 10
1.431606
 20
1.946464
 30
0.0
 11
1.383798
 21
1.946464
 31
0.0
  0
LINE
  8
OBJ
  6
CONTINUOUS
 10
1.383798
 20
1.63631
 30
0.0
 11
1.224281
 21
1.63631
 31
0.0
  0
LINE
  8
OBJ
  6
CONTINUOUS
 10
1.383798
 20
1.528742
 30
0.0
 11
1.224281
 21
1.528742
 31
0.0
  0
LINE
  8
OBJ
  6
CENTER2
 10
1.431606
 20
1.546072
 30
0.0
 11
1.383798
 21
1.546072
 31
0.0
  0
LINE
  8
OBJ
 10
1.383798
 20
1.963795
 30
0.0
 11
1.383798
 21
1.528742
 31
0.0
  0
LINE
  8
0
 10
1.431606
 20
1.946464
 30
0.0
 11
1.431606
 21
1.546072
 31
0.0
  0
ARC
  8
OBJ
 10
1.243809
 20
1.910011
 30
0.0
 40
0.057219
 50
109.954678
 51
250.045322
  0
ARC
  8
OBJ
 10
1.243809
 20
1.582526
 30
0.0
 40
0.057219
 50
109.954678
 51
250.045322
  0
ARC
  8
OBJ
 10
1.365827
 20
1.746268
 30
0.0
 40
0.179237
 50
142.158498
 51
217.841502
  0
ARC
  8
0
 10
1.511606
 20
1.453268
 30
0.0
 40
0.08
 50
180.0
 51
270.0
  0
LINE
  8
0
 10
1.051606
 20
2.514268
 30
0.0
 11
0.821606
 21
2.514268
 31
0.0
  0
LINE
  8
OBJ
  6
CONTINUOUS
 10
0.601606
 20
3.346268
 30
0.0
 11
0.481606
 21
3.346268
 31
0.0
  0
ARC
  8
OBJ
 10
0.661606
 20
3.153268
 30
0.0
 40
0.06
 50
180.0
 51
233.045487
  0
ARC
  8
0
 10
0.821606
 20
2.714268
 30
0.0
 40
0.2
 50
180.0
 51
270.0
  0
LINE
  8
OBJ
 10
0.922423
 20
2.287237
 30
0.0
 11
0.966065
 21
2.319478
 31
0.0
  0
ARC
  8
OBJ
 10
1.029968
 20
2.232978
 30
0.0
 40
0.107545
 50
109.954678
 51
250.045322
  0
LINE
  8
OBJ
  6
CONTINUOUS
 10
1.151606
 20
2.334066
 30
0.0
 11
0.993265
 21
2.334066
 31
0.0
  0
LINE
  8
OBJ
  6
CONTINUOUS
 10
1.151606
 20
2.13189
 30
0.0
 11
0.993265
 21
2.13189
 31
0.0
  0
ARC
  8
0
 10
1.051606
 20
2.414268
 30
0.0
 40
0.1
 50
0.0
 51
90.0
  0
LINE
  8
OBJ
 10
1.18659
 20
5.912227
 30
0.0
 11
1.18659
 21
5.69231
 31
0.0
  0
LINE
  8
OBJ
 10
1.431606
 20
5.850661
 30
0.0
 11
1.383798
 21
5.898469
 31
0.0
  0
LINE
  8
OBJ
 10
1.383798
 20
6.019795
 30
0.0
 11
1.383798
 21
5.584742
 31
0.0
  0
LINE
  8
0
 10
1.431606
 20
6.002464
 30
0.0
 11
1.431606
 21
5.602072
 31
0.0
  0
ARC
  8
OBJ
 10
1.365827
 20
5.802268
 30
0.0
 40
0.179237
 50
142.158498
 51
217.841502
  0
ARC
  8
OBJ
 10
0.481606
 20
4.122268
 30
0.0
 40
0.08
 50
90.0
 51
180.0
  0
LINE
  8
OBJ
 10
0.401606
 20
3.426268
 30
0.0
 11
0.401606
 21
4.122268
 31
0.0
  0
ARC
  8
OBJ
 10
0.661606
 20
4.395268
 30
0.0
 40
0.06
 50
90.0
 51
180.0
  0
LINE
  8
OBJ
  6
CONTINUOUS
 10
0.601606
 20
4.202268
 30
0.0
 11
0.481606
 21
4.202268
 31
0.0
  0
LINE
  8
OBJ
  6
CONTINUOUS
 10
0.796753
 20
4.455268
 30
0.0
 11
0.661606
 21
4.455268
 31
0.0
  0
ARC
  8
0
 10
1.491606
 20
5.829474
 30
0.0
 40
0.06
 50
180.0
 51
258.828647
  0
ARC
  8
0
 10
1.468356
 20
5.711747
 30
0.0
 40
0.06
 50
0.0
 51
78.828647
  0
ARC
  8
0
 10
1.331606
 20
5.58914
 30
0.0
 40
0.1
 50
270.0
 51
0.0
  0
ARC
  8
0
 10
1.242738
 20
5.28914
 30
0.0
 40
0.2
 50
90.0
 51
160.490868
  0
LINE
  8
0
 10
1.331606
 20
5.48914
 30
0.0
 11
1.242738
 21
5.48914
 31
0.0
  0
LINE
  8
OBJ
 10
1.18659
 20
5.69231
 30
0.0
 11
1.18659
 21
5.609657
 31
0.0
  0
LINE
  8
OBJ
 10
1.18659
 20
5.609657
 30
0.0
 11
1.20981
 21
5.592503
 31
0.0
  0
LINE
  8
OBJ
  6
CONTINUOUS
 10
1.383798
 20
5.69231
 30
0.0
 11
1.224281
 21
5.69231
 31
0.0
  0
LINE
  8
OBJ
  6
CONTINUOUS
 10
1.383798
 20
5.584742
 30
0.0
 11
1.224281
 21
5.584742
 31
0.0
  0
LINE
  8
OBJ
  6
CENTER2
 10
1.431606
 20
5.602072
 30
0.0
 11
1.383798
 21
5.602072
 31
0.0
  0
ARC
  8
OBJ
 10
1.243809
 20
5.638526
 30
0.0
 40
0.057219
 50
109.954678
 51
250.045322
  0
LINE
  8
OBJ
 10
1.18659
 20
5.99488
 30
0.0
 11
1.20981
 21
6.012033
 31
0.0
  0
LINE
  8
OBJ
 10
1.18659
 20
5.99488
 30
0.0
 11
1.18659
 21
5.912227
 31
0.0
  0
LINE
  8
OBJ
  6
CONTINUOUS
 10
1.383798
 20
6.019795
 30
0.0
 11
1.224281
 21
6.019795
 31
0.0
  0
LINE
  8
OBJ
  6
CONTINUOUS
 10
1.383798
 20
5.912227
 30
0.0
 11
1.224281
 21
5.912227
 31
0.0
  0
LINE
  8
OBJ
  6
CENTER2
 10
1.431606
 20
6.002464
 30
0.0
 11
1.383798
 21
6.002464
 31
0.0
  0
ARC
  8
OBJ
 10
1.243809
 20
5.966011
 30
0.0
 40
0.057219
 50
109.954678
 51
250.045322
  0
ARC
  8
0
 10
1.511606
 20
6.095268
 30
0.0
 40
0.08
 50
90.0
 51
180.0
  0
ARC
  8
0
 10
1.468356
 20
10.865472
 30
0.0
 40
0.06
 50
281.171353
 51
0.0
  0
ARC
  8
0
 10
1.21105
 20
11.000951
 30
0.0
 40
0.35
 50
198.390075
 51
265.992584
  0
LINE
  8
0
 10
1.431606
 20
10.977147
 30
0.0
 11
1.431606
 21
10.576755
 31
0.0
  0
LINE
  8
OBJ
 10
1.383798
 20
10.994478
 30
0.0
 11
1.383798
 21
10.559425
 31
0.0
  0
ARC
  8
OBJ
 10
1.365827
 20
10.776951
 30
0.0
 40
0.179237
 50
142.158498
 51
217.841502
  0
LINE
  8
OBJ
 10
1.18659
 20
10.88691
 30
0.0
 11
1.18659
 21
10.666993
 31
0.0
  0
ARC
  8
0
 10
1.491606
 20
10.747746
 30
0.0
 40
0.06
 50
101.171353
 51
180.0
  0
LINE
  8
OBJ
  6
CENTER2
 10
1.431606
 20
10.576755
 30
0.0
 11
1.383798
 21
10.576755
 31
0.0
  0
LINE
  8
OBJ
 10
1.18659
 20
10.58434
 30
0.0
 11
1.20981
 21
10.567186
 31
0.0
  0
ARC
  8
OBJ
 10
1.243809
 20
10.613209
 30
0.0
 40
0.057219
 50
109.954678
 51
250.045322
  0
LINE
  8
OBJ
 10
1.18659
 20
10.666993
 30
0.0
 11
1.18659
 21
10.58434
 31
0.0
  0
LINE
  8
OBJ
  6
CONTINUOUS
 10
1.383798
 20
10.559425
 30
0.0
 11
1.224281
 21
10.559425
 31
0.0
  0
LINE
  8
OBJ
  6
CONTINUOUS
 10
1.383798
 20
10.666993
 30
0.0
 11
1.224281
 21
10.666993
 31
0.0
  0
ARC
  8
0
 10
1.511606
 20
10.481951
 30
0.0
 40
0.08
 50
180.0
 51
270.0
  0
ARC
  8
0
 10
4.931609
 20
12.237901
 30
0.0
 40
4.270792
 50
178.899169
 51
198.390075
  0
LINE
  8
OBJ
  6
CENTER2
 10
1.431606
 20
10.977147
 30
0.0
 11
1.383798
 21
10.977147
 31
0.0
  0
LINE
  8
OBJ
 10
1.431606
 20
10.825344
 30
0.0
 11
1.383798
 21
10.873152
 31
0.0
  0
ARC
  8
OBJ
 10
1.243809
 20
10.940694
 30
0.0
 40
0.057219
 50
109.954678
 51
250.045322
  0
LINE
  8
OBJ
 10
1.18659
 20
10.969563
 30
0.0
 11
1.18659
 21
10.88691
 31
0.0
  0
LINE
  8
OBJ
 10
1.18659
 20
10.969563
 30
0.0
 11
1.20981
 21
10.986716
 31
0.0
  0
LINE
  8
OBJ
  6
CONTINUOUS
 10
1.383798
 20
10.88691
 30
0.0
 11
1.224281
 21
10.88691
 31
0.0
  0
LINE
  8
OBJ
  6
CONTINUOUS
 10
1.383798
 20
10.994478
 30
0.0
 11
1.224281
 21
10.994478
 31
0.0
  0
ARC
  8
OBJ
 10
-1.621001
 20
12.843798
 30
0.0
 40
2.492397
 50
350.895399
 51
356.202256
  0
ARC
  8
OBJ
 10
0.481606
 20
12.652951
 30
0.0
 40
0.08
 50
180.0
 51
270.0
  0
ARC
  8
OBJ
 10
0.751606
 20
12.255994
 30
0.0
 40
0.035043
 50
270.0
 51
338.848885
  0
ARC
  8
OBJ
 10
0.751606
 20
12.255994
 30
0.0
 40
0.035043
 50
201.151115
 51
270.0
  0
ARC
  8
OBJ
 10
1.667515
 20
12.610353
 30
0.0
 40
1.017112
 50
196.589699
 51
201.151115
  0
LINE
  8
OBJ
  6
CONTINUOUS
 10
0.81047
 20
12.319951
 30
0.0
 11
0.661606
 21
12.319951
 31
0.0
  0
ARC
  8
OBJ
 10
0.661606
 20
12.379951
 30
0.0
 40
0.06
 50
180.0
 51
270.0
  0
LINE
  8
OBJ
  6
CONTINUOUS
 10
0.601606
 20
12.572951
 30
0.0
 11
0.481606
 21
12.572951
 31
0.0
  0
ARC
  8
OBJ
 10
-0.164304
 20
12.610353
 30
0.0
 40
1.017112
 50
338.848885
 51
350.895399
  0
ARC
  8
OBJ
 10
-3.988464
 20
13.000951
 30
0.0
 40
4.865069
 50
356.202256
 51
0.0
  0
LINE
  8
0
 10
9.621606
 20
6.574268
 30
0.0
 11
9.621606
 21
0.974268
 31
0.0
  0
LINE
  8
0
 10
11.590106
 20
0.786268
 30
0.0
 11
11.590106
 21
6.574268
 31
0.0
  0
CIRCLE
  8
0
 10
3.911606
 20
3.774268
 30
0.0
 40
0.638464
  0
LINE
  8
0
 10
8.141606
 20
3.604268
 30
0.0
 11
8.141606
 21
2.954268
 31
0.0
  0
LINE
  8
0
 10
8.834456
 20
4.594268
 30
0.0
 11
8.834456
 21
2.954268
 31
0.0
  0
ARC
  8
0
 10
2.417357
 20
3.340268
 30
0.0
 40
0.08
 50
16.195776
 51
90.0
  0
ARC
  8
0
 10
5.405855
 20
3.340268
 30
0.0
 40
0.08
 50
90.0
 51
163.804224
  0
CIRCLE
  8
0
 10
3.911606
 20
3.774268
 30
0.0
 40
0.885
  0
CIRCLE
  8
0
 10
3.911606
 20
3.774268
 30
0.0
 40
2.126
  0
LINE
  8
0
 10
1.746606
 20
6.175268
 30
0.0
 11
1.746606
 21
1.373268
 31
0.0
  0
LINE
  8
0
 10
9.621606
 20
5.074268
 30
0.0
 11
9.621606
 21
2.37129
 31
0.0
  0
LINE
  8
0
 10
8.653606
 20
1.284268
 30
0.0
 11
6.883606
 21
1.284268
 31
0.0
  0
ARC
  8
0
 10
-1.478736
 20
53.156625
 30
0.0
 40
51.843705
 50
274.319551
 51
281.360959
  0
LINE
  8
0
 10
7.463606
 20
0.704268
 30
0.0
 11
6.596606
 21
1.571268
 31
0.0
  0
LINE
  8
0
 10
3.723606
 20
0.704268
 30
0.0
 11
4.590606
 21
1.571268
 31
0.0
  0
ARC
  8
0
 10
3.911606
 20
3.774268
 30
0.0
 40
1.476
 50
196.195776
 51
343.804224
  0
LINE
  8
0
 10
3.321606
 20
1.437738
 30
0.0
 11
3.321606
 21
0.196295
 31
0.0
  0
LINE
  8
0
 10
2.891606
 20
1.208907
 30
0.0
 11
2.891606
 21
0.671629
 31
0.0
  0
CIRCLE
  8
0
 10
2.891606
 20
0.940268
 30
0.0
 40
0.188
  0
LINE
  8
0
 10
2.533606
 20
1.360466
 30
0.0
 11
2.533606
 21
0.624268
 31
0.0
  0
LINE
  8
0
 10
3.723606
 20
0.624268
 30
0.0
 11
2.533606
 21
0.624268
 31
0.0
  0
LINE
  8
0
 10
3.723606
 20
0.704268
 30
0.0
 11
3.723606
 21
0.624268
 31
0.0
  0
LINE
  8
0
 10
3.160244
 20
0.940268
 30
0.0
 11
2.622967
 21
0.940268
 31
0.0
  0
LINE
  8
0
 10
4.303606
 20
1.284268
 30
0.0
 11
2.533606
 21
1.284268
 31
0.0
  0
ARC
  8
0
 10
-1.478736
 20
53.156625
 30
0.0
 40
51.883705
 50
273.56408
 51
274.316214
  0
ARC
  8
0
 10
2.433606
 20
1.360466
 30
0.0
 40
0.1
 50
0.0
 51
94.316214
  0
ARC
  8
0
 10
2.433606
 20
1.320352
 30
0.0
 40
0.1
 50
0.0
 51
94.316214
  0
LINE
  8
0
 10
2.684861
 20
2.627821
 30
0.0
 11
2.794549
 21
2.437836
 31
0.0
  0
LINE
  8
0
 10
2.465486
 20
2.627821
 30
0.0
 11
2.684861
 21
2.627821
 31
0.0
  0
LINE
  8
0
 10
2.355799
 20
2.437836
 30
0.0
 11
2.465486
 21
2.627821
 31
0.0
  0
LINE
  8
0
 10
2.465486
 20
2.247852
 30
0.0
 11
2.355799
 21
2.437836
 31
0.0
  0
LINE
  8
0
 10
2.684861
 20
2.247852
 30
0.0
 11
2.465486
 21
2.247852
 31
0.0
  0
LINE
  8
0
 10
2.794549
 20
2.437836
 30
0.0
 11
2.684861
 21
2.247852
 31
0.0
  0
ARC
  8
0
 10
2.575174
 20
2.437836
 30
0.0
 40
0.193285
 50
19.395522
 51
40.604478
  0
ARC
  8
0
 10
2.575174
 20
2.437836
 30
0.0
 40
0.193285
 50
319.395522
 51
340.604478
  0
ARC
  8
0
 10
2.575174
 20
2.437836
 30
0.0
 40
0.193285
 50
259.395522
 51
280.604478
  0
ARC
  8
0
 10
2.575174
 20
2.437836
 30
0.0
 40
0.193285
 50
199.395522
 51
220.604478
  0
ARC
  8
0
 10
2.575174
 20
2.437836
 30
0.0
 40
0.193285
 50
139.395522
 51
160.604478
  0
LINE
  8
OBJ
 10
2.610874
 20
2.402136
 30
0.0
 11
2.610874
 21
2.330736
 31
0.0
  0
LINE
  8
OBJ
 10
2.610874
 20
2.402136
 30
0.0
 11
2.682274
 21
2.402136
 31
0.0
  0
LINE
  8
OBJ
 10
2.682274
 20
2.402136
 30
0.0
 11
2.682274
 21
2.473536
 31
0.0
  0
LINE
  8
OBJ
 10
2.610874
 20
2.473536
 30
0.0
 11
2.682274
 21
2.473536
 31
0.0
  0
LINE
  8
OBJ
 10
2.610874
 20
2.544936
 30
0.0
 11
2.610874
 21
2.473536
 31
0.0
  0
LINE
  8
OBJ
 10
2.468074
 20
2.402136
 30
0.0
 11
2.539474
 21
2.402136
 31
0.0
  0
LINE
  8
OBJ
 10
2.468074
 20
2.473536
 30
0.0
 11
2.539474
 21
2.473536
 31
0.0
  0
LINE
  8
OBJ
 10
2.468074
 20
2.473536
 30
0.0
 11
2.468074
 21
2.402136
 31
0.0
  0
LINE
  8
OBJ
 10
2.539474
 20
2.402136
 30
0.0
 11
2.539474
 21
2.330736
 31
0.0
  0
LINE
  8
OBJ
 10
2.539474
 20
2.544936
 30
0.0
 11
2.539474
 21
2.473536
 31
0.0
  0
LINE
  8
0
 10
2.539474
 20
2.473536
 30
0.0
 11
2.610874
 21
2.402136
 31
0.0
  0
LINE
  8
0
 10
2.539474
 20
2.402136
 30
0.0
 11
2.610874
 21
2.473536
 31
0.0
  0
LINE
  8
OBJ
 10
2.610874
 20
2.544936
 30
0.0
 11
2.539474
 21
2.544936
 31
0.0
  0
LINE
  8
OBJ
 10
2.539474
 20
2.330736
 30
0.0
 11
2.610874
 21
2.330736
 31
0.0
  0
ARC
  8
0
 10
2.575174
 20
2.437836
 30
0.0
 40
0.193285
 50
79.395522
 51
100.604478
  0
CIRCLE
  8
0
 10
2.575174
 20
2.437836
 30
0.0
 40
0.186787
  0
CIRCLE
  8
OBJ
 10
2.575174
 20
2.437836
 30
0.0
 40
0.16065
  0
LINE
  8
0
 10
6.596606
 20
1.571268
 30
0.0
 11
4.590606
 21
1.571268
 31
0.0
  0
LINE
  8
0
 10
5.058053
 20
2.547524
 30
0.0
 11
5.248037
 21
2.657211
 31
0.0
  0
LINE
  8
0
 10
5.248037
 20
2.218461
 30
0.0
 11
5.058053
 21
2.328149
 31
0.0
  0
LINE
  8
OBJ
 10
5.283737
 20
2.544936
 30
0.0
 11
5.212337
 21
2.544936
 31
0.0
  0
LINE
  8
OBJ
 10
5.212337
 20
2.330736
 30
0.0
 11
5.283737
 21
2.330736
 31
0.0
  0
LINE
  8
0
 10
5.212337
 20
2.402136
 30
0.0
 11
5.283737
 21
2.473536
 31
0.0
  0
LINE
  8
0
 10
5.283737
 20
2.402136
 30
0.0
 11
5.212337
 21
2.473536
 31
0.0
  0
CIRCLE
  8
0
 10
5.248037
 20
2.437836
 30
0.0
 40
0.186787
  0
CIRCLE
  8
OBJ
 10
5.248037
 20
2.437836
 30
0.0
 40
0.16065
  0
LINE
  8
0
 10
5.058053
 20
2.328149
 30
0.0
 11
5.058053
 21
2.547524
 31
0.0
  0
ARC
  8
0
 10
5.248037
 20
2.437836
 30
0.0
 40
0.193285
 50
229.395522
 51
250.604478
  0
ARC
  8
0
 10
5.248037
 20
2.437836
 30
0.0
 40
0.193285
 50
169.395522
 51
190.604478
  0
ARC
  8
0
 10
5.248037
 20
2.437836
 30
0.0
 40
0.193285
 50
109.395522
 51
130.604478
  0
LINE
  8
OBJ
 10
5.212337
 20
2.473536
 30
0.0
 11
5.212337
 21
2.544936
 31
0.0
  0
LINE
  8
OBJ
 10
5.140937
 20
2.473536
 30
0.0
 11
5.212337
 21
2.473536
 31
0.0
  0
LINE
  8
OBJ
 10
5.212337
 20
2.330736
 30
0.0
 11
5.212337
 21
2.402136
 31
0.0
  0
LINE
  8
OBJ
 10
5.140937
 20
2.402136
 30
0.0
 11
5.212337
 21
2.402136
 31
0.0
  0
LINE
  8
OBJ
 10
5.140937
 20
2.473536
 30
0.0
 11
5.140937
 21
2.402136
 31
0.0
  0
LINE
  8
0
 10
5.438022
 20
2.328149
 30
0.0
 11
5.248037
 21
2.218461
 31
0.0
  0
LINE
  8
0
 10
5.438022
 20
2.547524
 30
0.0
 11
5.438022
 21
2.328149
 31
0.0
  0
LINE
  8
0
 10
5.248037
 20
2.657211
 30
0.0
 11
5.438022
 21
2.547524
 31
0.0
  0
ARC
  8
0
 10
5.248037
 20
2.437836
 30
0.0
 40
0.193285
 50
349.395522
 51
10.604478
  0
ARC
  8
0
 10
5.248037
 20
2.437836
 30
0.0
 40
0.193285
 50
289.395522
 51
310.604478
  0
LINE
  8
OBJ
 10
5.283737
 20
2.473536
 30
0.0
 11
5.355137
 21
2.473536
 31
0.0
  0
LINE
  8
OBJ
 10
5.283737
 20
2.473536
 30
0.0
 11
5.283737
 21
2.544936
 31
0.0
  0
LINE
  8
OBJ
 10
5.283737
 20
2.330736
 30
0.0
 11
5.283737
 21
2.402136
 31
0.0
  0
LINE
  8
OBJ
 10
5.283737
 20
2.402136
 30
0.0
 11
5.355137
 21
2.402136
 31
0.0
  0
LINE
  8
OBJ
 10
5.355137
 20
2.402136
 30
0.0
 11
5.355137
 21
2.473536
 31
0.0
  0
ARC
  8
0
 10
5.248037
 20
2.437836
 30
0.0
 40
0.193285
 50
49.395522
 51
70.604478
  0
CIRCLE
  8
0
 10
10.251606
 20
1.964268
 30
0.0
 40
0.355
  0
CIRCLE
  8
0
 10
10.251606
 20
1.964268
 30
0.0
 40
0.415
  0
LINE
  8
0
 10
11.590106
 20
0.974268
 30
0.0
 11
9.621606
 21
0.974268
 31
0.0
  0
LINE
  8
0
 10
8.242606
 20
1.437738
 30
0.0
 11
8.242606
 21
0.196295
 31
0.0
  0
CIRCLE
  8
0
 10
7.812606
 20
0.940268
 30
0.0
 40
0.188
  0
LINE
  8
0
 10
7.812606
 20
1.208907
 30
0.0
 11
7.812606
 21
0.671629
 31
0.0
  0
LINE
  8
0
 10
8.653606
 20
2.230721
 30
0.0
 11
8.653606
 21
0.624268
 31
0.0
  0
LINE
  8
0
 10
8.653606
 20
0.624268
 30
0.0
 11
7.463606
 21
0.624268
 31
0.0
  0
LINE
  8
0
 10
7.463606
 20
0.704268
 30
0.0
 11
7.463606
 21
0.624268
 31
0.0
  0
ARC
  8
0
 10
9.234456
 20
2.954268
 30
0.0
 40
0.4
 50
180.0
 51
270.0
  0
ARC
  8
0
 10
-1.478736
 20
53.156625
 30
0.0
 40
51.883705
 50
281.352084
 51
282.353733
  0
LINE
  8
0
 10
9.621606
 20
2.554268
 30
0.0
 11
8.541606
 21
2.554268
 31
0.0
  0
LINE
  8
0
 10
8.081244
 20
0.940268
 30
0.0
 11
7.543967
 21
0.940268
 31
0.0
  0
ARC
  8
0
 10
8.541606
 20
2.954268
 30
0.0
 40
0.4
 50
180.0
 51
270.0
  0
ARC
  8
0
 10
8.753606
 20
2.230721
 30
0.0
 40
0.1
 50
101.352084
 51
180.0
  0
ARC
  8
0
 10
8.753606
 20
2.189922
 30
0.0
 40
0.1
 50
101.352084
 51
180.0
  0
LINE
  8
0
 10
9.107882
 20
2.37129
 30
0.0
 11
9.621606
 21
2.37129
 31
0.0
  0
ARC
  8
0
 10
12.400106
 20
1.243497
 30
0.0
 40
0.729229
 50
255.831227
 51
284.168773
  0
LINE
  8
0
 10
12.667856
 20
0.514268
 30
0.0
 11
12.132356
 21
0.514268
 31
0.0
  0
LINE
  8
0
 10
12.667856
 20
0.514268
 30
0.0
 11
12.132356
 21
0.514268
 31
0.0
  0
LINE
  8
0
 10
12.757106
 20
0.786268
 30
0.0
 11
12.043106
 21
0.786268
 31
0.0
  0
LINE
  8
0
 10
12.221606
 20
0.786268
 30
0.0
 11
12.221606
 21
0.536452
 31
0.0
  0
LINE
  8
0
 10
12.043106
 20
0.786268
 30
0.0
 11
12.043106
 21
0.536452
 31
0.0
  0
ARC
  8
0
 10
12.132356
 20
0.704894
 30
0.0
 40
0.190626
 50
242.082902
 51
297.917098
  0
ARC
  8
0
 10
12.667856
 20
0.704894
 30
0.0
 40
0.190626
 50
242.082902
 51
297.917098
  0
LINE
  8
0
 10
12.578606
 20
0.786268
 30
0.0
 11
12.578606
 21
0.536452
 31
0.0
  0
LINE
  8
0
 10
12.757106
 20
0.786268
 30
0.0
 11
12.757106
 21
0.536452
 31
0.0
  0
LINE
  8
OBJ
 10
6.880606
 20
13.000951
 30
0.0
 11
7.443106
 21
12.026673
 31
0.0
  0
LINE
  8
0
 10
6.162606
 20
10.463334
 30
0.0
 11
8.37329
 21
10.463334
 31
0.0
  0
LINE
  8
0
 10
4.262318
 20
10.50462
 30
0.0
 11
8.037116
 21
10.712205
 31
0.0
  0
ARC
  8
0
 10
8.616291
 20
8.777442
 30
0.0
 40
3.584737
 50
245.491572
 51
273.671218
  0
LINE
  8
0
 10
8.210283
 20
3.704268
 30
0.0
 11
6.131105
 21
3.704268
 31
0.0
  0
LINE
  8
0
 10
8.210283
 20
3.844268
 30
0.0
 11
6.131105
 21
3.844268
 31
0.0
  0
LINE
  8
OBJ
  6
CONTINUOUS
 10
7.453861
 20
6.181268
 30
0.0
 11
7.025607
 21
6.181268
 31
0.0
  0
ARC
  8
OBJ
 10
7.177988
 20
5.820163
 30
0.0
 40
0.361106
 50
40.184879
 51
139.815121
  0
ARC
  8
OBJ
 10
8.005606
 20
2.209797
 30
0.0
 40
4.120471
 50
79.786344
 51
100.213656
  0
LINE
  8
OBJ
  6
CONTINUOUS
 10
9.109096
 20
5.821268
 30
0.0
 11
6.902116
 21
5.821268
 31
0.0
  0
LINE
  8
0
 10
8.891606
 20
5.821268
 30
0.0
 11
7.119606
 21
5.821268
 31
0.0
  0
ARC
  8
0
 10
3.911606
 20
3.774268
 30
0.0
 40
1.476
 50
16.195776
 51
163.804224
  0
ARC
  8
0
 10
-1.478736
 20
-45.608089
 30
0.0
 40
51.883705
 50
80.591004
 51
86.43592
  0
LINE
  8
0
 10
1.815285
 20
4.128268
 30
0.0
 11
2.417357
 21
4.128268
 31
0.0
  0
LINE
  8
0
 10
1.815285
 20
3.420268
 30
0.0
 11
2.417357
 21
3.420268
 31
0.0
  0
ARC
  8
0
 10
2.417357
 20
4.208268
 30
0.0
 40
0.08
 50
270.0
 51
343.804224
  0
LINE
  8
0
 10
2.765158
 20
5.001013
 30
0.0
 11
2.575174
 21
4.891325
 31
0.0
  0
LINE
  8
0
 10
2.765158
 20
5.220387
 30
0.0
 11
2.765158
 21
5.001013
 31
0.0
  0
LINE
  8
0
 10
2.575174
 20
5.330075
 30
0.0
 11
2.765158
 21
5.220387
 31
0.0
  0
LINE
  8
0
 10
2.38519
 20
5.220387
 30
0.0
 11
2.575174
 21
5.330075
 31
0.0
  0
LINE
  8
0
 10
2.38519
 20
5.001013
 30
0.0
 11
2.38519
 21
5.220387
 31
0.0
  0
LINE
  8
0
 10
2.575174
 20
4.891325
 30
0.0
 11
2.38519
 21
5.001013
 31
0.0
  0
ARC
  8
0
 10
2.575174
 20
5.1107
 30
0.0
 40
0.193285
 50
229.395522
 51
250.604478
  0
ARC
  8
0
 10
2.575174
 20
5.1107
 30
0.0
 40
0.193285
 50
289.395522
 51
310.604478
  0
ARC
  8
0
 10
2.575174
 20
5.1107
 30
0.0
 40
0.193285
 50
349.395522
 51
10.604478
  0
ARC
  8
0
 10
2.575174
 20
5.1107
 30
0.0
 40
0.193285
 50
49.395522
 51
70.604478
  0
ARC
  8
0
 10
2.575174
 20
5.1107
 30
0.0
 40
0.193285
 50
109.395522
 51
130.604478
  0
LINE
  8
OBJ
 10
2.539474
 20
5.075
 30
0.0
 11
2.468074
 21
5.075
 31
0.0
  0
LINE
  8
OBJ
 10
2.539474
 20
5.075
 30
0.0
 11
2.539474
 21
5.0036
 31
0.0
  0
LINE
  8
OBJ
 10
2.539474
 20
5.0036
 30
0.0
 11
2.610874
 21
5.0036
 31
0.0
  0
LINE
  8
OBJ
 10
2.610874
 20
5.075
 30
0.0
 11
2.610874
 21
5.0036
 31
0.0
  0
LINE
  8
OBJ
 10
2.682274
 20
5.075
 30
0.0
 11
2.610874
 21
5.075
 31
0.0
  0
LINE
  8
OBJ
 10
2.539474
 20
5.2178
 30
0.0
 11
2.539474
 21
5.1464
 31
0.0
  0
LINE
  8
OBJ
 10
2.610874
 20
5.2178
 30
0.0
 11
2.610874
 21
5.1464
 31
0.0
  0
LINE
  8
OBJ
 10
2.610874
 20
5.2178
 30
0.0
 11
2.539474
 21
5.2178
 31
0.0
  0
LINE
  8
OBJ
 10
2.539474
 20
5.1464
 30
0.0
 11
2.468074
 21
5.1464
 31
0.0
  0
LINE
  8
OBJ
 10
2.682274
 20
5.1464
 30
0.0
 11
2.610874
 21
5.1464
 31
0.0
  0
LINE
  8
0
 10
2.610874
 20
5.1464
 30
0.0
 11
2.539474
 21
5.075
 31
0.0
  0
LINE
  8
0
 10
2.539474
 20
5.1464
 30
0.0
 11
2.610874
 21
5.075
 31
0.0
  0
LINE
  8
OBJ
 10
2.682274
 20
5.075
 30
0.0
 11
2.682274
 21
5.1464
 31
0.0
  0
LINE
  8
OBJ
 10
2.468074
 20
5.1464
 30
0.0
 11
2.468074
 21
5.075
 31
0.0
  0
ARC
  8
0
 10
2.575174
 20
5.1107
 30
0.0
 40
0.193285
 50
169.395522
 51
190.604478
  0
CIRCLE
  8
0
 10
2.575174
 20
5.1107
 30
0.0
 40
0.186787
  0
CIRCLE
  8
OBJ
 10
2.575174
 20
5.1107
 30
0.0
 40
0.16065
  0
LINE
  8
OBJ
 10
6.902116
 20
6.053168
 30
0.0
 11
6.902116
 21
5.821268
 31
0.0
  0
LINE
  8
0
 10
6.007926
 20
4.128268
 30
0.0
 11
5.405855
 21
4.128268
 31
0.0
  0
LINE
  8
0
 10
6.007926
 20
3.420268
 30
0.0
 11
5.405855
 21
3.420268
 31
0.0
  0
ARC
  8
0
 10
5.405855
 20
4.208268
 30
0.0
 40
0.08
 50
196.195776
 51
270.0
  0
LINE
  8
0
 10
5.357725
 20
4.920716
 30
0.0
 11
5.13835
 21
4.920716
 31
0.0
  0
LINE
  8
0
 10
5.13835
 20
5.300684
 30
0.0
 11
5.357725
 21
5.300684
 31
0.0
  0
ARC
  8
0
 10
5.248037
 20
5.1107
 30
0.0
 40
0.193285
 50
259.395522
 51
280.604478
  0
LINE
  8
OBJ
 10
5.283737
 20
5.2178
 30
0.0
 11
5.212337
 21
5.2178
 31
0.0
  0
LINE
  8
OBJ
 10
5.212337
 20
5.0036
 30
0.0
 11
5.283737
 21
5.0036
 31
0.0
  0
LINE
  8
0
 10
5.283737
 20
5.1464
 30
0.0
 11
5.212337
 21
5.075
 31
0.0
  0
LINE
  8
0
 10
5.283737
 20
5.075
 30
0.0
 11
5.212337
 21
5.1464
 31
0.0
  0
CIRCLE
  8
OBJ
 10
5.248037
 20
5.1107
 30
0.0
 40
0.16065
  0
CIRCLE
  8
0
 10
5.248037
 20
5.1107
 30
0.0
 40
0.186787
  0
ARC
  8
0
 10
5.248037
 20
5.1107
 30
0.0
 40
0.193285
 50
79.395522
 51
100.604478
  0
LINE
  8
0
 10
5.13835
 20
4.920716
 30
0.0
 11
5.028663
 21
5.1107
 31
0.0
  0
LINE
  8
0
 10
5.028663
 20
5.1107
 30
0.0
 11
5.13835
 21
5.300684
 31
0.0
  0
ARC
  8
0
 10
5.248037
 20
5.1107
 30
0.0
 40
0.193285
 50
199.395522
 51
220.604478
  0
ARC
  8
0
 10
5.248037
 20
5.1107
 30
0.0
 40
0.193285
 50
139.395522
 51
160.604478
  0
LINE
  8
OBJ
 10
5.212337
 20
5.0036
 30
0.0
 11
5.212337
 21
5.075
 31
0.0
  0
LINE
  8
OBJ
 10
5.212337
 20
5.075
 30
0.0
 11
5.140937
 21
5.075
 31
0.0
  0
LINE
  8
OBJ
 10
5.140937
 20
5.1464
 30
0.0
 11
5.140937
 21
5.075
 31
0.0
  0
LINE
  8
OBJ
 10
5.212337
 20
5.1464
 30
0.0
 11
5.140937
 21
5.1464
 31
0.0
  0
LINE
  8
OBJ
 10
5.212337
 20
5.1464
 30
0.0
 11
5.212337
 21
5.2178
 31
0.0
  0
LINE
  8
0
 10
5.467412
 20
5.1107
 30
0.0
 11
5.357725
 21
4.920716
 31
0.0
  0
LINE
  8
0
 10
5.357725
 20
5.300684
 30
0.0
 11
5.467412
 21
5.1107
 31
0.0
  0
ARC
  8
0
 10
5.248037
 20
5.1107
 30
0.0
 40
0.193285
 50
19.395522
 51
40.604478
  0
ARC
  8
0
 10
5.248037
 20
5.1107
 30
0.0
 40
0.193285
 50
319.395522
 51
340.604478
  0
LINE
  8
OBJ
 10
5.283737
 20
5.0036
 30
0.0
 11
5.283737
 21
5.075
 31
0.0
  0
LINE
  8
OBJ
 10
5.283737
 20
5.1464
 30
0.0
 11
5.283737
 21
5.2178
 31
0.0
  0
LINE
  8
OBJ
 10
5.355137
 20
5.075
 30
0.0
 11
5.355137
 21
5.1464
 31
0.0
  0
LINE
  8
OBJ
 10
5.355137
 20
5.075
 30
0.0
 11
5.283737
 21
5.075
 31
0.0
  0
LINE
  8
OBJ
 10
5.355137
 20
5.1464
 30
0.0
 11
5.283737
 21
5.1464
 31
0.0
  0
ARC
  8
0
 10
6.131105
 20
3.604268
 30
0.0
 40
0.1
 50
90.0
 51
175.620047
  0
ARC
  8
0
 10
6.131105
 20
3.944268
 30
0.0
 40
0.1
 50
184.379953
 51
270.0
  0
LINE
  8
OBJ
 10
7.183606
 20
5.821268
 30
0.0
 11
7.183606
 21
5.820268
 31
0.0
  0
ARC
  8
0
 10
7.019606
 20
5.676254
 30
0.0
 40
0.1
 50
260.591004
 51
0.0
  0
LINE
  8
0
 10
7.119606
 20
5.821268
 30
0.0
 11
7.119606
 21
5.676254
 31
0.0
  0
LINE
  8
OBJ
 10
7.225606
 20
6.181268
 30
0.0
 11
7.225606
 21
6.205923
 31
0.0
  0
LINE
  8
OBJ
 10
6.902116
 20
6.053168
 30
0.0
 11
7.025607
 21
6.181268
 31
0.0
  0
ARC
  8
OBJ
 10
7.285606
 20
6.205923
 30
0.0
 40
0.06
 50
100.213656
 51
180.0
  0
LINE
  8
0
 10
2.7927
 20
9.812951
 30
0.0
 11
5.030511
 21
9.812951
 31
0.0
  0
LINE
  8
0
 10
3.086606
 20
9.616951
 30
0.0
 11
4.736606
 21
9.616951
 31
0.0
  0
LINE
  8
0
 10
1.845606
 20
9.969951
 30
0.0
 11
5.977606
 21
9.969951
 31
0.0
  0
LINE
  8
0
 10
1.785606
 20
10.205951
 30
0.0
 11
6.037606
 21
10.205951
 31
0.0
  0
ARC
  8
0
 10
3.086606
 20
9.676951
 30
0.0
 40
0.06
 50
180.0
 51
270.0
  0
LINE
  8
0
 10
1.746606
 20
10.401951
 30
0.0
 11
3.560893
 21
10.401951
 31
0.0
  0
LINE
  8
0
 10
1.845606
 20
9.812951
 30
0.0
 11
2.357647
 21
9.812951
 31
0.0
  0
LINE
  8
0
 10
1.746606
 20
10.401951
 30
0.0
 11
1.750606
 21
10.401951
 31
0.0
  0
ARC
  8
0
 10
1.845606
 20
9.872951
 30
0.0
 40
0.06
 50
180.0
 51
270.0
  0
ARC
  8
0
 10
1.845606
 20
10.029951
 30
0.0
 40
0.06
 50
180.0
 51
270.0
  0
LINE
  8
0
 10
1.785606
 20
9.872951
 30
0.0
 11
1.785606
 21
10.207668
 31
0.0
  0
ARC
  8
0
 10
1.750606
 20
10.366951
 30
0.0
 40
0.035
 50
360.0
 51
90.0
  0
LINE
  8
0
 10
1.785606
 20
10.366951
 30
0.0
 11
1.785606
 21
10.205951
 31
0.0
  0
LINE
  8
0
 10
1.746606
 20
10.401951
 30
0.0
 11
1.750606
 21
10.401951
 31
0.0
  0
LINE
  8
0
 10
1.785606
 20
10.205951
 30
0.0
 11
1.785606
 21
10.366951
 31
0.0
  0
LINE
  8
OBJ
 10
2.767785
 20
9.724935
 30
0.0
 11
2.784939
 21
9.748155
 31
0.0
  0
LINE
  8
OBJ
 10
2.685132
 20
9.724935
 30
0.0
 11
2.767785
 21
9.724935
 31
0.0
  0
ARC
  8
OBJ
 10
2.738916
 20
9.782155
 30
0.0
 40
0.057219
 50
199.954678
 51
340.045322
  0
LINE
  8
OBJ
 10
2.382562
 20
9.724935
 30
0.0
 11
2.465215
 21
9.724935
 31
0.0
  0
ARC
  8
OBJ
 10
2.575174
 20
9.904173
 30
0.0
 40
0.179237
 50
232.158498
 51
307.841502
  0
LINE
  8
OBJ
 10
2.465215
 20
9.724935
 30
0.0
 11
2.685132
 21
9.724935
 31
0.0
  0
LINE
  8
OBJ
  6
CENTER2
 10
2.77537
 20
9.969951
 30
0.0
 11
2.77537
 21
9.922143
 31
0.0
  0
LINE
  8
OBJ
 10
2.526781
 20
9.969951
 30
0.0
 11
2.478973
 21
9.922143
 31
0.0
  0
LINE
  8
OBJ
  6
CONTINUOUS
 10
2.465215
 20
9.922143
 30
0.0
 11
2.465215
 21
9.762627
 31
0.0
  0
LINE
  8
OBJ
  6
CONTINUOUS
 10
2.7927
 20
9.922143
 30
0.0
 11
2.7927
 21
9.762627
 31
0.0
  0
LINE
  8
OBJ
  6
CONTINUOUS
 10
2.685132
 20
9.922143
 30
0.0
 11
2.685132
 21
9.762627
 31
0.0
  0
LINE
  8
OBJ
  6
CENTER2
 10
2.374978
 20
9.969951
 30
0.0
 11
2.374978
 21
9.922143
 31
0.0
  0
LINE
  8
OBJ
  6
CONTINUOUS
 10
2.357647
 20
9.922143
 30
0.0
 11
2.357647
 21
9.762627
 31
0.0
  0
LINE
  8
0
 10
2.374978
 20
9.969951
 30
0.0
 11
2.77537
 21
9.969951
 31
0.0
  0
LINE
  8
OBJ
 10
2.357647
 20
9.922143
 30
0.0
 11
2.7927
 21
9.922143
 31
0.0
  0
ARC
  8
OBJ
 10
2.411431
 20
9.782155
 30
0.0
 40
0.057219
 50
199.954678
 51
340.045322
  0
LINE
  8
OBJ
 10
2.382562
 20
9.724935
 30
0.0
 11
2.365409
 21
9.748155
 31
0.0
  0
ARC
  8
0
 10
2.966606
 20
9.752951
 30
0.0
 40
0.06
 50
0.0
 51
90.0
  0
LINE
  8
0
 10
3.026606
 20
9.676951
 30
0.0
 11
3.026606
 21
9.752951
 31
0.0
  0
ARC
  8
0
 10
3.563325
 20
10.044356
 30
0.0
 40
0.357603
 50
47.433525
 51
90.389748
  0
ARC
  8
0
 10
4.259886
 20
10.147025
 30
0.0
 40
0.357603
 50
89.610252
 51
132.566475
  0
LINE
  8
0
 10
5.465564
 20
9.812951
 30
0.0
 11
5.977606
 21
9.812951
 31
0.0
  0
LINE
  8
OBJ
 10
5.357996
 20
9.724935
 30
0.0
 11
5.138079
 21
9.724935
 31
0.0
  0
ARC
  8
OBJ
 10
5.248037
 20
9.904173
 30
0.0
 40
0.179237
 50
232.158498
 51
307.841502
  0
LINE
  8
OBJ
 10
5.465564
 20
9.922143
 30
0.0
 11
5.030511
 21
9.922143
 31
0.0
  0
LINE
  8
0
 10
5.448233
 20
9.969951
 30
0.0
 11
5.047841
 21
9.969951
 31
0.0
  0
ARC
  8
OBJ
 10
5.084295
 20
9.782155
 30
0.0
 40
0.057219
 50
199.954678
 51
340.045322
  0
LINE
  8
OBJ
 10
5.138079
 20
9.724935
 30
0.0
 11
5.055426
 21
9.724935
 31
0.0
  0
LINE
  8
OBJ
 10
5.055426
 20
9.724935
 30
0.0
 11
5.038272
 21
9.748155
 31
0.0
  0
LINE
  8
OBJ
  6
CENTER2
 10
5.047841
 20
9.969951
 30
0.0
 11
5.047841
 21
9.922143
 31
0.0
  0
LINE
  8
OBJ
  6
CONTINUOUS
 10
5.138079
 20
9.922143
 30
0.0
 11
5.138079
 21
9.762627
 31
0.0
  0
LINE
  8
OBJ
  6
CONTINUOUS
 10
5.030511
 20
9.922143
 30
0.0
 11
5.030511
 21
9.762627
 31
0.0
  0
LINE
  8
0
 10
4.796606
 20
9.676951
 30
0.0
 11
4.796606
 21
9.752951
 31
0.0
  0
ARC
  8
0
 10
4.856606
 20
9.752951
 30
0.0
 40
0.06
 50
90.0
 51
180.0
  0
ARC
  8
0
 10
4.736606
 20
9.676951
 30
0.0
 40
0.06
 50
270.0
 51
0.0
  0
LINE
  8
OBJ
 10
5.440649
 20
9.724935
 30
0.0
 11
5.457803
 21
9.748155
 31
0.0
  0
ARC
  8
OBJ
 10
5.41178
 20
9.782155
 30
0.0
 40
0.057219
 50
199.954678
 51
340.045322
  0
LINE
  8
OBJ
 10
5.440649
 20
9.724935
 30
0.0
 11
5.357996
 21
9.724935
 31
0.0
  0
LINE
  8
OBJ
  6
CENTER2
 10
5.448233
 20
9.969951
 30
0.0
 11
5.448233
 21
9.922143
 31
0.0
  0
LINE
  8
OBJ
 10
5.29643
 20
9.969951
 30
0.0
 11
5.344238
 21
9.922143
 31
0.0
  0
LINE
  8
OBJ
  6
CONTINUOUS
 10
5.465564
 20
9.922143
 30
0.0
 11
5.465564
 21
9.762627
 31
0.0
  0
LINE
  8
OBJ
  6
CONTINUOUS
 10
5.357996
 20
9.922143
 30
0.0
 11
5.357996
 21
9.762627
 31
0.0
  0
ARC
  8
0
 10
5.977606
 20
9.872951
 30
0.0
 40
0.06
 50
270.0
 51
0.0
  0
ARC
  8
0
 10
5.977606
 20
10.029951
 30
0.0
 40
0.06
 50
270.0
 51
0.0
  0
LINE
  8
0
 10
6.037606
 20
9.872951
 30
0.0
 11
6.037606
 21
10.205951
 31
0.0
  0
ARC
  8
0
 10
6.162606
 20
10.338334
 30
0.0
 40
0.125
 50
90.0
 51
180.0
  0
LINE
  8
0
 10
6.037606
 20
10.483933
 30
0.0
 11
6.037606
 21
10.205951
 31
0.0
  0
ARC
  8
0
 10
6.162606
 20
10.483933
 30
0.0
 40
0.125
 50
93.147657
 51
180.0
  0
LINE
  8
OBJ
 10
7.453861
 20
6.053168
 30
0.0
 11
7.453861
 21
5.821268
 31
0.0
  0
LINE
  8
OBJ
 10
9.109096
 20
6.053168
 30
0.0
 11
9.109096
 21
5.821268
 31
0.0
  0
LINE
  8
OBJ
 10
8.557351
 20
6.053168
 30
0.0
 11
8.557351
 21
5.821268
 31
0.0
  0
ARC
  8
0
 10
9.234456
 20
4.594268
 30
0.0
 40
0.4
 50
90.0
 51
180.0
  0
LINE
  8
0
 10
9.621606
 20
4.994268
 30
0.0
 11
8.541606
 21
4.994268
 31
0.0
  0
ARC
  8
0
 10
8.541606
 20
4.594268
 30
0.0
 40
0.4
 50
90.0
 51
180.0
  0
ARC
  8
0
 10
8.041606
 20
3.944268
 30
0.0
 40
0.1
 50
270.0
 51
0.0
  0
ARC
  8
0
 10
8.041606
 20
3.604268
 30
0.0
 40
0.1
 50
0.0
 51
90.0
  0
ARC
  8
0
 10
8.210283
 20
3.604268
 30
0.0
 40
0.1
 50
0.0
 51
90.0
  0
ARC
  8
0
 10
8.210283
 20
3.944268
 30
0.0
 40
0.1
 50
270.0
 51
0.0
  0
LINE
  8
0
 10
8.141606
 20
4.594268
 30
0.0
 11
8.141606
 21
3.944268
 31
0.0
  0
LINE
  8
OBJ
 10
8.827606
 20
5.821268
 30
0.0
 11
8.827606
 21
5.820268
 31
0.0
  0
LINE
  8
0
 10
9.792304
 20
3.774268
 30
0.0
 11
9.38683
 21
3.774268
 31
0.0
  0
ARC
  8
0
 10
-1.478736
 20
-45.608089
 30
0.0
 40
51.883705
 50
77.646267
 51
78.380235
  0
ARC
  8
0
 10
8.991606
 20
5.310253
 30
0.0
 40
0.1
 50
180.0
 51
258.380235
  0
LINE
  8
0
 10
8.891606
 20
5.821268
 30
0.0
 11
8.891606
 21
5.310253
 31
0.0
  0
LINE
  8
OBJ
  6
CONTINUOUS
 10
8.985604
 20
6.181268
 30
0.0
 11
8.557351
 21
6.181268
 31
0.0
  0
ARC
  8
OBJ
 10
8.833223
 20
5.820163
 30
0.0
 40
0.361106
 50
40.184879
 51
139.815121
  0
LINE
  8
OBJ
  6
CONTINUOUS
 10
8.557351
 20
6.181268
 30
0.0
 11
7.453861
 21
6.181268
 31
0.0
  0
ARC
  8
OBJ
 10
8.005606
 20
4.928996
 30
0.0
 40
1.252272
 50
63.858144
 51
116.141856
  0
ARC
  8
OBJ
 10
8.725606
 20
6.205923
 30
0.0
 40
0.06
 50
0.0
 51
79.786344
  0
LINE
  8
OBJ
 10
8.785606
 20
6.181268
 30
0.0
 11
8.785606
 21
6.205923
 31
0.0
  0
LINE
  8
OBJ
 10
9.109096
 20
6.053168
 30
0.0
 11
8.985604
 21
6.181268
 31
0.0
  0
POINT
  8
DEFPOINTS
  6
BYBLOCK
 62
     0
 10
9.621606
 20
6.574268
 30
0.0
  0
CIRCLE
  8
0
 10
10.821606
 20
5.464268
 30
0.0
 40
0.29
  0
CIRCLE
  8
0
 10
10.821606
 20
5.464268
 30
0.0
 40
0.35
  0
ARC
  8
0
 10
9.02779
 20
10.587951
 30
0.0
 40
0.5
 50
227.720147
 51
270.0
  0
ARC
  8
0
 10
8.050843
 20
10.462582
 30
0.0
 40
0.25
 50
47.720147
 51
93.147657
  0
ARC
  8
0
 10
8.37329
 20
10.338334
 30
0.0
 40
0.125
 50
47.720147
 51
90.0
  0
LINE
  8
0
 10
8.219031
 20
10.647549
 30
0.0
 11
8.691414
 21
10.218017
 31
0.0
  0
LINE
  8
0
 10
9.02779
 20
10.087951
 30
0.0
 11
9.621606
 21
10.087951
 31
0.0
  0
LINE
  8
0
 10
10.251606
 20
9.650347
 30
0.0
 11
10.251606
 21
10.463861
 31
0.0
  0
LINE
  8
OBJ
 10
8.568106
 20
12.026673
 30
0.0
 11
9.130606
 21
13.000951
 31
0.0
  0
LINE
  8
OBJ
 10
7.443106
 20
12.026673
 30
0.0
 11
8.568106
 21
12.026673
 31
0.0
  0
CIRCLE
  8
OBJ
 10
8.005606
 20
13.000951
 30
0.0
 40
0.055
  0
LINE
  8
0
 10
10.821606
 20
9.610339
 30
0.0
 11
10.821606
 21
10.477197
 31
0.0
  0
LINE
  8
0
 10
1.746606
 20
15.599951
 30
0.0
 11
1.511606
 21
15.599951
 31
0.0
  0
ARC
  8
0
 10
4.931609
 20
13.764001
 30
0.0
 40
4.270792
 50
161.609925
 51
181.100831
  0
ARC
  8
OBJ
 10
-1.621001
 20
13.158104
 30
0.0
 40
2.492397
 50
3.797744
 51
9.104601
  0
ARC
  8
OBJ
 10
1.667515
 20
13.391549
 30
0.0
 40
1.017112
 50
158.848885
 51
163.410301
  0
ARC
  8
OBJ
 10
0.751606
 20
13.745908
 30
0.0
 40
0.035043
 50
90.0
 51
158.848885
  0
ARC
  8
OBJ
 10
0.751606
 20
13.745908
 30
0.0
 40
0.035043
 50
21.151115
 51
90.0
  0
LINE
  8
OBJ
  6
CONTINUOUS
 10
0.81047
 20
13.681951
 30
0.0
 11
0.661606
 21
13.681951
 31
0.0
  0
LINE
  8
OBJ
  6
CONTINUOUS
 10
0.601606
 20
13.428951
 30
0.0
 11
0.481606
 21
13.428951
 31
0.0
  0
ARC
  8
OBJ
 10
0.661606
 20
13.621951
 30
0.0
 40
0.06
 50
90.0
 51
180.0
  0
ARC
  8
OBJ
 10
-0.164304
 20
13.391549
 30
0.0
 40
1.017112
 50
9.104601
 51
21.151115
  0
ARC
  8
OBJ
 10
0.481606
 20
13.348951
 30
0.0
 40
0.08
 50
90.0
 51
180.0
  0
ARC
  8
0
 10
1.21105
 20
15.000951
 30
0.0
 40
0.35
 50
94.007416
 51
161.609925
  0
ARC
  8
0
 10
1.468356
 20
15.13643
 30
0.0
 40
0.06
 50
0.0
 51
78.828647
  0
ARC
  8
0
 10
1.491606
 20
15.254157
 30
0.0
 40
0.06
 50
180.0
 51
258.828647
  0
LINE
  8
OBJ
  6
CENTER2
 10
1.431606
 20
15.026755
 30
0.0
 11
1.383798
 21
15.026755
 31
0.0
  0
LINE
  8
OBJ
  6
CENTER2
 10
1.431606
 20
15.425147
 30
0.0
 11
1.383798
 21
15.425147
 31
0.0
  0
LINE
  8
0
 10
1.431606
 20
15.024755
 30
0.0
 11
1.431606
 21
15.425147
 31
0.0
  0
LINE
  8
OBJ
 10
1.383798
 20
15.007425
 30
0.0
 11
1.383798
 21
15.442478
 31
0.0
  0
LINE
  8
OBJ
 10
1.431606
 20
15.176559
 30
0.0
 11
1.383798
 21
15.128751
 31
0.0
  0
ARC
  8
OBJ
 10
1.243809
 20
15.061209
 30
0.0
 40
0.057219
 50
109.954678
 51
250.045322
  0
LINE
  8
OBJ
 10
1.18659
 20
15.03234
 30
0.0
 11
1.18659
 21
15.114993
 31
0.0
  0
LINE
  8
OBJ
 10
1.18659
 20
15.03234
 30
0.0
 11
1.20981
 21
15.015186
 31
0.0
  0
LINE
  8
OBJ
 10
1.18659
 20
15.417563
 30
0.0
 11
1.20981
 21
15.434716
 31
0.0
  0
ARC
  8
OBJ
 10
1.243809
 20
15.388694
 30
0.0
 40
0.057219
 50
109.954678
 51
250.045322
  0
LINE
  8
OBJ
 10
1.18659
 20
15.33491
 30
0.0
 11
1.18659
 21
15.417563
 31
0.0
  0
ARC
  8
OBJ
 10
1.365827
 20
15.224951
 30
0.0
 40
0.179237
 50
142.158498
 51
217.841502
  0
LINE
  8
OBJ
 10
1.18659
 20
15.114993
 30
0.0
 11
1.18659
 21
15.33491
 31
0.0
  0
LINE
  8
OBJ
  6
CONTINUOUS
 10
1.383798
 20
15.442478
 30
0.0
 11
1.224281
 21
15.442478
 31
0.0
  0
LINE
  8
OBJ
  6
CONTINUOUS
 10
1.383798
 20
15.33491
 30
0.0
 11
1.224281
 21
15.33491
 31
0.0
  0
LINE
  8
OBJ
  6
CONTINUOUS
 10
1.383798
 20
15.114993
 30
0.0
 11
1.224281
 21
15.114993
 31
0.0
  0
LINE
  8
OBJ
  6
CONTINUOUS
 10
1.383798
 20
15.007425
 30
0.0
 11
1.224281
 21
15.007425
 31
0.0
  0
ARC
  8
0
 10
1.511606
 20
15.519951
 30
0.0
 40
0.08
 50
90.0
 51
180.0
  0
LINE
  8
0
 10
6.162606
 20
15.538568
 30
0.0
 11
8.37329
 21
15.538568
 31
0.0
  0
LINE
  8
0
 10
4.262318
 20
15.497282
 30
0.0
 11
8.037116
 21
15.289697
 31
0.0
  0
LINE
  8
0
 10
2.7927
 20
16.188951
 30
0.0
 11
5.030511
 21
16.188951
 31
0.0
  0
LINE
  8
0
 10
1.845606
 20
16.031951
 30
0.0
 11
5.977606
 21
16.031951
 31
0.0
  0
LINE
  8
0
 10
3.086606
 20
16.384951
 30
0.0
 11
4.736606
 21
16.384951
 31
0.0
  0
LINE
  8
0
 10
1.785606
 20
15.795951
 30
0.0
 11
6.037606
 21
15.795951
 31
0.0
  0
LINE
  8
0
 10
1.785606
 20
15.634951
 30
0.0
 11
1.785606
 21
15.795951
 31
0.0
  0
LINE
  8
0
 10
1.746606
 20
15.599951
 30
0.0
 11
3.560893
 21
15.599951
 31
0.0
  0
ARC
  8
0
 10
1.750606
 20
15.634951
 30
0.0
 40
0.035
 50
270.0
 51
0.0
  0
LINE
  8
0
 10
1.746606
 20
15.599951
 30
0.0
 11
1.750606
 21
15.599951
 31
0.0
  0
ARC
  8
0
 10
3.563325
 20
15.957546
 30
0.0
 40
0.357603
 50
269.610252
 51
312.566475
  0
ARC
  8
0
 10
4.259886
 20
15.854877
 30
0.0
 40
0.357603
 50
227.433525
 51
270.389748
  0
ARC
  8
0
 10
3.086606
 20
16.324951
 30
0.0
 40
0.06
 50
90.0
 51
180.0
  0
LINE
  8
0
 10
1.845606
 20
16.188951
 30
0.0
 11
2.357647
 21
16.188951
 31
0.0
  0
LINE
  8
0
 10
1.785606
 20
16.128951
 30
0.0
 11
1.785606
 21
15.794234
 31
0.0
  0
ARC
  8
0
 10
1.845606
 20
15.971951
 30
0.0
 40
0.06
 50
90.0
 51
180.0
  0
ARC
  8
0
 10
1.845606
 20
16.128951
 30
0.0
 40
0.06
 50
90.0
 51
180.0
  0
LINE
  8
OBJ
 10
2.526781
 20
16.031951
 30
0.0
 11
2.478973
 21
16.079759
 31
0.0
  0
LINE
  8
OBJ
  6
CENTER2
 10
2.77537
 20
16.031951
 30
0.0
 11
2.77537
 21
16.079759
 31
0.0
  0
LINE
  8
OBJ
  6
CENTER2
 10
2.374978
 20
16.031951
 30
0.0
 11
2.374978
 21
16.079759
 31
0.0
  0
LINE
  8
OBJ
 10
2.357647
 20
16.079759
 30
0.0
 11
2.7927
 21
16.079759
 31
0.0
  0
LINE
  8
0
 10
2.374978
 20
16.031951
 30
0.0
 11
2.77537
 21
16.031951
 31
0.0
  0
LINE
  8
OBJ
 10
2.465215
 20
16.276967
 30
0.0
 11
2.685132
 21
16.276967
 31
0.0
  0
ARC
  8
OBJ
 10
2.575174
 20
16.09773
 30
0.0
 40
0.179237
 50
52.158498
 51
127.841502
  0
LINE
  8
OBJ
 10
2.685132
 20
16.276967
 30
0.0
 11
2.767785
 21
16.276967
 31
0.0
  0
ARC
  8
OBJ
 10
2.738916
 20
16.219748
 30
0.0
 40
0.057219
 50
19.954678
 51
160.045322
  0
LINE
  8
OBJ
 10
2.767785
 20
16.276967
 30
0.0
 11
2.784939
 21
16.253747
 31
0.0
  0
LINE
  8
OBJ
 10
2.382562
 20
16.276967
 30
0.0
 11
2.365409
 21
16.253747
 31
0.0
  0
LINE
  8
OBJ
 10
2.382562
 20
16.276967
 30
0.0
 11
2.465215
 21
16.276967
 31
0.0
  0
ARC
  8
OBJ
 10
2.411431
 20
16.219748
 30
0.0
 40
0.057219
 50
19.954678
 51
160.045322
  0
LINE
  8
OBJ
  6
CONTINUOUS
 10
2.357647
 20
16.079759
 30
0.0
 11
2.357647
 21
16.239276
 31
0.0
  0
LINE
  8
OBJ
  6
CONTINUOUS
 10
2.465215
 20
16.079759
 30
0.0
 11
2.465215
 21
16.239276
 31
0.0
  0
LINE
  8
OBJ
  6
CONTINUOUS
 10
2.685132
 20
16.079759
 30
0.0
 11
2.685132
 21
16.239276
 31
0.0
  0
LINE
  8
OBJ
  6
CONTINUOUS
 10
2.7927
 20
16.079759
 30
0.0
 11
2.7927
 21
16.239276
 31
0.0
  0
LINE
  8
0
 10
3.026606
 20
16.324951
 30
0.0
 11
3.026606
 21
16.248951
 31
0.0
  0
ARC
  8
0
 10
2.966606
 20
16.248951
 30
0.0
 40
0.06
 50
270.0
 51
0.0
  0
LINE
  8
0
 10
4.068606
 20
16.649956
 30
0.0
 11
4.068606
 21
17.846951
 31
0.0
  0
LINE
  8
0
 10
3.754606
 20
16.649956
 30
0.0
 11
3.754606
 21
17.846951
 31
0.0
  0
LINE
  8
0
 10
4.383606
 20
16.470951
 30
0.0
 11
4.383606
 21
17.786951
 31
0.0
  0
LINE
  8
0
 10
3.439606
 20
16.470951
 30
0.0
 11
3.439606
 21
17.786951
 31
0.0
  0
ARC
  8
0
 10
3.911606
 20
16.649956
 30
0.0
 40
0.157
 50
180.0
 51
0.0
  0
LINE
  8
0
 10
3.399606
 20
16.470951
 30
0.0
 11
4.423606
 21
16.470951
 31
0.0
  0
LINE
  8
0
 10
3.399606
 20
16.384951
 30
0.0
 11
3.399606
 21
16.470951
 31
0.0
  0
LINE
  8
0
 10
4.423606
 20
16.384951
 30
0.0
 11
4.423606
 21
16.470951
 31
0.0
  0
LINE
  8
0
 10
3.499606
 20
17.846951
 30
0.0
 11
4.323606
 21
17.846951
 31
0.0
  0
LINE
  8
0
 10
3.439606
 20
17.786951
 30
0.0
 11
3.754606
 21
17.786951
 31
0.0
  0
LINE
  8
0
 10
3.439606
 20
17.786951
 30
0.0
 11
3.499606
 21
17.846951
 31
0.0
  0
LINE
  8
0
 10
4.068606
 20
17.786951
 30
0.0
 11
4.383606
 21
17.786951
 31
0.0
  0
LINE
  8
0
 10
4.383606
 20
17.786951
 30
0.0
 11
4.323606
 21
17.846951
 31
0.0
  0
LINE
  8
0
 10
6.037606
 20
15.51797
 30
0.0
 11
6.037606
 21
15.795951
 31
0.0
  0
ARC
  8
0
 10
6.162606
 20
15.663568
 30
0.0
 40
0.125
 50
180.0
 51
270.0
  0
ARC
  8
0
 10
6.162606
 20
15.51797
 30
0.0
 40
0.125
 50
180.0
 51
266.852343
  0
LINE
  8
0
 10
5.465564
 20
16.188951
 30
0.0
 11
5.977606
 21
16.188951
 31
0.0
  0
ARC
  8
OBJ
 10
5.248037
 20
16.09773
 30
0.0
 40
0.179237
 50
52.158498
 51
127.841502
  0
LINE
  8
OBJ
 10
5.357996
 20
16.276967
 30
0.0
 11
5.138079
 21
16.276967
 31
0.0
  0
LINE
  8
0
 10
5.448233
 20
16.031951
 30
0.0
 11
5.047841
 21
16.031951
 31
0.0
  0
LINE
  8
OBJ
 10
5.465564
 20
16.079759
 30
0.0
 11
5.030511
 21
16.079759
 31
0.0
  0
LINE
  8
OBJ
 10
5.055426
 20
16.276967
 30
0.0
 11
5.038272
 21
16.253747
 31
0.0
  0
LINE
  8
OBJ
 10
5.138079
 20
16.276967
 30
0.0
 11
5.055426
 21
16.276967
 31
0.0
  0
ARC
  8
OBJ
 10
5.084295
 20
16.219748
 30
0.0
 40
0.057219
 50
19.954678
 51
160.045322
  0
LINE
  8
OBJ
  6
CENTER2
 10
5.047841
 20
16.031951
 30
0.0
 11
5.047841
 21
16.079759
 31
0.0
  0
LINE
  8
OBJ
  6
CONTINUOUS
 10
5.030511
 20
16.079759
 30
0.0
 11
5.030511
 21
16.239276
 31
0.0
  0
LINE
  8
OBJ
  6
CONTINUOUS
 10
5.138079
 20
16.079759
 30
0.0
 11
5.138079
 21
16.239276
 31
0.0
  0
ARC
  8
0
 10
4.736606
 20
16.324951
 30
0.0
 40
0.06
 50
0.0
 51
90.0
  0
LINE
  8
0
 10
4.796606
 20
16.324951
 30
0.0
 11
4.796606
 21
16.248951
 31
0.0
  0
ARC
  8
0
 10
4.856606
 20
16.248951
 30
0.0
 40
0.06
 50
180.0
 51
270.0
  0
LINE
  8
OBJ
 10
5.440649
 20
16.276967
 30
0.0
 11
5.357996
 21
16.276967
 31
0.0
  0
LINE
  8
OBJ
 10
5.29643
 20
16.031951
 30
0.0
 11
5.344238
 21
16.079759
 31
0.0
  0
LINE
  8
OBJ
  6
CONTINUOUS
 10
5.357996
 20
16.079759
 30
0.0
 11
5.357996
 21
16.239276
 31
0.0
  0
LINE
  8
OBJ
  6
CENTER2
 10
5.448233
 20
16.031951
 30
0.0
 11
5.448233
 21
16.079759
 31
0.0
  0
LINE
  8
OBJ
  6
CONTINUOUS
 10
5.465564
 20
16.079759
 30
0.0
 11
5.465564
 21
16.239276
 31
0.0
  0
ARC
  8
OBJ
 10
5.41178
 20
16.219748
 30
0.0
 40
0.057219
 50
19.954678
 51
160.045322
  0
LINE
  8
OBJ
 10
5.440649
 20
16.276967
 30
0.0
 11
5.457803
 21
16.253747
 31
0.0
  0
LINE
  8
0
 10
6.037606
 20
16.128951
 30
0.0
 11
6.037606
 21
15.795951
 31
0.0
  0
ARC
  8
0
 10
5.977606
 20
15.971951
 30
0.0
 40
0.06
 50
0.0
 51
90.0
  0
ARC
  8
0
 10
5.977606
 20
16.128951
 30
0.0
 40
0.06
 50
0.0
 51
90.0
  0
LINE
  8
0
 10
10.251606
 20
15.518314
 30
0.0
 11
10.251606
 21
16.331827
 31
0.0
  0
ARC
  8
0
 10
9.02779
 20
15.413951
 30
0.0
 40
0.5
 50
90.0
 51
132.279853
  0
LINE
  8
OBJ
 10
8.568106
 20
13.97523
 30
0.0
 11
7.443106
 21
13.97523
 31
0.0
  0
ARC
  8
0
 10
8.050843
 20
15.53932
 30
0.0
 40
0.25
 50
266.852343
 51
312.279853
  0
ARC
  8
0
 10
8.37329
 20
15.663568
 30
0.0
 40
0.125
 50
270.0
 51
312.279853
  0
LINE
  8
0
 10
8.219031
 20
15.354353
 30
0.0
 11
8.691414
 21
15.783885
 31
0.0
  0
LINE
  8
0
 10
9.02779
 20
15.913951
 30
0.0
 11
9.621606
 21
15.913951
 31
0.0
  0
LINE
  8
0
 10
10.821606
 20
15.571659
 30
0.0
 11
10.821606
 21
16.345164
 31
0.0
  0
LINE
  8
OBJ
 10
13.589606
 20
10.045951
 30
0.0
 11
13.589606
 21
15.955951
 31
0.0
  0
LINE
  8
0
 10
24.769349
 20
5.464268
 30
0.0
 11
25.408238
 21
5.464268
 31
0.0
  0
LINE
  8
0
 10
24.801835
 20
1.964268
 30
0.0
 11
25.440724
 21
1.964268
 31
0.0
  0
CIRCLE
  8
0
 10
24.679971
 20
4.749268
 30
0.0
 40
0.225
  0
CIRCLE
  8
0
 10
24.679971
 20
4.749268
 30
0.0
 40
0.335
  0
LINE
  8
0
 10
19.174971
 20
6.574268
 30
0.0
 11
25.084971
 21
6.574268
 31
0.0
  0
CIRCLE
  8
0
 10
24.679971
 20
2.799268
 30
0.0
 40
0.335
  0
CIRCLE
  8
0
 10
24.679971
 20
2.799268
 30
0.0
 40
0.225
  0
LINE
  8
0
 10
19.174971
 20
0.786268
 30
0.0
 11
25.084971
 21
0.786268
 31
0.0
  0
LINE
  8
OBJ
 10
13.589606
 20
0.786268
 30
0.0
 11
13.589606
 21
6.574268
 31
0.0
  0
LINE
  8
0
 10
19.174971
 20
6.574268
 30
0.0
 11
19.174971
 21
0.786268
 31
0.0
  0
LINE
  8
0
 10
18.745971
 20
4.599268
 30
0.0
 11
18.745971
 21
2.949268
 31
0.0
  0
LINE
  8
0
 10
18.941971
 20
4.893174
 30
0.0
 11
18.941971
 21
2.655363
 31
0.0
  0
LINE
  8
0
 10
19.098971
 20
3.390268
 30
0.0
 11
19.098971
 21
1.708268
 31
0.0
  0
LINE
  8
0
 10
18.83526
 20
1.964268
 30
0.0
 11
19.484978
 21
1.964268
 31
0.0
  0
LINE
  8
OBJ
  6
CONTINUOUS
 10
19.051163
 20
2.22031
 30
0.0
 11
18.891646
 21
2.22031
 31
0.0
  0
LINE
  8
OBJ
  6
CONTINUOUS
 10
19.051163
 20
2.547795
 30
0.0
 11
18.891646
 21
2.547795
 31
0.0
  0
LINE
  8
OBJ
  6
CONTINUOUS
 10
19.051163
 20
2.655363
 30
0.0
 11
18.891646
 21
2.655363
 31
0.0
  0
LINE
  8
OBJ
  6
CONTINUOUS
 10
19.051163
 20
2.327878
 30
0.0
 11
18.891646
 21
2.327878
 31
0.0
  0
LINE
  8
OBJ
 10
18.853955
 20
2.327878
 30
0.0
 11
18.853955
 21
2.547795
 31
0.0
  0
ARC
  8
OBJ
 10
19.033192
 20
2.437836
 30
0.0
 40
0.179237
 50
142.158498
 51
217.841502
  0
LINE
  8
OBJ
 10
18.853955
 20
2.245225
 30
0.0
 11
18.877175
 21
2.228071
 31
0.0
  0
ARC
  8
OBJ
 10
18.911174
 20
2.274094
 30
0.0
 40
0.057219
 50
109.954678
 51
250.045322
  0
LINE
  8
OBJ
 10
18.853955
 20
2.245225
 30
0.0
 11
18.853955
 21
2.327878
 31
0.0
  0
ARC
  8
0
 10
18.881971
 20
2.829268
 30
0.0
 40
0.06
 50
0.0
 51
90.0
  0
LINE
  8
0
 10
18.805971
 20
2.889268
 30
0.0
 11
18.881971
 21
2.889268
 31
0.0
  0
LINE
  8
OBJ
 10
18.853955
 20
2.630448
 30
0.0
 11
18.877175
 21
2.647601
 31
0.0
  0
ARC
  8
OBJ
 10
18.911174
 20
2.601579
 30
0.0
 40
0.057219
 50
109.954678
 51
250.045322
  0
LINE
  8
OBJ
 10
18.853955
 20
2.547795
 30
0.0
 11
18.853955
 21
2.630448
 31
0.0
  0
ARC
  8
0
 10
18.805971
 20
2.949268
 30
0.0
 40
0.06
 50
180.0
 51
270.0
  0
ARC
  8
0
 10
21.862221
 20
0.704894
 30
0.0
 40
0.190626
 50
242.082902
 51
297.917098
  0
LINE
  8
0
 10
22.397721
 20
0.514268
 30
0.0
 11
21.862221
 21
0.514268
 31
0.0
  0
LINE
  8
0
 10
22.397721
 20
0.514268
 30
0.0
 11
21.862221
 21
0.514268
 31
0.0
  0
LINE
  8
0
 10
22.486971
 20
0.786268
 30
0.0
 11
21.772971
 21
0.786268
 31
0.0
  0
LINE
  8
0
 10
21.069971
 20
0.786268
 30
0.0
 11
20.355971
 21
0.786268
 31
0.0
  0
ARC
  8
0
 10
20.445221
 20
0.704894
 30
0.0
 40
0.190626
 50
242.082902
 51
297.917098
  0
LINE
  8
0
 10
20.980721
 20
0.514268
 30
0.0
 11
20.445221
 21
0.514268
 31
0.0
  0
LINE
  8
0
 10
20.980721
 20
0.514268
 30
0.0
 11
20.445221
 21
0.514268
 31
0.0
  0
POINT
  8
DEFPOINTS
  6
BYBLOCK
 62
     0
 10
19.179971
 20
0.786268
 30
0.0
  0
LINE
  8
0
 10
20.355971
 20
0.786268
 30
0.0
 11
20.355971
 21
0.536452
 31
0.0
  0
LINE
  8
0
 10
20.259971
 20
0.786268
 30
0.0
 11
20.259971
 21
0.624268
 31
0.0
  0
LINE
  8
0
 10
20.259971
 20
0.624268
 30
0.0
 11
20.355971
 21
0.624268
 31
0.0
  0
ARC
  8
0
 10
20.980721
 20
0.704894
 30
0.0
 40
0.190626
 50
242.082902
 51
297.917098
  0
ARC
  8
0
 10
20.712971
 20
1.243497
 30
0.0
 40
0.729229
 50
255.831227
 51
284.168773
  0
LINE
  8
0
 10
20.534471
 20
0.786268
 30
0.0
 11
20.534471
 21
0.536452
 31
0.0
  0
LINE
  8
0
 10
20.891471
 20
0.786268
 30
0.0
 11
20.891471
 21
0.536452
 31
0.0
  0
LINE
  8
0
 10
21.069971
 20
0.786268
 30
0.0
 11
21.069971
 21
0.536452
 31
0.0
  0
LINE
  8
0
 10
21.772971
 20
0.786268
 30
0.0
 11
21.772971
 21
0.536452
 31
0.0
  0
CIRCLE
  8
0
 10
19.956971
 20
1.429268
 30
0.0
 40
0.31496
  0
CIRCLE
  8
0
 10
19.956971
 20
1.429268
 30
0.0
 40
0.27559
  0
ARC
  8
0
 10
19.158971
 20
1.708268
 30
0.0
 40
0.06
 50
180.0
 51
270.0
  0
LINE
  8
0
 10
19.158971
 20
1.648268
 30
0.0
 11
19.174971
 21
1.648268
 31
0.0
  0
LINE
  8
0
 10
20.114451
 20
1.520189
 30
0.0
 11
20.114451
 21
1.338347
 31
0.0
  0
LINE
  8
0
 10
19.956971
 20
1.61111
 30
0.0
 11
20.114451
 21
1.520189
 31
0.0
  0
LINE
  8
0
 10
20.114451
 20
1.338347
 30
0.0
 11
19.956971
 21
1.247426
 31
0.0
  0
LINE
  8
0
 10
19.799491
 20
1.338347
 30
0.0
 11
19.799491
 21
1.520189
 31
0.0
  0
LINE
  8
0
 10
19.799491
 20
1.520189
 30
0.0
 11
19.956971
 21
1.61111
 31
0.0
  0
LINE
  8
0
 10
19.956971
 20
1.247426
 30
0.0
 11
19.799491
 21
1.338347
 31
0.0
  0
CIRCLE
  8
0
 10
19.579971
 20
2.799268
 30
0.0
 40
0.225
  0
CIRCLE
  8
0
 10
19.579971
 20
2.799268
 30
0.0
 40
0.335
  0
LINE
  8
OBJ
  6
CENTER2
 10
19.098971
 20
2.23764
 30
0.0
 11
19.051163
 21
2.23764
 31
0.0
  0
LINE
  8
OBJ
 10
19.098971
 20
2.389444
 30
0.0
 11
19.051163
 21
2.341636
 31
0.0
  0
LINE
  8
OBJ
  6
CENTER2
 10
19.098971
 20
2.638032
 30
0.0
 11
19.051163
 21
2.638032
 31
0.0
  0
LINE
  8
OBJ
 10
19.051163
 20
2.22031
 30
0.0
 11
19.051163
 21
2.655363
 31
0.0
  0
LINE
  8
0
 10
19.098971
 20
2.23764
 30
0.0
 11
19.098971
 21
2.638032
 31
0.0
  0
CIRCLE
  8
0
 10
21.479971
 20
1.429268
 30
0.0
 40
0.31496
  0
CIRCLE
  8
0
 10
21.479971
 20
1.429268
 30
0.0
 40
0.27559
  0
LINE
  8
0
 10
21.637451
 20
1.520189
 30
0.0
 11
21.637451
 21
1.338347
 31
0.0
  0
LINE
  8
0
 10
21.322491
 20
1.338347
 30
0.0
 11
21.322491
 21
1.520189
 31
0.0
  0
LINE
  8
0
 10
21.479971
 20
1.247426
 30
0.0
 11
21.322491
 21
1.338347
 31
0.0
  0
LINE
  8
0
 10
21.322491
 20
1.520189
 30
0.0
 11
21.479971
 21
1.61111
 31
0.0
  0
LINE
  8
0
 10
21.479971
 20
1.61111
 30
0.0
 11
21.637451
 21
1.520189
 31
0.0
  0
LINE
  8
0
 10
21.637451
 20
1.338347
 30
0.0
 11
21.479971
 21
1.247426
 31
0.0
  0
CIRCLE
  8
0
 10
21.479971
 20
2.799268
 30
0.0
 40
0.27559
  0
CIRCLE
  8
0
 10
21.479971
 20
2.799268
 30
0.0
 40
0.31496
  0
LINE
  8
0
 10
21.637451
 20
2.890189
 30
0.0
 11
21.637451
 21
2.708347
 31
0.0
  0
LINE
  8
0
 10
21.322491
 20
2.708347
 30
0.0
 11
21.322491
 21
2.890189
 31
0.0
  0
LINE
  8
0
 10
21.322491
 20
2.890189
 30
0.0
 11
21.479971
 21
2.98111
 31
0.0
  0
LINE
  8
0
 10
21.479971
 20
2.617426
 30
0.0
 11
21.322491
 21
2.708347
 31
0.0
  0
LINE
  8
0
 10
21.479971
 20
2.98111
 30
0.0
 11
21.637451
 21
2.890189
 31
0.0
  0
LINE
  8
0
 10
21.637451
 20
2.708347
 30
0.0
 11
21.479971
 21
2.617426
 31
0.0
  0
LINE
  8
0
 10
23.903971
 20
0.786268
 30
0.0
 11
23.189971
 21
0.786268
 31
0.0
  0
LINE
  8
0
 10
23.814721
 20
0.514268
 30
0.0
 11
23.279221
 21
0.514268
 31
0.0
  0
LINE
  8
0
 10
23.814721
 20
0.514268
 30
0.0
 11
23.279221
 21
0.514268
 31
0.0
  0
ARC
  8
0
 10
23.546971
 20
1.243497
 30
0.0
 40
0.729229
 50
255.831227
 51
284.168773
  0
ARC
  8
0
 10
22.397721
 20
0.704894
 30
0.0
 40
0.190626
 50
242.082902
 51
297.917098
  0
LINE
  8
0
 10
22.308471
 20
0.786268
 30
0.0
 11
22.308471
 21
0.536452
 31
0.0
  0
LINE
  8
0
 10
22.486971
 20
0.786268
 30
0.0
 11
22.486971
 21
0.536452
 31
0.0
  0
LINE
  8
0
 10
21.951471
 20
0.786268
 30
0.0
 11
21.951471
 21
0.536452
 31
0.0
  0
ARC
  8
0
 10
22.129971
 20
1.243497
 30
0.0
 40
0.729229
 50
255.831227
 51
284.168773
  0
ARC
  8
0
 10
23.279221
 20
0.704894
 30
0.0
 40
0.190626
 50
242.082902
 51
297.917098
  0
LINE
  8
0
 10
23.189971
 20
0.786268
 30
0.0
 11
23.189971
 21
0.536452
 31
0.0
  0
LINE
  8
0
 10
23.368471
 20
0.786268
 30
0.0
 11
23.368471
 21
0.536452
 31
0.0
  0
ARC
  8
0
 10
23.814721
 20
0.704894
 30
0.0
 40
0.190626
 50
242.082902
 51
297.917098
  0
LINE
  8
0
 10
23.725471
 20
0.786268
 30
0.0
 11
23.725471
 21
0.536452
 31
0.0
  0
LINE
  8
0
 10
23.903971
 20
0.786268
 30
0.0
 11
23.903971
 21
0.536452
 31
0.0
  0
LINE
  8
0
 10
23.999971
 20
0.624268
 30
0.0
 11
23.903971
 21
0.624268
 31
0.0
  0
LINE
  8
0
 10
23.999971
 20
0.786268
 30
0.0
 11
23.999971
 21
0.624268
 31
0.0
  0
LINE
  8
0
 10
22.779971
 20
1.61111
 30
0.0
 11
22.622491
 21
1.520189
 31
0.0
  0
LINE
  8
0
 10
22.622491
 20
1.338347
 30
0.0
 11
22.779971
 21
1.247426
 31
0.0
  0
CIRCLE
  8
0
 10
22.779971
 20
1.429268
 30
0.0
 40
0.27559
  0
CIRCLE
  8
0
 10
22.779971
 20
1.429268
 30
0.0
 40
0.31496
  0
LINE
  8
0
 10
22.622491
 20
1.520189
 30
0.0
 11
22.622491
 21
1.338347
 31
0.0
  0
LINE
  8
0
 10
22.937451
 20
1.338347
 30
0.0
 11
22.937451
 21
1.520189
 31
0.0
  0
LINE
  8
0
 10
22.937451
 20
1.520189
 30
0.0
 11
22.779971
 21
1.61111
 31
0.0
  0
LINE
  8
0
 10
22.779971
 20
1.247426
 30
0.0
 11
22.937451
 21
1.338347
 31
0.0
  0
LINE
  8
0
 10
22.779971
 20
2.98111
 30
0.0
 11
22.622491
 21
2.890189
 31
0.0
  0
LINE
  8
0
 10
22.622491
 20
2.708347
 30
0.0
 11
22.779971
 21
2.617426
 31
0.0
  0
CIRCLE
  8
0
 10
22.779971
 20
2.799268
 30
0.0
 40
0.31496
  0
CIRCLE
  8
0
 10
22.779971
 20
2.799268
 30
0.0
 40
0.27559
  0
LINE
  8
0
 10
22.622491
 20
2.890189
 30
0.0
 11
22.622491
 21
2.708347
 31
0.0
  0
LINE
  8
0
 10
22.937451
 20
2.708347
 30
0.0
 11
22.937451
 21
2.890189
 31
0.0
  0
LINE
  8
0
 10
22.937451
 20
2.890189
 30
0.0
 11
22.779971
 21
2.98111
 31
0.0
  0
LINE
  8
0
 10
22.779971
 20
2.617426
 30
0.0
 11
22.937451
 21
2.708347
 31
0.0
  0
CIRCLE
  8
0
 10
24.302971
 20
1.429268
 30
0.0
 40
0.27559
  0
CIRCLE
  8
0
 10
24.302971
 20
1.429268
 30
0.0
 40
0.31496
  0
LINE
  8
0
 10
24.460451
 20
1.338347
 30
0.0
 11
24.460451
 21
1.520189
 31
0.0
  0
LINE
  8
0
 10
24.460451
 20
1.520189
 30
0.0
 11
24.302971
 21
1.61111
 31
0.0
  0
LINE
  8
0
 10
24.302971
 20
1.247426
 30
0.0
 11
24.460451
 21
1.338347
 31
0.0
  0
LINE
  8
0
 10
24.145491
 20
1.520189
 30
0.0
 11
24.145491
 21
1.338347
 31
0.0
  0
LINE
  8
0
 10
24.302971
 20
1.61111
 30
0.0
 11
24.145491
 21
1.520189
 31
0.0
  0
LINE
  8
0
 10
24.145491
 20
1.338347
 30
0.0
 11
24.302971
 21
1.247426
 31
0.0
  0
CIRCLE
  8
0
 10
24.050971
 20
2.799268
 30
0.0
 40
0.179
  0
LINE
  8
0
 10
18.846089
 20
5.464268
 30
0.0
 11
19.452492
 21
5.464268
 31
0.0
  0
LINE
  8
0
 10
19.001971
 20
3.420268
 30
0.0
 11
19.068971
 21
3.420268
 31
0.0
  0
LINE
  8
0
 10
19.001971
 20
4.128268
 30
0.0
 11
19.068971
 21
4.128268
 31
0.0
  0
LINE
  8
OBJ
  6
CONTINUOUS
 10
19.051163
 20
4.893174
 30
0.0
 11
18.891646
 21
4.893174
 31
0.0
  0
LINE
  8
OBJ
  6
CONTINUOUS
 10
19.051163
 20
5.000742
 30
0.0
 11
18.891646
 21
5.000742
 31
0.0
  0
LINE
  8
OBJ
  6
CONTINUOUS
 10
19.051163
 20
5.328226
 30
0.0
 11
18.891646
 21
5.328226
 31
0.0
  0
LINE
  8
OBJ
  6
CONTINUOUS
 10
19.051163
 20
5.220658
 30
0.0
 11
18.891646
 21
5.220658
 31
0.0
  0
POINT
  8
DEFPOINTS
  6
BYBLOCK
 62
     0
 10
13.558606
 20
6.574268
 30
0.0
  0
ARC
  8
0
 10
18.805971
 20
4.599268
 30
0.0
 40
0.06
 50
90.0
 51
180.0
  0
ARC
  8
0
 10
19.001971
 20
3.480268
 30
0.0
 40
0.06
 50
180.0
 51
270.0
  0
ARC
  8
0
 10
19.001971
 20
4.068268
 30
0.0
 40
0.06
 50
90.0
 51
180.0
  0
LINE
  8
0
 10
18.805971
 20
4.659268
 30
0.0
 11
18.881971
 21
4.659268
 31
0.0
  0
LINE
  8
OBJ
 10
18.853955
 20
4.918089
 30
0.0
 11
18.877175
 21
4.900935
 31
0.0
  0
LINE
  8
OBJ
 10
18.853955
 20
5.000742
 30
0.0
 11
18.853955
 21
4.918089
 31
0.0
  0
ARC
  8
OBJ
 10
18.911174
 20
4.946958
 30
0.0
 40
0.057219
 50
109.954678
 51
250.045322
  0
ARC
  8
0
 10
18.881971
 20
4.719268
 30
0.0
 40
0.06
 50
270.0
 51
0.0
  0
ARC
  8
OBJ
 10
18.911174
 20
5.274442
 30
0.0
 40
0.057219
 50
109.954678
 51
250.045322
  0
LINE
  8
OBJ
 10
18.853955
 20
5.303311
 30
0.0
 11
18.877175
 21
5.320465
 31
0.0
  0
LINE
  8
OBJ
 10
18.853955
 20
5.303311
 30
0.0
 11
18.853955
 21
5.220658
 31
0.0
  0
ARC
  8
OBJ
 10
19.033192
 20
5.1107
 30
0.0
 40
0.179237
 50
142.158498
 51
217.841502
  0
LINE
  8
OBJ
 10
18.853955
 20
5.220658
 30
0.0
 11
18.853955
 21
5.000742
 31
0.0
  0
CIRCLE
  8
0
 10
21.479971
 20
6.119268
 30
0.0
 40
0.31496
  0
CIRCLE
  8
0
 10
21.479971
 20
6.119268
 30
0.0
 40
0.27559
  0
CIRCLE
  8
0
 10
19.956971
 20
6.119268
 30
0.0
 40
0.31496
  0
CIRCLE
  8
0
 10
19.956971
 20
6.119268
 30
0.0
 40
0.27559
  0
ARC
  8
0
 10
19.158971
 20
5.840268
 30
0.0
 40
0.06
 50
90.0
 51
180.0
  0
CIRCLE
  8
0
 10
19.579971
 20
4.749268
 30
0.0
 40
0.335
  0
CIRCLE
  8
0
 10
19.579971
 20
4.749268
 30
0.0
 40
0.225
  0
CIRCLE
  8
0
 10
20.208971
 20
4.749268
 30
0.0
 40
0.179
  0
LINE
  8
0
 10
19.098971
 20
5.840268
 30
0.0
 11
19.098971
 21
4.158268
 31
0.0
  0
LINE
  8
0
 10
19.912451
 20
3.865189
 30
0.0
 11
19.754971
 21
3.95611
 31
0.0
  0
LINE
  8
0
 10
19.754971
 20
3.592426
 30
0.0
 11
19.912451
 21
3.683347
 31
0.0
  0
CIRCLE
  8
0
 10
19.754971
 20
3.774268
 30
0.0
 40
0.31496
  0
CIRCLE
  8
0
 10
19.754971
 20
3.774268
 30
0.0
 40
0.27559
  0
LINE
  8
0
 10
19.597491
 20
3.865189
 30
0.0
 11
19.597491
 21
3.683347
 31
0.0
  0
LINE
  8
0
 10
19.754971
 20
3.95611
 30
0.0
 11
19.597491
 21
3.865189
 31
0.0
  0
LINE
  8
0
 10
19.597491
 20
3.683347
 30
0.0
 11
19.754971
 21
3.592426
 31
0.0
  0
ARC
  8
0
 10
19.068971
 20
3.390268
 30
0.0
 40
0.03
 50
360.0
 51
90.0
  0
ARC
  8
0
 10
19.068971
 20
4.158268
 30
0.0
 40
0.03
 50
270.0
 51
0.0
  0
LINE
  8
0
 10
19.912451
 20
3.683347
 30
0.0
 11
19.912451
 21
3.865189
 31
0.0
  0
LINE
  8
OBJ
  6
CENTER2
 10
19.098971
 20
4.910504
 30
0.0
 11
19.051163
 21
4.910504
 31
0.0
  0
LINE
  8
OBJ
  6
CENTER2
 10
19.098971
 20
5.310896
 30
0.0
 11
19.051163
 21
5.310896
 31
0.0
  0
LINE
  8
OBJ
 10
19.098971
 20
5.159093
 30
0.0
 11
19.051163
 21
5.206901
 31
0.0
  0
LINE
  8
0
 10
19.098971
 20
5.310896
 30
0.0
 11
19.098971
 21
4.910504
 31
0.0
  0
LINE
  8
OBJ
 10
19.051163
 20
5.328226
 30
0.0
 11
19.051163
 21
4.893174
 31
0.0
  0
LINE
  8
0
 10
21.322491
 20
4.658347
 30
0.0
 11
21.479971
 21
4.567426
 31
0.0
  0
LINE
  8
0
 10
21.479971
 20
4.567426
 30
0.0
 11
21.637451
 21
4.658347
 31
0.0
  0
CIRCLE
  8
0
 10
21.479971
 20
4.749268
 30
0.0
 40
0.31496
  0
CIRCLE
  8
0
 10
21.479971
 20
4.749268
 30
0.0
 40
0.27559
  0
LINE
  8
0
 10
21.637451
 20
4.658347
 30
0.0
 11
21.637451
 21
4.840189
 31
0.0
  0
LINE
  8
0
 10
21.322491
 20
4.840189
 30
0.0
 11
21.322491
 21
4.658347
 31
0.0
  0
LINE
  8
0
 10
21.479971
 20
4.93111
 30
0.0
 11
21.322491
 21
4.840189
 31
0.0
  0
LINE
  8
0
 10
21.637451
 20
4.840189
 30
0.0
 11
21.479971
 21
4.93111
 31
0.0
  0
LINE
  8
0
 10
19.158971
 20
5.900268
 30
0.0
 11
19.174971
 21
5.900268
 31
0.0
  0
LINE
  8
0
 10
20.114451
 20
6.028347
 30
0.0
 11
20.114451
 21
6.210189
 31
0.0
  0
LINE
  8
0
 10
20.114451
 20
6.210189
 30
0.0
 11
19.956971
 21
6.30111
 31
0.0
  0
LINE
  8
0
 10
19.956971
 20
5.937426
 30
0.0
 11
20.114451
 21
6.028347
 31
0.0
  0
LINE
  8
0
 10
19.799491
 20
6.210189
 30
0.0
 11
19.799491
 21
6.028347
 31
0.0
  0
LINE
  8
0
 10
19.956971
 20
6.30111
 30
0.0
 11
19.799491
 21
6.210189
 31
0.0
  0
LINE
  8
0
 10
19.799491
 20
6.028347
 30
0.0
 11
19.956971
 21
5.937426
 31
0.0
  0
LINE
  8
0
 10
21.637451
 20
6.028347
 30
0.0
 11
21.637451
 21
6.210189
 31
0.0
  0
LINE
  8
0
 10
21.322491
 20
6.210189
 30
0.0
 11
21.322491
 21
6.028347
 31
0.0
  0
LINE
  8
0
 10
21.479971
 20
6.30111
 30
0.0
 11
21.322491
 21
6.210189
 31
0.0
  0
LINE
  8
0
 10
21.322491
 20
6.028347
 30
0.0
 11
21.479971
 21
5.937426
 31
0.0
  0
LINE
  8
0
 10
21.637451
 20
6.210189
 30
0.0
 11
21.479971
 21
6.30111
 31
0.0
  0
LINE
  8
0
 10
21.479971
 20
5.937426
 30
0.0
 11
21.637451
 21
6.028347
 31
0.0
  0
CIRCLE
  8
0
 10
24.302971
 20
6.119268
 30
0.0
 40
0.27559
  0
CIRCLE
  8
0
 10
24.302971
 20
6.119268
 30
0.0
 40
0.31496
  0
CIRCLE
  8
0
 10
22.779971
 20
6.119268
 30
0.0
 40
0.27559
  0
CIRCLE
  8
0
 10
22.779971
 20
6.119268
 30
0.0
 40
0.31496
  0
LINE
  8
0
 10
22.779971
 20
4.567426
 30
0.0
 11
22.622491
 21
4.658347
 31
0.0
  0
LINE
  8
0
 10
22.937451
 20
4.658347
 30
0.0
 11
22.779971
 21
4.567426
 31
0.0
  0
CIRCLE
  8
0
 10
22.779971
 20
4.749268
 30
0.0
 40
0.27559
  0
CIRCLE
  8
0
 10
22.779971
 20
4.749268
 30
0.0
 40
0.31496
  0
LINE
  8
0
 10
22.622491
 20
4.840189
 30
0.0
 11
22.779971
 21
4.93111
 31
0.0
  0
LINE
  8
0
 10
22.622491
 20
4.658347
 30
0.0
 11
22.622491
 21
4.840189
 31
0.0
  0
LINE
  8
0
 10
22.937451
 20
4.840189
 30
0.0
 11
22.937451
 21
4.658347
 31
0.0
  0
LINE
  8
0
 10
22.779971
 20
4.93111
 30
0.0
 11
22.937451
 21
4.840189
 31
0.0
  0
LINE
  8
0
 10
24.662451
 20
3.865189
 30
0.0
 11
24.662451
 21
3.683347
 31
0.0
  0
LINE
  8
0
 10
24.347491
 20
3.683347
 30
0.0
 11
24.347491
 21
3.865189
 31
0.0
  0
LINE
  8
0
 10
24.504971
 20
3.592426
 30
0.0
 11
24.347491
 21
3.683347
 31
0.0
  0
LINE
  8
0
 10
24.347491
 20
3.865189
 30
0.0
 11
24.504971
 21
3.95611
 31
0.0
  0
LINE
  8
0
 10
24.662451
 20
3.683347
 30
0.0
 11
24.504971
 21
3.592426
 31
0.0
  0
LINE
  8
0
 10
24.504971
 20
3.95611
 30
0.0
 11
24.662451
 21
3.865189
 31
0.0
  0
CIRCLE
  8
0
 10
24.504971
 20
3.774268
 30
0.0
 40
0.27559
  0
CIRCLE
  8
0
 10
24.504971
 20
3.774268
 30
0.0
 40
0.31496
  0
LINE
  8
0
 10
22.622491
 20
6.210189
 30
0.0
 11
22.779971
 21
6.30111
 31
0.0
  0
LINE
  8
0
 10
22.779971
 20
5.937426
 30
0.0
 11
22.622491
 21
6.028347
 31
0.0
  0
LINE
  8
0
 10
22.622491
 20
6.028347
 30
0.0
 11
22.622491
 21
6.210189
 31
0.0
  0
LINE
  8
0
 10
22.937451
 20
6.210189
 30
0.0
 11
22.937451
 21
6.028347
 31
0.0
  0
LINE
  8
0
 10
22.937451
 20
6.028347
 30
0.0
 11
22.779971
 21
5.937426
 31
0.0
  0
LINE
  8
0
 10
22.779971
 20
6.30111
 30
0.0
 11
22.937451
 21
6.210189
 31
0.0
  0
LINE
  8
0
 10
24.460451
 20
6.210189
 30
0.0
 11
24.460451
 21
6.028347
 31
0.0
  0
LINE
  8
0
 10
24.302971
 20
6.30111
 30
0.0
 11
24.460451
 21
6.210189
 31
0.0
  0
LINE
  8
0
 10
24.145491
 20
6.028347
 30
0.0
 11
24.145491
 21
6.210189
 31
0.0
  0
LINE
  8
0
 10
24.145491
 20
6.210189
 30
0.0
 11
24.302971
 21
6.30111
 31
0.0
  0
LINE
  8
0
 10
24.302971
 20
5.937426
 30
0.0
 11
24.145491
 21
6.028347
 31
0.0
  0
LINE
  8
0
 10
24.460451
 20
6.028347
 30
0.0
 11
24.302971
 21
5.937426
 31
0.0
  0
LINE
  8
0
 10
25.084971
 20
6.574268
 30
0.0
 11
25.084971
 21
0.786268
 31
0.0
  0
LINE
  8
0
 10
25.317971
 20
4.893174
 30
0.0
 11
25.317971
 21
2.655363
 31
0.0
  0
LINE
  8
0
 10
25.513971
 20
4.599268
 30
0.0
 11
25.513971
 21
2.949268
 31
0.0
  0
LINE
  8
0
 10
25.599971
 20
4.286268
 30
0.0
 11
25.599971
 21
3.262268
 31
0.0
  0
LINE
  8
0
 10
26.975971
 20
4.186268
 30
0.0
 11
26.975971
 21
3.362268
 31
0.0
  0
LINE
  8
0
 10
26.915971
 20
3.617268
 30
0.0
 11
26.915971
 21
3.302268
 31
0.0
  0
LINE
  8
0
 10
25.160971
 20
3.390268
 30
0.0
 11
25.160971
 21
1.708268
 31
0.0
  0
POINT
  8
DEFPOINTS
  6
BYBLOCK
 62
     0
 10
25.079971
 20
0.786268
 30
0.0
  0
POINT
  8
DEFPOINTS
  6
BYBLOCK
 62
     0
 10
25.079971
 20
0.786268
 30
0.0
  0
LINE
  8
0
 10
25.599971
 20
3.302268
 30
0.0
 11
26.915971
 21
3.302268
 31
0.0
  0
ARC
  8
0
 10
25.100971
 20
1.708268
 30
0.0
 40
0.06
 50
270.0
 51
0.0
  0
LINE
  8
0
 10
25.100971
 20
1.648268
 30
0.0
 11
25.084971
 21
1.648268
 31
0.0
  0
LINE
  8
0
 10
25.513971
 20
3.262268
 30
0.0
 11
25.599971
 21
3.262268
 31
0.0
  0
ARC
  8
OBJ
 10
25.226749
 20
2.437836
 30
0.0
 40
0.179237
 50
322.158498
 51
37.841502
  0
LINE
  8
OBJ
 10
25.405987
 20
2.327878
 30
0.0
 11
25.405987
 21
2.547795
 31
0.0
  0
LINE
  8
OBJ
 10
25.405987
 20
2.245225
 30
0.0
 11
25.405987
 21
2.327878
 31
0.0
  0
ARC
  8
OBJ
 10
25.348767
 20
2.274094
 30
0.0
 40
0.057219
 50
289.954678
 51
70.045322
  0
LINE
  8
OBJ
 10
25.405987
 20
2.245225
 30
0.0
 11
25.382767
 21
2.228071
 31
0.0
  0
LINE
  8
0
 10
25.453971
 20
2.889268
 30
0.0
 11
25.377971
 21
2.889268
 31
0.0
  0
LINE
  8
OBJ
 10
25.405987
 20
2.630448
 30
0.0
 11
25.382767
 21
2.647601
 31
0.0
  0
LINE
  8
OBJ
 10
25.405987
 20
2.547795
 30
0.0
 11
25.405987
 21
2.630448
 31
0.0
  0
ARC
  8
OBJ
 10
25.348767
 20
2.601579
 30
0.0
 40
0.057219
 50
289.954678
 51
70.045322
  0
LINE
  8
OBJ
 10
25.160971
 20
2.389444
 30
0.0
 11
25.208779
 21
2.341636
 31
0.0
  0
LINE
  8
OBJ
  6
CENTER2
 10
25.160971
 20
2.23764
 30
0.0
 11
25.208779
 21
2.23764
 31
0.0
  0
LINE
  8
OBJ
  6
CENTER2
 10
25.160971
 20
2.638032
 30
0.0
 11
25.208779
 21
2.638032
 31
0.0
  0
LINE
  8
0
 10
25.160971
 20
2.23764
 30
0.0
 11
25.160971
 21
2.638032
 31
0.0
  0
LINE
  8
OBJ
 10
25.208779
 20
2.22031
 30
0.0
 11
25.208779
 21
2.655363
 31
0.0
  0
ARC
  8
0
 10
25.377971
 20
2.829268
 30
0.0
 40
0.06
 50
90.0
 51
180.0
  0
LINE
  8
OBJ
  6
CONTINUOUS
 10
25.208779
 20
2.327878
 30
0.0
 11
25.368295
 21
2.327878
 31
0.0
  0
LINE
  8
OBJ
  6
CONTINUOUS
 10
25.208779
 20
2.655363
 30
0.0
 11
25.368295
 21
2.655363
 31
0.0
  0
LINE
  8
OBJ
  6
CONTINUOUS
 10
25.208779
 20
2.547795
 30
0.0
 11
25.368295
 21
2.547795
 31
0.0
  0
LINE
  8
OBJ
  6
CONTINUOUS
 10
25.208779
 20
2.22031
 30
0.0
 11
25.368295
 21
2.22031
 31
0.0
  0
ARC
  8
0
 10
25.453971
 20
2.949268
 30
0.0
 40
0.06
 50
270.0
 51
0.0
  0
LINE
  8
0
 10
26.915971
 20
3.302268
 30
0.0
 11
26.975971
 21
3.362268
 31
0.0
  0
ARC
  8
0
 10
25.100971
 20
5.840268
 30
0.0
 40
0.06
 50
0.0
 51
90.0
  0
LINE
  8
0
 10
25.778975
 20
3.931268
 30
0.0
 11
26.975971
 21
3.931268
 31
0.0
  0
LINE
  8
0
 10
25.778975
 20
3.617268
 30
0.0
 11
26.975971
 21
3.617268
 31
0.0
  0
LINE
  8
0
 10
25.599971
 20
4.246268
 30
0.0
 11
26.915971
 21
4.246268
 31
0.0
  0
ARC
  8
0
 10
25.453971
 20
4.599268
 30
0.0
 40
0.06
 50
0.0
 51
90.0
  0
LINE
  8
0
 10
25.160971
 20
5.840268
 30
0.0
 11
25.160971
 21
4.158268
 31
0.0
  0
LINE
  8
0
 10
25.513971
 20
4.286268
 30
0.0
 11
25.599971
 21
4.286268
 31
0.0
  0
LINE
  8
0
 10
25.257971
 20
3.420268
 30
0.0
 11
25.190971
 21
3.420268
 31
0.0
  0
ARC
  8
0
 10
25.257971
 20
3.480268
 30
0.0
 40
0.06
 50
270.0
 51
0.0
  0
ARC
  8
0
 10
25.190971
 20
3.390268
 30
0.0
 40
0.03
 50
90.0
 51
180.0
  0
LINE
  8
0
 10
25.257971
 20
4.128268
 30
0.0
 11
25.190971
 21
4.128268
 31
0.0
  0
ARC
  8
0
 10
25.257971
 20
4.068268
 30
0.0
 40
0.06
 50
0.0
 51
90.0
  0
ARC
  8
0
 10
25.190971
 20
4.158268
 30
0.0
 40
0.03
 50
180.0
 51
270.0
  0
ARC
  8
0
 10
25.778975
 20
3.774268
 30
0.0
 40
0.157
 50
90.0
 51
270.0
  0
LINE
  8
0
 10
25.453971
 20
4.659268
 30
0.0
 11
25.377971
 21
4.659268
 31
0.0
  0
ARC
  8
OBJ
 10
25.348767
 20
4.946958
 30
0.0
 40
0.057219
 50
289.954678
 51
70.045322
  0
LINE
  8
OBJ
 10
25.405987
 20
5.000742
 30
0.0
 11
25.405987
 21
4.918089
 31
0.0
  0
LINE
  8
OBJ
 10
25.405987
 20
4.918089
 30
0.0
 11
25.382767
 21
4.900935
 31
0.0
  0
LINE
  8
OBJ
  6
CENTER2
 10
25.160971
 20
4.910504
 30
0.0
 11
25.208779
 21
4.910504
 31
0.0
  0
ARC
  8
0
 10
25.377971
 20
4.719268
 30
0.0
 40
0.06
 50
180.0
 51
270.0
  0
LINE
  8
OBJ
  6
CONTINUOUS
 10
25.208779
 20
5.000742
 30
0.0
 11
25.368295
 21
5.000742
 31
0.0
  0
LINE
  8
OBJ
  6
CONTINUOUS
 10
25.208779
 20
4.893174
 30
0.0
 11
25.368295
 21
4.893174
 31
0.0
  0
LINE
  8
OBJ
 10
25.405987
 20
5.303311
 30
0.0
 11
25.382767
 21
5.320465
 31
0.0
  0
ARC
  8
OBJ
 10
25.348767
 20
5.274442
 30
0.0
 40
0.057219
 50
289.954678
 51
70.045322
  0
LINE
  8
OBJ
 10
25.405987
 20
5.303311
 30
0.0
 11
25.405987
 21
5.220658
 31
0.0
  0
LINE
  8
OBJ
  6
CENTER2
 10
25.160971
 20
5.310896
 30
0.0
 11
25.208779
 21
5.310896
 31
0.0
  0
LINE
  8
OBJ
 10
25.160971
 20
5.159093
 30
0.0
 11
25.208779
 21
5.206901
 31
0.0
  0
LINE
  8
OBJ
  6
CONTINUOUS
 10
25.208779
 20
5.328226
 30
0.0
 11
25.368295
 21
5.328226
 31
0.0
  0
LINE
  8
OBJ
  6
CONTINUOUS
 10
25.208779
 20
5.220658
 30
0.0
 11
25.368295
 21
5.220658
 31
0.0
  0
LINE
  8
OBJ
 10
25.208779
 20
5.328226
 30
0.0
 11
25.208779
 21
4.893174
 31
0.0
  0
LINE
  8
0
 10
25.160971
 20
5.310896
 30
0.0
 11
25.160971
 21
4.910504
 31
0.0
  0
LINE
  8
OBJ
 10
25.405987
 20
5.220658
 30
0.0
 11
25.405987
 21
5.000742
 31
0.0
  0
ARC
  8
OBJ
 10
25.226749
 20
5.1107
 30
0.0
 40
0.179237
 50
322.158498
 51
37.841502
  0
LINE
  8
0
 10
26.915971
 20
4.246268
 30
0.0
 11
26.975971
 21
4.186268
 31
0.0
  0
LINE
  8
0
 10
26.915971
 20
4.246268
 30
0.0
 11
26.915971
 21
3.931268
 31
0.0
  0
POINT
  8
DEFPOINTS
  6
BYBLOCK
 62
     0
 10
25.079971
 20
6.574268
 30
0.0
  0
LINE
  8
0
 10
25.100971
 20
5.900268
 30
0.0
 11
25.084971
 21
5.900268
 31
0.0
  0
ENDSEC
  0
EOF
