  0
SECTION
  2
HEADER
  9
$ACADVER
  1
AC1009
  9
$INSBASE
 10
0.0
 20
0.0
 30
0.0
  9
$EXTMIN
 10
-13.739
 20
-11.959813
 30
0.0
  9
$EXTMAX
 10
41.300248
 20
32.682344
 30
0.0
  9
$LIMMIN
 10
0.0
 20
0.0
  9
$LIMMAX
 10
24.0
 20
17.0
  9
$ORTHOMODE
 70
     0
  9
$REGENMODE
 70
     1
  9
$FILLMODE
 70
     1
  9
$QTEXTMODE
 70
     0
  9
$MIRRTEXT
 70
     1
  9
$DRAGMODE
 70
     2
  9
$LTSCALE
 40
0.3
  9
$OSMODE
 70
     0
  9
$ATTMODE
 70
     1
  9
$TEXTSIZE
 40
0.375
  9
$TRACEWID
 40
0.05
  9
$TEXTSTYLE
  7
ROMAND
  9
$CLAYER
  8
OBJ
  9
$CELTYPE
  6
BYLAYER
  9
$CECOLOR
 62
   256
  9
$DIMSCALE
 40
3.0
  9
$DIMASZ
 40
0.18
  9
$DIMEXO
 40
0.06
  9
$DIMDLI
 40
0.38
  9
$DIMRND
 40
0.0
  9
$DIMDLE
 40
0.0
  9
$DIMEXE
 40
0.18
  9
$DIMTP
 40
0.0
  9
$DIMTM
 40
0.0
  9
$DIMTXT
 40
0.18
  9
$DIMCEN
 40
-0.09
  9
$DIMTSZ
 40
0.0
  9
$DIMTOL
 70
     0
  9
$DIMLIM
 70
     0
  9
$DIMTIH
 70
     1
  9
$DIMTOH
 70
     1
  9
$DIMSE1
 70
     0
  9
$DIMSE2
 70
     0
  9
$DIMTAD
 70
     0
  9
$DIMZIN
 70
     0
  9
$DIMBLK
  1

  9
$DIMASO
 70
     1
  9
$DIMSHO
 70
     1
  9
$DIMPOST
  1

  9
$DIMAPOST
  1

  9
$DIMALT
 70
     0
  9
$DIMALTD
 70
     2
  9
$DIMALTF
 40
25.4
  9
$DIMLFAC
 40
1.0
  9
$DIMTOFL
 70
     0
  9
$DIMTVP
 40
0.0
  9
$DIMTIX
 70
     0
  9
$DIMSOXD
 70
     0
  9
$DIMSAH
 70
     0
  9
$DIMBLK1
  1

  9
$DIMBLK2
  1

  9
$DIMSTYLE
  2
*UNNAMED
  9
$DIMCLRD
 70
     0
  9
$DIMCLRE
 70
     0
  9
$DIMCLRT
 70
     0
  9
$DIMTFAC
 40
1.0
  9
$DIMGAP
 40
0.09
  9
$LUNITS
 70
     2
  9
$LUPREC
 70
     2
  9
$SKETCHINC
 40
0.1
  9
$FILLETRAD
 40
0.05
  9
$AUNITS
 70
     0
  9
$AUPREC
 70
     0
  9
$MENU
  1
acad
  9
$ELEVATION
 40
0.0
  9
$PELEVATION
 40
0.0
  9
$THICKNESS
 40
0.0
  9
$LIMCHECK
 70
     0
  9
$BLIPMODE
 70
     1
  9
$CHAMFERA
 40
0.06
  9
$CHAMFERB
 40
0.06
  9
$SKPOLY
 70
     0
  9
$TDCREATE
 40
2451439.325594907
  9
$TDUPDATE
 40
2451439.327776042
  9
$TDINDWG
 40
0.0019458333
  9
$TDUSRTIMER
 40
0.0019458333
  9
$USRTIMER
 70
     1
  9
$ANGBASE
 50
0.0
  9
$ANGDIR
 70
     0
  9
$PDMODE
 70
     0
  9
$PDSIZE
 40
0.0
  9
$PLINEWID
 40
0.0
  9
$COORDS
 70
     1
  9
$SPLFRAME
 70
     0
  9
$SPLINETYPE
 70
     6
  9
$SPLINESEGS
 70
     8
  9
$ATTDIA
 70
     0
  9
$ATTREQ
 70
     1
  9
$HANDLING
 70
     0
  9
$HANDSEED
  5
0
  9
$SURFTAB1
 70
     6
  9
$SURFTAB2
 70
     6
  9
$SURFTYPE
 70
     6
  9
$SURFU
 70
     6
  9
$SURFV
 70
     6
  9
$UCSNAME
  2

  9
$UCSORG
 10
0.0
 20
0.0
 30
0.0
  9
$UCSXDIR
 10
1.0
 20
0.0
 30
0.0
  9
$UCSYDIR
 10
0.0
 20
1.0
 30
0.0
  9
$PUCSNAME
  2

  9
$PUCSORG
 10
0.0
 20
0.0
 30
0.0
  9
$PUCSXDIR
 10
1.0
 20
0.0
 30
0.0
  9
$PUCSYDIR
 10
0.0
 20
1.0
 30
0.0
  9
$USERI1
 70
     0
  9
$USERI2
 70
     0
  9
$USERI3
 70
     0
  9
$USERI4
 70
     0
  9
$USERI5
 70
     0
  9
$USERR1
 40
0.0
  9
$USERR2
 40
0.0
  9
$USERR3
 40
0.0
  9
$USERR4
 40
0.0
  9
$USERR5
 40
0.0
  9
$WORLDVIEW
 70
     1
  9
$SHADEDGE
 70
     3
  9
$SHADEDIF
 70
    70
  9
$TILEMODE
 70
     1
  9
$MAXACTVP
 70
    16
  9
$PINSBASE
 10
0.0
 20
0.0
 30
1.076194E+26
  9
$PLIMCHECK
 70
     0
  9
$PEXTMIN
 10
1.000000E+20
 20
1.000000E+20
 30
1.000000E+20
  9
$PEXTMAX
 10
-1.000000E+20
 20
-1.000000E+20
 30
-1.000000E+20
  9
$PLIMMIN
 10
0.0
 20
0.0
  9
$PLIMMAX
 10
12.0
 20
9.0
  9
$UNITMODE
 70
     0
  9
$VISRETAIN
 70
     0
  9
$PLINEGEN
 70
     0
  9
$PSLTSCALE
 70
     1
  9
$TREEDEPTH
 70
  3020
  9
$DWGCODEPAGE
  3
iso8859-1
  0
ENDSEC
  0
SECTION
  2
TABLES
  0
TABLE
  2
VPORT
 70
     1
  0
VPORT
  2
*ACTIVE
 70
     0
 10
0.0
 20
0.0
 11
1.0
 21
1.0
 12
22.563459
 22
16.453247
 13
0.0
 23
0.0
 14
1.0
 24
1.0
 15
0.0
 25
0.0
 16
0.0
 26
0.0
 36
1.0
 17
0.0
 27
0.0
 37
0.0
 40
32.979456
 41
1.379728
 42
50.0
 43
0.0
 44
0.0
 50
0.0
 51
0.0
 71
     0
 72
   100
 73
     1
 74
     0
 75
     0
 76
     0
 77
     0
 78
     0
  0
ENDTAB
  0
TABLE
  2
LTYPE
 70
     4
  0
LTYPE
  2
CONTINUOUS
 70
    64
  3
Solid line
 72
    65
 73
     0
 40
0.0
  0
LTYPE
  2
CENTER
 70
    64
  3
____ _ ____ _ ____ _ ____ _ ____ _ ____ _ ____ 
 72
    65
 73
     4
 40
2.0
 49
1.25
 49
-0.25
 49
0.25
 49
-0.25
  0
LTYPE
  2
CENTER2
 70
    64
  3
___ _ ___ _ ___ _ ___ _ ___ _ ___ _ ___ _ ___ _
 72
    65
 73
     4
 40
1.125
 49
0.75
 49
-0.125
 49
0.125
 49
-0.125
  0
LTYPE
  2
DASHED4
 70
    64
  3
- - - - - - - -
 72
    65
 73
     2
 40
0.06
 49
0.03
 49
-0.03
  0
ENDTAB
  0
TABLE
  2
LAYER
 70
     3
  0
LAYER
  2
0
 70
    64
 62
     7
  6
CONTINUOUS
  0
LAYER
  2
OBJ
 70
    64
 62
     7
  6
CONTINUOUS
  0
LAYER
  2
DEFPOINTS
 70
    64
 62
     7
  6
CONTINUOUS
  0
ENDTAB
  0
TABLE
  2
STYLE
 70
     2
  0
STYLE
  2
STANDARD
 70
     0
 40
0.0
 41
1.0
 50
0.0
 71
     0
 42
0.2
  3
txt
  4

  0
STYLE
  2
ROMAND
 70
    64
 40
0.0
 41
1.0
 50
0.0
 71
     0
 42
0.375
  3
romand
  4

  0
ENDTAB
  0
TABLE
  2
VIEW
 70
     0
  0
ENDTAB
  0
TABLE
  2
UCS
 70
     0
  0
ENDTAB
  0
TABLE
  2
APPID
 70
     1
  0
APPID
  2
ACAD
 70
    64
  0
ENDTAB
  0
TABLE
  2
DIMSTYLE
 70
     0
  0
ENDTAB
  0
ENDSEC
  0
SECTION
  2
BLOCKS
  0
BLOCK
  8
0
  2
OILCAP
 70
    64
 10
0.0
 20
0.0
 30
0.0
  3
OILCAP
  0
ARC
  8
OBJ
 10
0.0
 20
-0.892272
 30
0.0
 40
1.252272
 50
63.858144
 51
116.141856
  0
LINE
  8
OBJ
  6
CONTINUOUS
 10
-0.551745
 20
0.36
 30
0.0
 11
0.551745
 21
0.36
 31
0.0
  0
LINE
  8
OBJ
  6
CONTINUOUS
 10
-1.10349
 20
0.0
 30
0.0
 11
1.10349
 21
0.0
 31
0.0
  0
ARC
  8
OBJ
 10
0.0
 20
-3.611471
 30
0.0
 40
4.120471
 50
79.786344
 51
100.213656
  0
LINE
  8
OBJ
 10
-0.551745
 20
0.2319
 30
0.0
 11
-0.551745
 21
0.0
 31
0.0
  0
LINE
  8
OBJ
 10
-1.10349
 20
0.2319
 30
0.0
 11
-1.10349
 21
0.0
 31
0.0
  0
LINE
  8
OBJ
 10
-1.10349
 20
0.2319
 30
0.0
 11
-0.979999
 21
0.36
 31
0.0
  0
ARC
  8
OBJ
 10
-0.827617
 20
-0.001106
 30
0.0
 40
0.361106
 50
40.184879
 51
139.815121
  0
LINE
  8
OBJ
  6
CONTINUOUS
 10
-0.979999
 20
0.36
 30
0.0
 11
-0.551745
 21
0.36
 31
0.0
  0
LINE
  8
OBJ
 10
-0.78
 20
0.36
 30
0.0
 11
-0.78
 21
0.384655
 31
0.0
  0
ARC
  8
OBJ
 10
-0.72
 20
0.384655
 30
0.0
 40
0.06
 50
100.213656
 51
180.0
  0
LINE
  8
OBJ
 10
1.10349
 20
0.2319
 30
0.0
 11
1.10349
 21
0.0
 31
0.0
  0
LINE
  8
OBJ
 10
0.551745
 20
0.2319
 30
0.0
 11
0.551745
 21
0.0
 31
0.0
  0
ARC
  8
OBJ
 10
0.72
 20
0.384655
 30
0.0
 40
0.06
 50
0.0
 51
79.786344
  0
ARC
  8
OBJ
 10
0.827618
 20
-0.001106
 30
0.0
 40
0.361106
 50
40.184879
 51
139.815121
  0
LINE
  8
OBJ
  6
CONTINUOUS
 10
0.551745
 20
0.36
 30
0.0
 11
0.979999
 21
0.36
 31
0.0
  0
LINE
  8
OBJ
 10
1.10349
 20
0.2319
 30
0.0
 11
0.979999
 21
0.36
 31
0.0
  0
LINE
  8
OBJ
 10
0.78
 20
0.36
 30
0.0
 11
0.78
 21
0.384655
 31
0.0
  0
ENDBLK
  8
0
  0
ENDSEC
  0
SECTION
  2
ENTITIES
  0
TEXT
  8
0
  6
BYBLOCK
 62
     0
 10
19.9485
 20
5.862953
 30
0.0
 40
0.54
  1
3.63
  7
ROMAND
 72
     1
 11
20.861357
 21
6.132953
 31
0.0
 73
     2
  0
SOLID
  8
0
  6
BYBLOCK
 62
     0
 10
20.771357
 20
7.408221
 30
0.0
 11
20.951357
 21
7.408221
 31
0.0
 12
20.861357
 22
7.948221
 32
0.0
 13
20.861357
 23
7.948221
 33
0.0
  0
SOLID
  8
0
  6
BYBLOCK
 62
     0
 10
20.771357
 20
4.857686
 30
0.0
 11
20.951357
 21
4.857686
 31
0.0
 12
20.861357
 22
4.317686
 32
0.0
 13
20.861357
 23
4.317686
 33
0.0
  0
LINE
  8
0
  6
BYBLOCK
 62
     0
 10
25.091512
 20
7.948221
 30
0.0
 11
20.321357
 21
7.948221
 31
0.0
  0
LINE
  8
0
  6
BYBLOCK
 62
     0
 10
26.447678
 20
4.317686
 30
0.0
 11
20.321357
 21
4.317686
 31
0.0
  0
LINE
  8
0
  6
BYBLOCK
 62
     0
 10
21.814874
 20
10.618086
 30
0.0
 11
19.54725
 21
10.618086
 31
0.0
  0
LINE
  8
0
  6
BYBLOCK
 62
     0
 10
25.082632
 20
7.948221
 30
0.0
 11
19.54725
 21
7.948221
 31
0.0
  0
LINE
  8
OBJ
  6
CENTER
 62
     1
 10
20.647342
 20
26.79876
 30
0.0
 11
27.400556
 21
26.79876
 31
0.0
  0
LINE
  8
OBJ
  6
CENTER
 62
     1
 10
19.799281
 20
10.618086
 30
0.0
 11
41.300248
 21
10.618086
 31
0.0
  0
LINE
  8
OBJ
  6
CENTER
 62
     1
 10
20.780542
 20
22.62676
 30
0.0
 11
27.533756
 21
22.62676
 31
0.0
  0
TEXT
  8
0
  6
BYBLOCK
 62
     0
 10
7.908326
 20
2.219331
 30
0.0
 40
0.54
  1
6.89
  7
ROMAND
 72
     1
 11
8.821184
 21
2.489331
 31
0.0
 73
     2
  0
CIRCLE
  8
OBJ
 10
7.777883
 20
6.962381
 30
0.0
 40
0.302362
  0
CIRCLE
  8
OBJ
 10
7.777883
 20
6.962381
 30
0.0
 40
0.357
  0
ARC
  8
OBJ
 10
7.777883
 20
11.931748
 30
0.0
 40
0.477
 50
0.0
 51
171.696838
  0
CIRCLE
  8
OBJ
 10
7.777883
 20
11.931748
 30
0.0
 40
0.301
  0
CIRCLE
  8
OBJ
 10
7.777883
 20
11.931748
 30
0.0
 40
0.357
  0
ARC
  8
OBJ
 10
7.777883
 20
6.962381
 30
0.0
 40
0.4745
 50
178.828075
 51
1.171925
  0
ARC
  8
OBJ
 10
8.821184
 20
8.434086
 30
0.0
 40
1.05
 50
204.941647
 51
335.058353
  0
LINE
  8
OBJ
  6
CENTER
 62
     1
 10
5.925796
 20
8.434086
 30
0.0
 11
8.824227
 21
8.434086
 31
0.0
  0
ARC
  8
OBJ
 10
8.821184
 20
15.523107
 30
0.0
 40
2.753089
 50
250.762229
 51
289.124383
  0
LINE
  8
OBJ
 10
9.726011
 20
13.334586
 30
0.0
 11
7.915011
 21
13.334586
 31
0.0
  0
INSERT
  8
OBJ
  2
OILCAP
 10
8.820511
 20
13.334586
 30
0.0
 41
-1.0
  0
LINE
  8
OBJ
  6
CONTINUOUS
 10
11.406425
 20
9.356086
 30
0.0
 11
6.196542
 21
9.356086
 31
0.0
  0
LINE
  8
OBJ
  6
CONTINUOUS
 62
     7
 10
7.264535
 20
6.438086
 30
0.0
 11
8.825276
 21
6.438086
 31
0.0
  0
LINE
  8
OBJ
  6
CONTINUOUS
 62
     7
 10
7.637362
 20
13.887748
 30
0.0
 11
8.821363
 21
13.887748
 31
0.0
  0
ARC
  8
OBJ
 10
8.824227
 20
8.434086
 30
0.0
 40
1.05
 50
209.44866
 51
270.030096
  0
ARC
  8
OBJ
 10
8.82308
 20
10.618086
 30
0.0
 40
1.047
 50
90.030096
 51
154.973199
  0
LINE
  8
OBJ
  6
CENTER
 62
     1
 10
0.403365
 20
10.618086
 30
0.0
 11
17.65876
 21
10.618086
 31
0.0
  0
LINE
  8
OBJ
 10
6.360565
 20
4.877686
 30
0.0
 11
6.360565
 21
7.477686
 31
0.0
  0
LINE
  8
OBJ
 10
7.575393
 20
6.845473
 30
0.0
 11
7.777883
 21
6.728565
 31
0.0
  0
LINE
  8
OBJ
 10
7.777883
 20
6.728565
 30
0.0
 11
7.980373
 21
6.845473
 31
0.0
  0
LINE
  8
OBJ
 10
5.901085
 20
6.845473
 30
0.0
 11
6.103575
 21
6.728565
 31
0.0
  0
LINE
  8
OBJ
 10
6.103575
 20
6.728565
 30
0.0
 11
6.306065
 21
6.845473
 31
0.0
  0
LINE
  8
OBJ
  6
CENTER
 62
     1
 10
6.73454
 20
13.023701
 30
0.0
 11
6.73454
 21
6.211386
 31
0.0
  0
CIRCLE
  8
OBJ
 10
6.103575
 20
6.962381
 30
0.0
 40
0.302362
  0
CIRCLE
  8
OBJ
 10
6.103575
 20
6.962381
 30
0.0
 40
0.357
  0
ARC
  8
OBJ
 10
6.103575
 20
6.962381
 30
0.0
 40
0.4745
 50
178.828075
 51
1.171925
  0
LINE
  8
OBJ
 10
5.800565
 20
4.567686
 30
0.0
 11
4.520565
 21
4.567686
 31
0.0
  0
LINE
  8
OBJ
 10
4.520565
 20
4.317686
 30
0.0
 11
5.800565
 21
4.317686
 31
0.0
  0
LINE
  8
OBJ
 10
4.520565
 20
4.567686
 30
0.0
 11
4.520565
 21
4.317686
 31
0.0
  0
LINE
  8
OBJ
  6
DASHED4
 10
5.626565
 20
4.567686
 30
0.0
 11
5.626565
 21
4.317686
 31
0.0
  0
LINE
  8
OBJ
  6
DASHED4
 10
5.126565
 20
4.567686
 30
0.0
 11
5.126565
 21
4.317686
 31
0.0
  0
LINE
  8
OBJ
 10
5.376565
 20
5.266666
 30
0.0
 11
5.376565
 21
3.618705
 31
0.0
  0
ARC
  8
OBJ
 10
5.800565
 20
4.877686
 30
0.0
 40
0.56
 50
270.0
 51
0.0
  0
LINE
  8
0
  6
BYBLOCK
 62
     0
 10
5.916565
 20
2.489331
 30
0.0
 11
7.741184
 21
2.489331
 31
0.0
  0
LINE
  8
0
  6
BYBLOCK
 62
     0
 10
5.376565
 20
3.438705
 30
0.0
 11
5.376565
 21
1.949331
 31
0.0
  0
SOLID
  8
0
  6
BYBLOCK
 62
     0
 10
5.916565
 20
2.579331
 30
0.0
 11
5.916565
 21
2.399331
 31
0.0
 12
5.376565
 22
2.489331
 32
0.0
 13
5.376565
 23
2.489331
 33
0.0
  0
POINT
  8
DEFPOINTS
  6
BYBLOCK
 62
     0
 10
5.376565
 20
3.618705
 30
0.0
  0
LINE
  8
OBJ
  6
CONTINUOUS
 62
     7
 10
6.360535
 20
6.296086
 30
0.0
 11
7.264535
 21
6.296086
 31
0.0
  0
LINE
  8
OBJ
 10
6.110565
 20
6.487932
 30
0.0
 11
6.110565
 21
4.877686
 31
0.0
  0
ARC
  8
OBJ
 10
5.800565
 20
4.877686
 30
0.0
 40
0.31
 50
270.0
 51
0.0
  0
LINE
  8
OBJ
 10
6.360535
 20
6.539895
 30
0.0
 11
6.360535
 21
6.56348
 31
0.0
  0
LINE
  8
OBJ
  6
CONTINUOUS
 62
     7
 10
6.360535
 20
6.539895
 30
0.0
 11
6.360535
 21
6.296086
 31
0.0
  0
LINE
  8
OBJ
  6
CONTINUOUS
 62
     7
 10
7.264535
 20
6.438086
 30
0.0
 11
7.264535
 21
6.296086
 31
0.0
  0
LINE
  8
OBJ
  6
CONTINUOUS
 10
1.356232
 20
11.208637
 30
0.0
 11
3.652232
 21
11.208637
 31
0.0
  0
LINE
  8
OBJ
  6
CONTINUOUS
 10
1.29017
 20
10.749618
 30
0.0
 11
3.430169
 21
10.750742
 31
0.0
  0
LINE
  8
OBJ
  6
CONTINUOUS
 10
1.356232
 20
10.027535
 30
0.0
 11
3.652232
 21
10.027535
 31
0.0
  0
LINE
  8
OBJ
  6
CONTINUOUS
 10
1.290232
 20
10.473991
 30
0.0
 11
3.430232
 21
10.473991
 31
0.0
  0
LINE
  8
OBJ
 10
1.29081
 20
10.108817
 30
0.0
 11
1.290276
 21
11.126602
 31
0.0
  0
LINE
  8
OBJ
 10
1.290232
 20
10.109535
 30
0.0
 11
1.356232
 21
10.027535
 31
0.0
  0
LINE
  8
OBJ
 10
1.356232
 20
10.473991
 30
0.0
 11
1.356232
 21
10.027535
 31
0.0
  0
LINE
  8
OBJ
 10
1.290276
 20
11.126602
 30
0.0
 11
1.356232
 21
11.208637
 31
0.0
  0
LINE
  8
OBJ
 10
1.356474
 20
10.749653
 30
0.0
 11
1.356232
 21
11.208637
 31
0.0
  0
LINE
  8
OBJ
 10
7.584351
 20
11.819839
 30
0.0
 11
7.777883
 21
11.705316
 31
0.0
  0
LINE
  8
OBJ
 10
7.777883
 20
11.705316
 30
0.0
 11
7.973828
 21
11.815659
 31
0.0
  0
LINE
  8
OBJ
 10
5.458359
 20
11.819839
 30
0.0
 11
5.651891
 21
11.705316
 31
0.0
  0
LINE
  8
OBJ
 10
5.651891
 20
11.705316
 30
0.0
 11
5.847836
 21
11.815659
 31
0.0
  0
ARC
  8
OBJ
 10
5.04573
 20
11.509748
 30
0.0
 40
0.282
 50
61.591878
 51
277.209662
  0
ARC
  8
OBJ
 10
5.04573
 20
11.509748
 30
0.0
 40
0.326
 50
65.698552
 51
276.232417
  0
ARC
  8
OBJ
 10
5.04573
 20
11.509748
 30
0.0
 40
0.458
 50
77.677495
 51
171.309749
  0
ARC
  8
OBJ
 10
5.04573
 20
11.509748
 30
0.0
 40
0.424
 50
71.553567
 51
274.788032
  0
LINE
  8
OBJ
 10
4.342235
 20
10.607126
 30
0.0
 11
4.340858
 21
13.229126
 31
0.0
  0
LINE
  8
OBJ
 10
3.754232
 20
9.402431
 30
0.0
 11
3.754232
 21
11.822284
 31
0.0
  0
LINE
  8
OBJ
 10
4.056908
 20
13.132977
 30
0.0
 11
4.056908
 21
8.092533
 31
0.0
  0
ARC
  8
OBJ
 10
6.73454
 20
10.618086
 30
0.0
 40
1.056
 50
24.818715
 51
173.330099
  0
LINE
  8
OBJ
 10
5.179891
 20
11.369748
 30
0.0
 11
5.179891
 21
12.000632
 31
0.0
  0
LINE
  8
OBJ
 10
6.128891
 20
11.931748
 30
0.0
 11
6.128891
 21
11.483144
 31
0.0
  0
LINE
  8
OBJ
 10
7.305883
 20
11.642331
 30
0.0
 11
7.305883
 21
12.000632
 31
0.0
  0
CIRCLE
  8
OBJ
 10
5.651891
 20
11.931748
 30
0.0
 40
0.301
  0
CIRCLE
  8
OBJ
 10
5.651891
 20
11.931748
 30
0.0
 40
0.357
  0
LINE
  8
OBJ
 10
4.870524
 20
9.623977
 30
0.0
 11
5.044337
 21
9.524086
 31
0.0
  0
LINE
  8
OBJ
 10
5.043541
 20
9.925029
 30
0.0
 11
4.870127
 21
9.824449
 31
0.0
  0
LINE
  8
OBJ
 10
4.872065
 20
11.604992
 30
0.0
 11
5.046033
 21
11.704613
 31
0.0
  0
LINE
  8
OBJ
 10
5.044614
 20
11.303671
 30
0.0
 11
4.871356
 21
11.404521
 31
0.0
  0
CIRCLE
  8
OBJ
 10
4.85698
 20
10.618086
 30
0.0
 40
0.101
  0
ARC
  8
OBJ
 10
4.662201
 20
9.216086
 30
0.0
 40
0.222
 50
270.0
 51
21.003275
  0
ARC
  8
OBJ
 10
5.044337
 20
9.71895
 30
0.0
 40
0.458
 50
85.393363
 51
171.459068
  0
ARC
  8
OBJ
 10
5.044337
 20
9.71895
 30
0.0
 40
0.326
 50
83.521272
 51
27.553044
  0
ARC
  8
OBJ
 10
5.044337
 20
9.71895
 30
0.0
 40
0.282
 50
82.504999
 51
32.326524
  0
LINE
  8
OBJ
  6
CENTER
 62
     1
 10
4.10154
 20
7.930086
 30
0.0
 11
5.817082
 21
7.930086
 31
0.0
  0
ARC
  8
OBJ
 10
5.044337
 20
9.71895
 30
0.0
 40
0.458
 50
188.601125
 51
19.223418
  0
ARC
  8
OBJ
 10
5.044337
 20
9.71895
 30
0.0
 40
0.424
 50
85.023065
 51
20.833589
  0
LINE
  8
OBJ
  6
CONTINUOUS
 10
4.608582
 20
8.994086
 30
0.0
 11
5.627184
 21
8.994086
 31
0.0
  0
ARC
  8
OBJ
 10
5.04573
 20
11.509748
 30
0.0
 40
0.458
 50
188.451805
 51
274.431849
  0
LINE
  8
OBJ
 10
4.608582
 20
6.866086
 30
0.0
 11
5.638949
 21
6.866086
 31
0.0
  0
ARC
  8
OBJ
 10
3.778493
 20
9.338366
 30
0.0
 40
0.068939
 50
109.954678
 51
250.045322
  0
LINE
  8
OBJ
 10
3.709554
 20
9.373147
 30
0.0
 11
3.709554
 21
9.273566
 31
0.0
  0
LINE
  8
OBJ
 10
4.342232
 20
10.618086
 30
0.0
 11
4.342232
 21
7.996086
 31
0.0
  0
LINE
  8
OBJ
 10
4.057032
 20
9.426655
 30
0.0
 11
4.057032
 21
8.855516
 31
0.0
  0
LINE
  8
OBJ
 10
4.004754
 20
9.426655
 30
0.0
 11
4.004754
 21
8.855516
 31
0.0
  0
LINE
  8
OBJ
 10
3.947154
 20
9.403166
 30
0.0
 11
3.947154
 21
8.879006
 31
0.0
  0
LINE
  8
OBJ
 10
4.056908
 20
8.092533
 30
0.0
 11
4.342232
 21
7.996086
 31
0.0
  0
LINE
  8
OBJ
 10
4.608582
 20
8.994086
 30
0.0
 11
4.608582
 21
6.866086
 31
0.0
  0
LINE
  8
OBJ
 10
4.342232
 20
7.996086
 30
0.0
 11
4.608582
 21
7.91394
 31
0.0
  0
ARC
  8
OBJ
 10
3.925502
 20
9.141086
 30
0.0
 40
0.215949
 50
142.158498
 51
217.841502
  0
LINE
  8
OBJ
 10
3.709554
 20
9.273566
 30
0.0
 11
3.709554
 21
9.008606
 31
0.0
  0
LINE
  8
OBJ
 10
4.004754
 20
9.19939
 30
0.0
 11
3.947154
 21
9.25699
 31
0.0
  0
LINE
  8
OBJ
  6
CONTINUOUS
 10
3.947154
 20
9.008606
 30
0.0
 11
3.754965
 21
9.008606
 31
0.0
  0
LINE
  8
OBJ
  6
CONTINUOUS
 10
3.947154
 20
9.273566
 30
0.0
 11
3.754965
 21
9.273566
 31
0.0
  0
LINE
  8
OBJ
 10
4.057032
 20
8.855516
 30
0.0
 11
4.004754
 21
8.855516
 31
0.0
  0
LINE
  8
OBJ
 10
3.709554
 20
8.909024
 30
0.0
 11
3.73753
 21
8.888356
 31
0.0
  0
LINE
  8
OBJ
  6
CONTINUOUS
 10
3.947154
 20
8.879006
 30
0.0
 11
3.754965
 21
8.879006
 31
0.0
  0
LINE
  8
OBJ
  6
CENTER2
 10
4.004754
 20
8.899886
 30
0.0
 11
3.947154
 21
8.899886
 31
0.0
  0
ARC
  8
OBJ
 10
3.778493
 20
8.943806
 30
0.0
 40
0.068939
 50
109.954678
 51
250.045322
  0
LINE
  8
OBJ
 10
3.709554
 20
9.008606
 30
0.0
 11
3.709554
 21
8.909024
 31
0.0
  0
LINE
  8
OBJ
 10
3.430232
 20
10.618086
 30
0.0
 11
3.430232
 21
10.473991
 31
0.0
  0
LINE
  8
OBJ
 10
3.652232
 20
11.403086
 30
0.0
 11
3.652232
 21
9.833086
 31
0.0
  0
LINE
  8
OBJ
 10
3.698232
 20
11.479086
 30
0.0
 11
3.698232
 21
9.757086
 31
0.0
  0
LINE
  8
OBJ
 10
3.754232
 20
9.747086
 30
0.0
 11
3.754232
 21
11.489086
 31
0.0
  0
LINE
  8
OBJ
 10
4.592988
 20
11.578949
 30
0.0
 11
4.591488
 21
9.650454
 31
0.0
  0
LINE
  8
OBJ
 10
3.688232
 20
9.823086
 30
0.0
 11
3.662232
 21
9.823086
 31
0.0
  0
ARC
  8
OBJ
 10
3.662232
 20
9.833086
 30
0.0
 40
0.01
 50
180.0
 51
270.0
  0
ARC
  8
OBJ
 10
3.688232
 20
9.813086
 30
0.0
 40
0.01
 50
360.0
 51
90.0
  0
ARC
  8
OBJ
 10
3.708232
 20
9.757086
 30
0.0
 40
0.01
 50
180.0
 51
270.0
  0
LINE
  8
OBJ
 10
3.754232
 20
9.747086
 30
0.0
 11
3.708232
 21
9.747086
 31
0.0
  0
LINE
  8
OBJ
 10
4.057032
 20
9.426655
 30
0.0
 11
4.004754
 21
9.426655
 31
0.0
  0
LINE
  8
OBJ
 10
3.709554
 20
9.373147
 30
0.0
 11
3.73753
 21
9.393815
 31
0.0
  0
LINE
  8
OBJ
  6
CONTINUOUS
 10
3.947154
 20
9.403166
 30
0.0
 11
3.754965
 21
9.403166
 31
0.0
  0
LINE
  8
OBJ
  6
CENTER2
 10
4.004754
 20
9.382286
 30
0.0
 11
3.947154
 21
9.382286
 31
0.0
  0
LINE
  8
OBJ
 10
4.870127
 20
9.824449
 30
0.0
 11
4.870524
 21
9.623977
 31
0.0
  0
LINE
  8
OBJ
 10
3.430235
 20
10.606647
 30
0.0
 11
3.43016
 21
10.750742
 31
0.0
  0
LINE
  8
OBJ
 10
3.688232
 20
11.413086
 30
0.0
 11
3.662232
 21
11.413086
 31
0.0
  0
ARC
  8
OBJ
 10
3.662232
 20
11.403086
 30
0.0
 40
0.01
 50
90.0
 51
180.0
  0
LINE
  8
OBJ
 10
3.754232
 20
11.489086
 30
0.0
 11
3.708232
 21
11.489086
 31
0.0
  0
ARC
  8
OBJ
 10
3.708232
 20
11.479086
 30
0.0
 40
0.01
 50
90.0
 51
180.0
  0
ARC
  8
OBJ
 10
3.688232
 20
11.423086
 30
0.0
 40
0.01
 50
270.0
 51
0.0
  0
LINE
  8
OBJ
 10
4.871356
 20
11.404521
 30
0.0
 11
4.872065
 21
11.604992
 31
0.0
  0
ARC
  8
OBJ
 10
6.196542
 20
9.856086
 30
0.0
 40
0.5
 50
186.567569
 51
270.0
  0
LINE
  8
OBJ
 10
5.685687
 20
8.434086
 30
0.0
 11
5.685687
 21
10.740739
 31
0.0
  0
LINE
  8
OBJ
 10
5.629174
 20
6.972086
 30
0.0
 11
5.626322
 21
9.869748
 31
0.0
  0
LINE
  8
OBJ
 10
6.880045
 20
6.877686
 30
0.0
 11
5.232084
 21
6.877686
 31
0.0
  0
ARC
  8
OBJ
 10
6.735687
 20
8.434086
 30
0.0
 40
1.05
 50
180.0
 51
335.058353
  0
LINE
  8
OBJ
 10
6.103575
 20
7.196196
 30
0.0
 11
5.901085
 21
7.079288
 31
0.0
  0
LINE
  8
OBJ
 10
5.901085
 20
7.079288
 30
0.0
 11
5.901085
 21
6.845473
 31
0.0
  0
LINE
  8
OBJ
 10
6.306065
 20
7.079288
 30
0.0
 11
6.103575
 21
7.196196
 31
0.0
  0
LINE
  8
OBJ
 10
6.306065
 20
6.845473
 30
0.0
 11
6.306065
 21
7.079288
 31
0.0
  0
LINE
  8
OBJ
  6
CONTINUOUS
 10
5.044337
 20
9.260086
 30
0.0
 11
5.626922
 21
9.260086
 31
0.0
  0
ARC
  8
OBJ
 10
7.223482
 20
7.414794
 30
0.0
 40
0.08
 50
0.0
 51
115.574038
  0
ARC
  8
OBJ
 10
6.778139
 20
8.31401
 30
0.0
 40
1.05
 50
273.602964
 51
300.021582
  0
LINE
  8
OBJ
  6
CONTINUOUS
 62
     7
 10
6.577975
 20
7.266086
 30
0.0
 11
7.303482
 21
7.266086
 31
0.0
  0
LINE
  8
OBJ
 10
6.577975
 20
6.972086
 30
0.0
 11
6.577975
 21
7.306761
 31
0.0
  0
ARC
  8
OBJ
 10
6.657975
 20
7.306761
 30
0.0
 40
0.08
 50
86.056592
 51
180.0
  0
LINE
  8
OBJ
 10
7.777883
 20
7.196196
 30
0.0
 11
7.575393
 21
7.079288
 31
0.0
  0
LINE
  8
OBJ
 10
7.575393
 20
7.079288
 30
0.0
 11
7.575393
 21
6.845473
 31
0.0
  0
LINE
  8
OBJ
 10
7.303482
 20
6.972086
 30
0.0
 11
7.303482
 21
7.414794
 31
0.0
  0
LINE
  8
OBJ
 10
7.980373
 20
7.079288
 30
0.0
 11
7.777883
 21
7.196196
 31
0.0
  0
LINE
  8
OBJ
 10
7.980373
 20
6.845473
 30
0.0
 11
7.980373
 21
7.079288
 31
0.0
  0
ARC
  8
OBJ
  6
CONTINUOUS
 62
     7
 10
7.769883
 20
7.542086
 30
0.0
 40
0.09
 50
180.0
 51
270.0
  0
ARC
  8
OBJ
 10
7.599883
 20
7.706029
 30
0.0
 40
0.08
 50
360.0
 51
139.886986
  0
ARC
  8
OBJ
 10
7.778435
 20
7.949136
 30
0.0
 40
0.1
 50
24.941647
 51
155.058353
  0
LINE
  8
OBJ
  6
CONTINUOUS
 62
     7
 10
7.769883
 20
7.452086
 30
0.0
 11
7.785883
 21
7.452086
 31
0.0
  0
ARC
  8
OBJ
  6
CONTINUOUS
 62
     7
 10
7.785883
 20
7.542086
 30
0.0
 40
0.09
 50
270.0
 51
0.0
  0
LINE
  8
OBJ
  6
CONTINUOUS
 62
     7
 10
7.679883
 20
7.542086
 30
0.0
 11
7.679883
 21
7.706029
 31
0.0
  0
LINE
  8
OBJ
  6
CONTINUOUS
 62
     7
 10
7.875883
 20
7.542086
 30
0.0
 11
7.875883
 21
7.707343
 31
0.0
  0
ARC
  8
OBJ
 10
7.955883
 20
7.707343
 30
0.0
 40
0.08
 50
40.025966
 51
180.0
  0
CIRCLE
  8
OBJ
 10
6.73454
 20
10.618086
 30
0.0
 40
0.283
  0
LINE
  8
OBJ
 10
5.081121
 20
11.369847
 30
0.0
 11
5.081121
 21
9.869748
 31
0.0
  0
ARC
  8
OBJ
 10
5.620348
 20
9.789748
 30
0.0
 40
0.08
 50
6.567569
 51
90.0
  0
LINE
  8
OBJ
 10
5.081121
 20
9.903432
 30
0.0
 11
5.043541
 21
9.925029
 31
0.0
  0
LINE
  8
OBJ
 10
5.081121
 20
9.869748
 30
0.0
 11
5.620348
 21
9.869748
 31
0.0
  0
LINE
  8
OBJ
 10
5.217354
 20
9.825138
 30
0.0
 11
5.139731
 21
9.869748
 31
0.0
  0
LINE
  8
OBJ
 10
5.217752
 20
9.624666
 30
0.0
 11
5.217354
 21
9.825138
 31
0.0
  0
LINE
  8
OBJ
 10
5.044337
 20
9.524086
 30
0.0
 11
5.217752
 21
9.624666
 31
0.0
  0
LINE
  8
OBJ
 10
5.044497
 20
9.92448
 30
0.0
 11
5.043541
 21
9.925029
 31
0.0
  0
LINE
  8
OBJ
 10
5.081121
 20
11.369748
 30
0.0
 11
6.032226
 21
11.369748
 31
0.0
  0
LINE
  8
OBJ
 10
5.179181
 20
11.38073
 30
0.0
 11
5.160004
 21
11.369748
 31
0.0
  0
LINE
  8
OBJ
 10
5.046033
 20
11.704613
 30
0.0
 11
5.179891
 21
11.626697
 31
0.0
  0
LINE
  8
OBJ
 10
5.081121
 20
11.324576
 30
0.0
 11
5.044614
 21
11.303671
 31
0.0
  0
LINE
  8
OBJ
 10
5.04557
 20
11.304219
 30
0.0
 11
5.044614
 21
11.303671
 31
0.0
  0
ARC
  8
OBJ
 10
7.225883
 20
11.642331
 30
0.0
 40
0.08
 50
244.372389
 51
360.0
  0
ARC
  8
OBJ
 10
7.783772
 20
11.103315
 30
0.0
 40
0.1
 50
204.818715
 51
334.973199
  0
ARC
  8
OBJ
 10
4.365231
 20
14.295139
 30
0.0
 40
1.0
 50
287.846015
 51
310.86973
  0
LINE
  8
OBJ
 10
4.004581
 20
12.142235
 30
0.0
 11
3.946981
 21
12.199835
 31
0.0
  0
LINE
  8
OBJ
 10
4.056908
 20
12.3695
 30
0.0
 11
4.004581
 21
12.3695
 31
0.0
  0
ARC
  8
OBJ
 10
3.77832
 20
12.281211
 30
0.0
 40
0.068939
 50
109.954678
 51
250.045322
  0
LINE
  8
OBJ
 10
3.709381
 20
12.315993
 30
0.0
 11
3.709381
 21
12.216411
 31
0.0
  0
LINE
  8
OBJ
 10
3.709381
 20
12.315993
 30
0.0
 11
3.737357
 21
12.33666
 31
0.0
  0
LINE
  8
OBJ
  6
CONTINUOUS
 10
3.946981
 20
12.216411
 30
0.0
 11
3.754793
 21
12.216411
 31
0.0
  0
LINE
  8
OBJ
  6
CONTINUOUS
 10
3.946981
 20
12.346011
 30
0.0
 11
3.754793
 21
12.346011
 31
0.0
  0
LINE
  8
OBJ
  6
CENTER2
 10
4.004581
 20
12.325131
 30
0.0
 11
3.946981
 21
12.325131
 31
0.0
  0
LINE
  8
OBJ
 10
4.056908
 20
11.798361
 30
0.0
 11
4.004581
 21
11.798361
 31
0.0
  0
ARC
  8
OBJ
 10
3.77832
 20
11.886651
 30
0.0
 40
0.068939
 50
109.954678
 51
250.045322
  0
LINE
  8
OBJ
 10
3.709381
 20
11.851869
 30
0.0
 11
3.737357
 21
11.831202
 31
0.0
  0
LINE
  8
OBJ
 10
3.709381
 20
11.951451
 30
0.0
 11
3.709381
 21
11.851869
 31
0.0
  0
LINE
  8
OBJ
  6
CONTINUOUS
 10
3.946981
 20
11.951451
 30
0.0
 11
3.754793
 21
11.951451
 31
0.0
  0
LINE
  8
OBJ
  6
CONTINUOUS
 10
3.946981
 20
11.821851
 30
0.0
 11
3.754793
 21
11.821851
 31
0.0
  0
LINE
  8
OBJ
  6
CENTER2
 10
4.004581
 20
11.842731
 30
0.0
 11
3.946981
 21
11.842731
 31
0.0
  0
LINE
  8
OBJ
 10
4.004581
 20
12.3695
 30
0.0
 11
4.004581
 21
11.798361
 31
0.0
  0
ARC
  8
OBJ
 10
3.92533
 20
12.083931
 30
0.0
 40
0.215949
 50
142.158498
 51
217.841502
  0
LINE
  8
OBJ
 10
3.709381
 20
12.216411
 30
0.0
 11
3.709381
 21
11.951451
 31
0.0
  0
LINE
  8
OBJ
 10
3.946981
 20
12.346011
 30
0.0
 11
3.946981
 21
11.821851
 31
0.0
  0
LINE
  8
OBJ
 10
4.056908
 20
13.132977
 30
0.0
 11
4.340858
 21
13.229126
 31
0.0
  0
LINE
  8
OBJ
 10
4.340858
 20
13.229126
 30
0.0
 11
4.554823
 21
13.295238
 31
0.0
  0
LINE
  8
OBJ
 10
4.671691
 20
13.343255
 30
0.0
 11
4.554823
 21
13.295238
 31
0.0
  0
LINE
  8
OBJ
 10
6.36254
 20
12.471748
 30
0.0
 11
7.10654
 21
12.471748
 31
0.0
  0
LINE
  8
OBJ
 10
6.931391
 20
13.833944
 30
0.0
 11
5.286163
 21
13.657156
 31
0.0
  0
LINE
  8
OBJ
 10
7.398494
 20
12.220873
 30
0.0
 11
6.290633
 21
12.108213
 31
0.0
  0
LINE
  8
OBJ
 10
5.850249
 20
12.040524
 30
0.0
 11
5.656717
 21
12.155046
 31
0.0
  0
ARC
  8
OBJ
 10
5.651891
 20
11.931748
 30
0.0
 40
0.477
 50
0.0
 51
171.696838
  0
LINE
  8
OBJ
 10
5.143473
 20
11.957197
 30
0.0
 11
5.179891
 21
11.968618
 31
0.0
  0
LINE
  8
OBJ
 10
5.460772
 20
12.044703
 30
0.0
 11
5.458359
 21
11.819839
 31
0.0
  0
LINE
  8
OBJ
 10
5.656717
 20
12.155046
 30
0.0
 11
5.460772
 21
12.044703
 31
0.0
  0
LINE
  8
OBJ
 10
6.36254
 20
12.471748
 30
0.0
 11
6.36254
 21
12.187803
 31
0.0
  0
LINE
  8
OBJ
 10
5.847836
 20
11.815659
 30
0.0
 11
5.850249
 21
12.040524
 31
0.0
  0
ARC
  8
OBJ
 10
6.28254
 20
12.187803
 30
0.0
 40
0.08
 50
275.806504
 51
360.0
  0
LINE
  8
OBJ
 10
6.102207
 20
12.089052
 30
0.0
 11
6.290633
 21
12.108213
 31
0.0
  0
ARC
  8
OBJ
 10
5.346743
 20
13.16084
 30
0.0
 40
0.5
 50
96.959048
 51
130.86973
  0
LINE
  8
OBJ
 10
7.916357
 20
13.334586
 30
0.0
 11
7.916357
 21
13.007432
 31
0.0
  0
LINE
  8
OBJ
 10
7.10654
 20
12.471748
 30
0.0
 11
7.10654
 21
12.279731
 31
0.0
  0
ARC
  8
OBJ
 10
7.18654
 20
12.279731
 30
0.0
 40
0.08
 50
180.0
 51
275.806504
  0
LINE
  8
OBJ
 10
7.782709
 20
12.155046
 30
0.0
 11
7.586764
 21
12.044703
 31
0.0
  0
LINE
  8
OBJ
 10
7.586764
 20
12.044703
 30
0.0
 11
7.584351
 21
11.819839
 31
0.0
  0
LINE
  8
OBJ
 10
7.976241
 20
12.040524
 30
0.0
 11
7.782709
 21
12.155046
 31
0.0
  0
LINE
  8
OBJ
 10
7.973828
 20
11.815659
 30
0.0
 11
7.976241
 21
12.040524
 31
0.0
  0
ARC
  8
OBJ
 10
7.856357
 20
13.007432
 30
0.0
 40
0.06
 50
260.904907
 51
0.0
  0
ARC
  8
OBJ
 10
7.243223
 20
14.595579
 30
0.0
 40
0.809459
 50
250.77507
 51
296.188201
  0
ARC
  8
OBJ
 10
7.295491
 20
13.715011
 30
0.0
 40
0.383033
 50
26.806007
 51
161.910456
  0
LINE
  8
OBJ
 10
10.066975
 20
6.845473
 30
0.0
 11
9.864485
 21
6.728565
 31
0.0
  0
LINE
  8
OBJ
 10
9.864485
 20
6.728565
 30
0.0
 11
9.661995
 21
6.845473
 31
0.0
  0
LINE
  8
OBJ
 10
11.741283
 20
6.845473
 30
0.0
 11
11.538793
 21
6.728565
 31
0.0
  0
LINE
  8
OBJ
 10
11.538793
 20
6.728565
 30
0.0
 11
11.336302
 21
6.845473
 31
0.0
  0
LINE
  8
OBJ
  6
CENTER
 62
     1
 10
10.907828
 20
13.023701
 30
0.0
 11
10.907828
 21
6.211386
 31
0.0
  0
LINE
  8
OBJ
  6
CENTER
 62
     1
 10
8.821184
 20
14.228522
 30
0.0
 11
8.821184
 21
6.211386
 31
0.0
  0
ARC
  8
OBJ
 10
9.864485
 20
6.962381
 30
0.0
 40
0.301
 50
178.152371
 51
1.847629
  0
ARC
  8
OBJ
 10
9.864485
 20
6.962381
 30
0.0
 40
0.357
 50
178.442274
 51
1.557726
  0
ARC
  8
OBJ
 10
9.864485
 20
6.962381
 30
0.0
 40
0.4745
 50
178.828075
 51
1.171925
  0
ARC
  8
OBJ
 10
9.864485
 20
6.98179
 30
0.0
 40
0.357
 50
358.442274
 51
181.557726
  0
ARC
  8
OBJ
 10
9.864485
 20
6.98179
 30
0.0
 40
0.301
 50
358.152371
 51
181.847629
  0
ARC
  8
OBJ
 10
11.538793
 20
6.962381
 30
0.0
 40
0.301
 50
178.152371
 51
1.847629
  0
ARC
  8
OBJ
 10
11.538793
 20
6.962381
 30
0.0
 40
0.357
 50
178.442274
 51
1.557726
  0
ARC
  8
OBJ
 10
11.538793
 20
6.962381
 30
0.0
 40
0.4745
 50
178.828075
 51
1.171925
  0
ARC
  8
OBJ
 10
11.538797
 20
6.984355
 30
0.0
 40
0.301
 50
358.127128
 51
181.822385
  0
ARC
  8
OBJ
 10
11.538797
 20
6.984355
 30
0.0
 40
0.357
 50
358.41703
 51
181.532482
  0
TEXT
  8
OBJ
 10
14.099417
 20
1.222687
 30
0.0
 40
1.24194
  1
2530
  7
ROMAND
  0
LINE
  8
0
  6
BYBLOCK
 62
     0
 10
11.725802
 20
2.489331
 30
0.0
 11
9.901184
 21
2.489331
 31
0.0
  0
ARC
  8
OBJ
 10
11.841802
 20
4.877686
 30
0.0
 40
0.56
 50
180.0
 51
270.0
  0
LINE
  8
OBJ
  6
CONTINUOUS
 62
     7
 10
11.281832
 20
6.296086
 30
0.0
 11
10.377832
 21
6.296086
 31
0.0
  0
LINE
  8
OBJ
  6
CONTINUOUS
 62
     7
 10
10.377832
 20
6.438086
 30
0.0
 11
8.817091
 21
6.438086
 31
0.0
  0
LINE
  8
OBJ
  6
CONTINUOUS
 62
     7
 10
10.377832
 20
6.438086
 30
0.0
 11
10.377832
 21
6.296086
 31
0.0
  0
LINE
  8
OBJ
 10
12.265802
 20
5.266666
 30
0.0
 11
12.265802
 21
3.618705
 31
0.0
  0
LINE
  8
OBJ
  6
DASHED4
 10
12.015802
 20
4.567686
 30
0.0
 11
12.015802
 21
4.317686
 31
0.0
  0
LINE
  8
OBJ
  6
DASHED4
 10
12.515802
 20
4.567686
 30
0.0
 11
12.515802
 21
4.317686
 31
0.0
  0
LINE
  8
OBJ
 10
13.121802
 20
4.567686
 30
0.0
 11
13.121802
 21
4.317686
 31
0.0
  0
LINE
  8
OBJ
 10
13.121802
 20
4.317686
 30
0.0
 11
11.841802
 21
4.317686
 31
0.0
  0
LINE
  8
0
  6
BYBLOCK
 62
     0
 10
12.265802
 20
3.438705
 30
0.0
 11
12.265802
 21
1.949331
 31
0.0
  0
SOLID
  8
0
  6
BYBLOCK
 62
     0
 10
11.725802
 20
2.579331
 30
0.0
 11
11.725802
 21
2.399331
 31
0.0
 12
12.265802
 22
2.489331
 32
0.0
 13
12.265802
 23
2.489331
 33
0.0
  0
POINT
  8
DEFPOINTS
  6
BYBLOCK
 62
     0
 10
12.265802
 20
2.489331
 30
0.0
  0
POINT
  8
DEFPOINTS
  6
BYBLOCK
 62
     0
 10
12.265802
 20
3.618705
 30
0.0
  0
LINE
  8
OBJ
 10
11.841802
 20
4.567686
 30
0.0
 11
13.121802
 21
4.567686
 31
0.0
  0
LINE
  8
OBJ
 10
11.281802
 20
4.877686
 30
0.0
 11
11.281802
 21
6.563499
 31
0.0
  0
LINE
  8
OBJ
 10
11.531802
 20
6.487932
 30
0.0
 11
11.531802
 21
4.877686
 31
0.0
  0
ARC
  8
OBJ
 10
11.841802
 20
4.877686
 30
0.0
 40
0.31
 50
180.0
 51
270.0
  0
LINE
  8
OBJ
  6
CONTINUOUS
 62
     7
 10
11.281832
 20
6.56348
 30
0.0
 11
11.281832
 21
6.296086
 31
0.0
  0
LINE
  8
OBJ
  6
CONTINUOUS
 10
16.286135
 20
11.208637
 30
0.0
 11
13.990135
 21
11.208637
 31
0.0
  0
LINE
  8
OBJ
  6
CONTINUOUS
 10
16.352135
 20
10.473991
 30
0.0
 11
14.212135
 21
10.473991
 31
0.0
  0
LINE
  8
OBJ
  6
CONTINUOUS
 10
16.286135
 20
10.027535
 30
0.0
 11
13.990135
 21
10.027535
 31
0.0
  0
LINE
  8
OBJ
  6
CONTINUOUS
 10
16.352198
 20
10.749618
 30
0.0
 11
14.212198
 21
10.750742
 31
0.0
  0
LINE
  8
OBJ
 10
12.184008
 20
11.819839
 30
0.0
 11
11.990476
 21
11.705316
 31
0.0
  0
LINE
  8
OBJ
 10
11.990476
 20
11.705316
 30
0.0
 11
11.794531
 21
11.815659
 31
0.0
  0
LINE
  8
OBJ
 10
10.058017
 20
11.819839
 30
0.0
 11
9.864485
 21
11.705316
 31
0.0
  0
LINE
  8
OBJ
 10
9.864485
 20
11.705316
 30
0.0
 11
9.66854
 21
11.815659
 31
0.0
  0
LINE
  8
OBJ
 10
8.254883
 20
11.931748
 30
0.0
 11
8.254883
 21
11.633857
 31
0.0
  0
LINE
  8
OBJ
 10
13.585459
 20
13.132977
 30
0.0
 11
13.585459
 21
8.092533
 31
0.0
  0
LINE
  8
OBJ
 10
13.888135
 20
9.402431
 30
0.0
 11
13.888135
 21
11.822284
 31
0.0
  0
LINE
  8
OBJ
 10
9.387485
 20
11.931748
 30
0.0
 11
9.387485
 21
11.633857
 31
0.0
  0
LINE
  8
OBJ
 10
10.336485
 20
11.642331
 30
0.0
 11
10.336485
 21
12.000632
 31
0.0
  0
LINE
  8
OBJ
 10
11.513476
 20
11.931748
 30
0.0
 11
11.513476
 21
11.483144
 31
0.0
  0
CIRCLE
  8
OBJ
 10
9.864485
 20
11.931748
 30
0.0
 40
0.301
  0
CIRCLE
  8
OBJ
 10
9.864485
 20
11.931748
 30
0.0
 40
0.357
  0
LINE
  8
OBJ
 10
12.462476
 20
11.369748
 30
0.0
 11
12.462476
 21
12.000632
 31
0.0
  0
ARC
  8
OBJ
 10
12.596637
 20
11.509748
 30
0.0
 40
0.458
 50
8.690251
 51
102.322505
  0
CIRCLE
  8
OBJ
 10
11.990476
 20
11.931748
 30
0.0
 40
0.357
  0
CIRCLE
  8
OBJ
 10
11.990476
 20
11.931748
 30
0.0
 40
0.301
  0
LINE
  8
OBJ
 10
13.300132
 20
10.607126
 30
0.0
 11
13.301509
 21
13.229126
 31
0.0
  0
ARC
  8
OBJ
 10
12.596637
 20
11.509748
 30
0.0
 40
0.282
 50
262.790338
 51
118.408122
  0
ARC
  8
OBJ
 10
12.596637
 20
11.509748
 30
0.0
 40
0.326
 50
263.767583
 51
114.301448
  0
ARC
  8
OBJ
 10
12.596637
 20
11.509748
 30
0.0
 40
0.424
 50
265.211968
 51
108.446433
  0
ARC
  8
OBJ
 10
8.819287
 20
10.618086
 30
0.0
 40
1.047
 50
25.026801
 51
89.969904
  0
ARC
  8
OBJ
 10
10.907828
 20
10.618086
 30
0.0
 40
1.056
 50
6.669901
 51
155.181285
  0
LINE
  8
OBJ
  6
CENTER
 62
     1
 10
11.722734
 20
8.434086
 30
0.0
 11
8.81814
 21
8.434086
 31
0.0
  0
ARC
  8
OBJ
 10
10.90668
 20
8.434086
 30
0.0
 40
1.05
 50
204.941647
 51
0.0
  0
LINE
  8
OBJ
 10
9.661995
 20
7.079288
 30
0.0
 11
9.864485
 21
7.196196
 31
0.0
  0
ARC
  8
OBJ
 10
9.686485
 20
7.707343
 30
0.0
 40
0.08
 50
360.0
 51
139.974034
  0
LINE
  8
OBJ
  6
CONTINUOUS
 62
     7
 10
9.390084
 20
7.266086
 30
0.0
 11
8.81814
 21
7.266086
 31
0.0
  0
ARC
  8
OBJ
 10
8.815921
 20
8.31653
 30
0.0
 40
1.05
 50
269.969904
 51
302.977449
  0
ARC
  8
OBJ
 10
8.332283
 20
7.415323
 30
0.0
 40
0.08
 50
64.363825
 51
180.0
  0
ARC
  8
OBJ
 10
8.826446
 20
8.31653
 30
0.0
 40
1.05
 50
237.022551
 51
270.030096
  0
LINE
  8
OBJ
  6
CONTINUOUS
 62
     7
 10
8.252283
 20
7.266086
 30
0.0
 11
8.824227
 21
7.266086
 31
0.0
  0
LINE
  8
OBJ
 10
8.252283
 20
6.972086
 30
0.0
 11
8.252283
 21
7.415323
 31
0.0
  0
ARC
  8
OBJ
 10
9.310084
 20
7.415323
 30
0.0
 40
0.08
 50
0.0
 51
115.636175
  0
LINE
  8
OBJ
 10
9.661995
 20
6.845473
 30
0.0
 11
9.661995
 21
7.079288
 31
0.0
  0
LINE
  8
OBJ
 10
9.390084
 20
6.972086
 30
0.0
 11
9.390084
 21
7.415323
 31
0.0
  0
LINE
  8
OBJ
  6
CONTINUOUS
 62
     7
 10
11.064392
 20
7.266086
 30
0.0
 11
10.338885
 21
7.266086
 31
0.0
  0
ARC
  8
OBJ
 10
10.864228
 20
8.31401
 30
0.0
 40
1.05
 50
239.978418
 51
266.397036
  0
ARC
  8
OBJ
 10
10.418885
 20
7.414794
 30
0.0
 40
0.08
 50
64.425962
 51
180.0
  0
LINE
  8
OBJ
 10
10.066975
 20
7.079288
 30
0.0
 11
10.066975
 21
6.845473
 31
0.0
  0
LINE
  8
OBJ
 10
9.864485
 20
7.196196
 30
0.0
 11
10.066975
 21
7.079288
 31
0.0
  0
LINE
  8
OBJ
 10
10.338885
 20
6.972086
 30
0.0
 11
10.338885
 21
7.414794
 31
0.0
  0
ARC
  8
OBJ
 10
10.042485
 20
7.706029
 30
0.0
 40
0.08
 50
40.113014
 51
180.0
  0
ARC
  8
OBJ
 10
9.863932
 20
7.949136
 30
0.0
 40
0.1
 50
24.941647
 51
155.058353
  0
LINE
  8
OBJ
  6
CONTINUOUS
 62
     7
 10
9.872485
 20
7.452086
 30
0.0
 11
9.856485
 21
7.452086
 31
0.0
  0
ARC
  8
OBJ
  6
CONTINUOUS
 62
     7
 10
9.872485
 20
7.542086
 30
0.0
 40
0.09
 50
270.0
 51
0.0
  0
ARC
  8
OBJ
  6
CONTINUOUS
 62
     7
 10
9.856485
 20
7.542086
 30
0.0
 40
0.09
 50
180.0
 51
270.0
  0
LINE
  8
OBJ
  6
CONTINUOUS
 62
     7
 10
9.766485
 20
7.542086
 30
0.0
 11
9.766485
 21
7.707343
 31
0.0
  0
LINE
  8
OBJ
  6
CONTINUOUS
 62
     7
 10
9.962485
 20
7.542086
 30
0.0
 11
9.962485
 21
7.706029
 31
0.0
  0
ARC
  8
OBJ
 10
10.984392
 20
7.306761
 30
0.0
 40
0.08
 50
0.0
 51
93.943408
  0
LINE
  8
OBJ
 10
11.064392
 20
6.972086
 30
0.0
 11
11.064392
 21
7.306761
 31
0.0
  0
ARC
  8
OBJ
 10
8.821184
 20
10.618086
 30
0.0
 40
0.283
 50
269.969904
 51
89.969904
  0
ARC
  8
OBJ
 10
8.82308
 20
10.618086
 30
0.0
 40
0.283
 50
90.030096
 51
270.030096
  0
ARC
  8
OBJ
 10
8.334883
 20
11.633857
 30
0.0
 40
0.08
 50
180.0
 51
295.669743
  0
ARC
  8
OBJ
 10
9.307485
 20
11.633857
 30
0.0
 40
0.08
 50
244.330257
 51
360.0
  0
CIRCLE
  8
OBJ
 10
10.907828
 20
10.618086
 30
0.0
 40
0.283
  0
ARC
  8
OBJ
 10
9.858595
 20
11.103315
 30
0.0
 40
0.1
 50
205.026801
 51
335.181285
  0
ARC
  8
OBJ
 10
10.416485
 20
11.642331
 30
0.0
 40
0.08
 50
180.0
 51
295.627611
  0
LINE
  8
OBJ
 10
11.95668
 20
8.434086
 30
0.0
 11
11.95668
 21
10.740739
 31
0.0
  0
LINE
  8
OBJ
 10
13.932813
 20
9.373147
 30
0.0
 11
13.932813
 21
9.273566
 31
0.0
  0
ARC
  8
OBJ
 10
13.863875
 20
9.338366
 30
0.0
 40
0.068939
 50
289.954678
 51
70.045322
  0
LINE
  8
OBJ
 10
13.695213
 20
9.403166
 30
0.0
 11
13.695213
 21
8.879006
 31
0.0
  0
LINE
  8
OBJ
 10
13.637613
 20
9.426655
 30
0.0
 11
13.637613
 21
8.855516
 31
0.0
  0
LINE
  8
OBJ
 10
13.585335
 20
9.426655
 30
0.0
 11
13.585335
 21
8.855516
 31
0.0
  0
ARC
  8
OBJ
 10
12.980166
 20
9.216086
 30
0.0
 40
0.222
 50
158.996725
 51
270.0
  0
ARC
  8
OBJ
 10
12.59803
 20
9.71895
 30
0.0
 40
0.458
 50
160.776582
 51
351.398875
  0
ARC
  8
OBJ
 10
12.59803
 20
9.71895
 30
0.0
 40
0.424
 50
159.166411
 51
94.976935
  0
LINE
  8
OBJ
 10
13.300135
 20
10.618086
 30
0.0
 11
13.300135
 21
7.996086
 31
0.0
  0
LINE
  8
OBJ
 10
12.013193
 20
6.972086
 30
0.0
 11
12.016045
 21
9.869748
 31
0.0
  0
ARC
  8
OBJ
 10
11.445825
 20
9.856086
 30
0.0
 40
0.5
 50
270.0
 51
353.432431
  0
LINE
  8
OBJ
  6
CONTINUOUS
 10
13.033785
 20
8.994086
 30
0.0
 11
12.015183
 21
8.994086
 31
0.0
  0
LINE
  8
OBJ
  6
CENTER
 62
     1
 10
13.540827
 20
7.930086
 30
0.0
 11
11.825285
 21
7.930086
 31
0.0
  0
LINE
  8
OBJ
 10
13.033785
 20
6.866086
 30
0.0
 11
12.003419
 21
6.866086
 31
0.0
  0
LINE
  8
OBJ
 10
11.538793
 20
7.196196
 30
0.0
 11
11.741283
 21
7.079288
 31
0.0
  0
LINE
  8
OBJ
 10
11.336302
 20
7.079288
 30
0.0
 11
11.538793
 21
7.196196
 31
0.0
  0
LINE
  8
OBJ
 10
11.336302
 20
6.845473
 30
0.0
 11
11.336302
 21
7.079288
 31
0.0
  0
LINE
  8
OBJ
 10
11.741283
 20
7.079288
 30
0.0
 11
11.741283
 21
6.845473
 31
0.0
  0
LINE
  8
OBJ
  6
CONTINUOUS
 10
12.59803
 20
9.260086
 30
0.0
 11
12.015445
 21
9.260086
 31
0.0
  0
LINE
  8
OBJ
 10
13.033785
 20
8.994086
 30
0.0
 11
13.033785
 21
6.866086
 31
0.0
  0
LINE
  8
OBJ
 10
13.585459
 20
8.092533
 30
0.0
 11
13.300135
 21
7.996086
 31
0.0
  0
LINE
  8
OBJ
 10
13.300135
 20
7.996086
 30
0.0
 11
13.033785
 21
7.91394
 31
0.0
  0
LINE
  8
OBJ
  6
CENTER2
 10
13.637613
 20
8.899886
 30
0.0
 11
13.695213
 21
8.899886
 31
0.0
  0
LINE
  8
OBJ
 10
13.637613
 20
9.19939
 30
0.0
 11
13.695213
 21
9.25699
 31
0.0
  0
LINE
  8
OBJ
 10
13.585335
 20
8.855516
 30
0.0
 11
13.637613
 21
8.855516
 31
0.0
  0
LINE
  8
OBJ
  6
CONTINUOUS
 10
13.695213
 20
9.273566
 30
0.0
 11
13.887402
 21
9.273566
 31
0.0
  0
LINE
  8
OBJ
  6
CONTINUOUS
 10
13.695213
 20
8.879006
 30
0.0
 11
13.887402
 21
8.879006
 31
0.0
  0
LINE
  8
OBJ
  6
CONTINUOUS
 10
13.695213
 20
9.008606
 30
0.0
 11
13.887402
 21
9.008606
 31
0.0
  0
LINE
  8
OBJ
 10
13.932813
 20
9.008606
 30
0.0
 11
13.932813
 21
8.909024
 31
0.0
  0
LINE
  8
OBJ
 10
13.932813
 20
8.909024
 30
0.0
 11
13.904838
 21
8.888356
 31
0.0
  0
ARC
  8
OBJ
 10
13.863875
 20
8.943806
 30
0.0
 40
0.068939
 50
289.954678
 51
70.045322
  0
LINE
  8
OBJ
 10
13.932813
 20
9.273566
 30
0.0
 11
13.932813
 21
9.008606
 31
0.0
  0
ARC
  8
OBJ
 10
13.716865
 20
9.141086
 30
0.0
 40
0.215949
 50
322.158498
 51
37.841502
  0
CIRCLE
  8
OBJ
 10
12.785388
 20
10.618086
 30
0.0
 40
0.101
  0
ARC
  8
OBJ
 10
12.59803
 20
9.71895
 30
0.0
 40
0.326
 50
152.446956
 51
96.478728
  0
ARC
  8
OBJ
 10
12.59803
 20
9.71895
 30
0.0
 40
0.282
 50
147.673476
 51
97.495001
  0
ARC
  8
OBJ
 10
12.59803
 20
9.71895
 30
0.0
 40
0.458
 50
8.540932
 51
94.606637
  0
ARC
  8
OBJ
 10
12.596637
 20
11.509748
 30
0.0
 40
0.458
 50
265.568151
 51
351.548195
  0
LINE
  8
OBJ
 10
12.561246
 20
11.369847
 30
0.0
 11
12.561246
 21
9.869748
 31
0.0
  0
LINE
  8
OBJ
 10
12.561246
 20
9.869748
 30
0.0
 11
12.022019
 21
9.869748
 31
0.0
  0
ARC
  8
OBJ
 10
12.022019
 20
9.789748
 30
0.0
 40
0.08
 50
90.0
 51
173.432431
  0
LINE
  8
OBJ
 10
12.598826
 20
9.925029
 30
0.0
 11
12.772241
 21
9.824449
 31
0.0
  0
LINE
  8
OBJ
 10
12.561246
 20
9.903432
 30
0.0
 11
12.598826
 21
9.925029
 31
0.0
  0
LINE
  8
OBJ
 10
12.425013
 20
9.825138
 30
0.0
 11
12.502636
 21
9.869748
 31
0.0
  0
LINE
  8
OBJ
 10
12.59803
 20
9.524086
 30
0.0
 11
12.424616
 21
9.624666
 31
0.0
  0
LINE
  8
OBJ
 10
12.424616
 20
9.624666
 30
0.0
 11
12.425013
 21
9.825138
 31
0.0
  0
LINE
  8
OBJ
 10
12.771843
 20
9.623977
 30
0.0
 11
12.59803
 21
9.524086
 31
0.0
  0
LINE
  8
OBJ
 10
12.772241
 20
9.824449
 30
0.0
 11
12.771843
 21
9.623977
 31
0.0
  0
LINE
  8
OBJ
 10
12.59787
 20
9.92448
 30
0.0
 11
12.598826
 21
9.925029
 31
0.0
  0
LINE
  8
OBJ
 10
12.561246
 20
11.369748
 30
0.0
 11
11.610141
 21
11.369748
 31
0.0
  0
LINE
  8
OBJ
 10
12.463186
 20
11.38073
 30
0.0
 11
12.482363
 21
11.369748
 31
0.0
  0
LINE
  8
OBJ
 10
12.596334
 20
11.704613
 30
0.0
 11
12.462476
 21
11.626697
 31
0.0
  0
LINE
  8
OBJ
 10
12.561246
 20
11.324576
 30
0.0
 11
12.597754
 21
11.303671
 31
0.0
  0
LINE
  8
OBJ
 10
12.770302
 20
11.604992
 30
0.0
 11
12.596334
 21
11.704613
 31
0.0
  0
LINE
  8
OBJ
 10
12.771012
 20
11.404521
 30
0.0
 11
12.770302
 21
11.604992
 31
0.0
  0
LINE
  8
OBJ
 10
12.597754
 20
11.303671
 30
0.0
 11
12.771012
 21
11.404521
 31
0.0
  0
LINE
  8
OBJ
 10
12.596797
 20
11.304219
 30
0.0
 11
12.597754
 21
11.303671
 31
0.0
  0
LINE
  8
OBJ
 10
13.049379
 20
11.578949
 30
0.0
 11
13.050879
 21
9.650454
 31
0.0
  0
LINE
  8
OBJ
 10
13.888135
 20
9.747086
 30
0.0
 11
13.888135
 21
11.489086
 31
0.0
  0
LINE
  8
OBJ
 10
13.944135
 20
11.479086
 30
0.0
 11
13.944135
 21
9.757086
 31
0.0
  0
LINE
  8
OBJ
 10
13.990135
 20
11.403086
 30
0.0
 11
13.990135
 21
9.833086
 31
0.0
  0
LINE
  8
OBJ
 10
14.212135
 20
10.618086
 30
0.0
 11
14.212135
 21
10.473991
 31
0.0
  0
LINE
  8
OBJ
  6
CENTER2
 10
13.637613
 20
9.382286
 30
0.0
 11
13.695213
 21
9.382286
 31
0.0
  0
LINE
  8
OBJ
 10
13.585335
 20
9.426655
 30
0.0
 11
13.637613
 21
9.426655
 31
0.0
  0
ARC
  8
OBJ
 10
13.980135
 20
9.833086
 30
0.0
 40
0.01
 50
270.0
 51
0.0
  0
LINE
  8
OBJ
 10
13.888135
 20
9.747086
 30
0.0
 11
13.934135
 21
9.747086
 31
0.0
  0
ARC
  8
OBJ
 10
13.934135
 20
9.757086
 30
0.0
 40
0.01
 50
270.0
 51
0.0
  0
LINE
  8
OBJ
 10
13.954135
 20
9.823086
 30
0.0
 11
13.980135
 21
9.823086
 31
0.0
  0
ARC
  8
OBJ
 10
13.954135
 20
9.813086
 30
0.0
 40
0.01
 50
90.0
 51
180.0
  0
LINE
  8
OBJ
  6
CONTINUOUS
 10
13.695213
 20
9.403166
 30
0.0
 11
13.887402
 21
9.403166
 31
0.0
  0
LINE
  8
OBJ
 10
13.932813
 20
9.373147
 30
0.0
 11
13.904838
 21
9.393815
 31
0.0
  0
LINE
  8
OBJ
 10
14.212132
 20
10.606647
 30
0.0
 11
14.212208
 21
10.750742
 31
0.0
  0
ARC
  8
OBJ
 10
13.954135
 20
11.423086
 30
0.0
 40
0.01
 50
180.0
 51
270.0
  0
ARC
  8
OBJ
 10
13.980135
 20
11.403086
 30
0.0
 40
0.01
 50
360.0
 51
90.0
  0
LINE
  8
OBJ
 10
13.954135
 20
11.413086
 30
0.0
 11
13.980135
 21
11.413086
 31
0.0
  0
ARC
  8
OBJ
 10
13.934135
 20
11.479086
 30
0.0
 40
0.01
 50
360.0
 51
90.0
  0
LINE
  8
OBJ
 10
13.888135
 20
11.489086
 30
0.0
 11
13.934135
 21
11.489086
 31
0.0
  0
LINE
  8
OBJ
 10
10.710977
 20
13.833944
 30
0.0
 11
12.356204
 21
13.657156
 31
0.0
  0
LINE
  8
OBJ
 10
10.907828
 20
12.471748
 30
0.0
 11
11.279828
 21
12.471748
 31
0.0
  0
LINE
  8
OBJ
 10
10.243874
 20
12.220873
 30
0.0
 11
11.351734
 21
12.108213
 31
0.0
  0
ARC
  8
OBJ
 10
11.359828
 20
12.187803
 30
0.0
 40
0.08
 50
180.0
 51
264.193496
  0
LINE
  8
OBJ
 10
9.666127
 20
12.040524
 30
0.0
 11
9.859659
 21
12.155046
 31
0.0
  0
LINE
  8
OBJ
  6
CONTINUOUS
 62
     7
 10
10.005005
 20
13.887748
 30
0.0
 11
8.821005
 21
13.887748
 31
0.0
  0
ARC
  8
OBJ
 10
9.864485
 20
11.931748
 30
0.0
 40
0.477
 50
8.303162
 51
180.0
  0
LINE
  8
OBJ
 10
9.200226
 20
12.483748
 30
0.0
 11
8.820267
 21
12.483748
 31
0.0
  0
LINE
  8
OBJ
 10
9.516271
 20
12.257748
 30
0.0
 11
8.820148
 21
12.257748
 31
0.0
  0
LINE
  8
OBJ
 10
8.442141
 20
12.405748
 30
0.0
 11
8.442141
 21
12.337748
 31
0.0
  0
LINE
  8
OBJ
 10
8.442141
 20
12.405748
 30
0.0
 11
8.442141
 21
12.337748
 31
0.0
  0
LINE
  8
OBJ
 10
8.362141
 20
12.257748
 30
0.0
 11
8.822219
 21
12.257748
 31
0.0
  0
ARC
  8
OBJ
 10
8.362141
 20
12.337748
 30
0.0
 40
0.08
 50
270.0
 51
0.0
  0
ARC
  8
OBJ
 10
8.362141
 20
12.337748
 30
0.0
 40
0.08
 50
270.0
 51
0.0
  0
LINE
  8
OBJ
 10
8.192407
 20
12.257748
 30
0.0
 11
8.362141
 21
12.257748
 31
0.0
  0
LINE
  8
OBJ
 10
8.442141
 20
12.483748
 30
0.0
 11
8.8221
 21
12.483748
 31
0.0
  0
LINE
  8
OBJ
 10
8.442141
 20
12.405748
 30
0.0
 11
8.442141
 21
12.483748
 31
0.0
  0
LINE
  8
OBJ
 10
9.200226
 20
12.405748
 30
0.0
 11
9.200226
 21
12.337748
 31
0.0
  0
ARC
  8
OBJ
 10
9.280226
 20
12.337748
 30
0.0
 40
0.08
 50
180.0
 51
270.0
  0
LINE
  8
OBJ
 10
9.66854
 20
11.815659
 30
0.0
 11
9.666127
 21
12.040524
 31
0.0
  0
LINE
  8
OBJ
 10
9.200226
 20
12.405748
 30
0.0
 11
9.200226
 21
12.483748
 31
0.0
  0
LINE
  8
OBJ
 10
9.726011
 20
13.334586
 30
0.0
 11
9.726011
 21
13.007432
 31
0.0
  0
ARC
  8
OBJ
 10
10.455828
 20
12.279731
 30
0.0
 40
0.08
 50
264.193496
 51
0.0
  0
LINE
  8
OBJ
 10
10.055604
 20
12.044703
 30
0.0
 11
10.058017
 21
11.819839
 31
0.0
  0
LINE
  8
OBJ
 10
9.859659
 20
12.155046
 30
0.0
 11
10.055604
 21
12.044703
 31
0.0
  0
ARC
  8
OBJ
 10
9.786011
 20
13.007432
 30
0.0
 40
0.06
 50
180.0
 51
279.095093
  0
LINE
  8
OBJ
 10
10.535828
 20
12.471748
 30
0.0
 11
10.535828
 21
12.279731
 31
0.0
  0
LINE
  8
OBJ
 10
10.907828
 20
12.471748
 30
0.0
 11
10.535828
 21
12.471748
 31
0.0
  0
ARC
  8
OBJ
 10
10.346876
 20
13.715011
 30
0.0
 40
0.383033
 50
18.089544
 51
153.193993
  0
ARC
  8
OBJ
 10
10.399144
 20
14.595579
 30
0.0
 40
0.809459
 50
243.811799
 51
289.22493
  0
ARC
  8
OBJ
 10
13.277137
 20
14.295139
 30
0.0
 40
1.0
 50
229.13027
 51
252.153985
  0
LINE
  8
OBJ
 10
11.98565
 20
12.155046
 30
0.0
 11
12.181595
 21
12.044703
 31
0.0
  0
ARC
  8
OBJ
 10
11.990476
 20
11.931748
 30
0.0
 40
0.477
 50
8.303162
 51
180.0
  0
LINE
  8
OBJ
 10
11.279828
 20
12.471748
 30
0.0
 11
11.279828
 21
12.187803
 31
0.0
  0
LINE
  8
OBJ
 10
11.54016
 20
12.089052
 30
0.0
 11
11.351734
 21
12.108213
 31
0.0
  0
LINE
  8
OBJ
 10
11.792118
 20
12.040524
 30
0.0
 11
11.98565
 21
12.155046
 31
0.0
  0
LINE
  8
OBJ
 10
11.794531
 20
11.815659
 30
0.0
 11
11.792118
 21
12.040524
 31
0.0
  0
LINE
  8
OBJ
 10
12.498894
 20
11.957197
 30
0.0
 11
12.462476
 21
11.968618
 31
0.0
  0
LINE
  8
OBJ
 10
12.181595
 20
12.044703
 30
0.0
 11
12.184008
 21
11.819839
 31
0.0
  0
ARC
  8
OBJ
 10
12.295625
 20
13.16084
 30
0.0
 40
0.5
 50
49.13027
 51
83.040952
  0
LINE
  8
OBJ
  6
CENTER2
 10
13.637786
 20
12.325131
 30
0.0
 11
13.695386
 21
12.325131
 31
0.0
  0
LINE
  8
OBJ
  6
CENTER2
 10
13.637786
 20
11.842731
 30
0.0
 11
13.695386
 21
11.842731
 31
0.0
  0
LINE
  8
OBJ
 10
13.637786
 20
12.142235
 30
0.0
 11
13.695386
 21
12.199835
 31
0.0
  0
LINE
  8
OBJ
 10
13.585459
 20
12.3695
 30
0.0
 11
13.637786
 21
12.3695
 31
0.0
  0
LINE
  8
OBJ
 10
13.585459
 20
11.798361
 30
0.0
 11
13.637786
 21
11.798361
 31
0.0
  0
LINE
  8
OBJ
 10
13.637786
 20
12.3695
 30
0.0
 11
13.637786
 21
11.798361
 31
0.0
  0
LINE
  8
OBJ
  6
CONTINUOUS
 10
13.695386
 20
12.346011
 30
0.0
 11
13.887575
 21
12.346011
 31
0.0
  0
LINE
  8
OBJ
  6
CONTINUOUS
 10
13.695386
 20
12.216411
 30
0.0
 11
13.887575
 21
12.216411
 31
0.0
  0
LINE
  8
OBJ
 10
13.932986
 20
12.315993
 30
0.0
 11
13.905011
 21
12.33666
 31
0.0
  0
LINE
  8
OBJ
 10
13.932986
 20
12.315993
 30
0.0
 11
13.932986
 21
12.216411
 31
0.0
  0
ARC
  8
OBJ
 10
13.864047
 20
12.281211
 30
0.0
 40
0.068939
 50
289.954678
 51
70.045322
  0
LINE
  8
OBJ
  6
CONTINUOUS
 10
13.695386
 20
11.821851
 30
0.0
 11
13.887575
 21
11.821851
 31
0.0
  0
LINE
  8
OBJ
  6
CONTINUOUS
 10
13.695386
 20
11.951451
 30
0.0
 11
13.887575
 21
11.951451
 31
0.0
  0
LINE
  8
OBJ
 10
13.932986
 20
11.951451
 30
0.0
 11
13.932986
 21
11.851869
 31
0.0
  0
LINE
  8
OBJ
 10
13.932986
 20
11.851869
 30
0.0
 11
13.905011
 21
11.831202
 31
0.0
  0
ARC
  8
OBJ
 10
13.864047
 20
11.886651
 30
0.0
 40
0.068939
 50
289.954678
 51
70.045322
  0
LINE
  8
OBJ
 10
13.695386
 20
12.346011
 30
0.0
 11
13.695386
 21
11.821851
 31
0.0
  0
LINE
  8
OBJ
 10
13.932986
 20
12.216411
 30
0.0
 11
13.932986
 21
11.951451
 31
0.0
  0
ARC
  8
OBJ
 10
13.717038
 20
12.083931
 30
0.0
 40
0.215949
 50
322.158498
 51
37.841502
  0
LINE
  8
OBJ
 10
13.301509
 20
13.229126
 30
0.0
 11
13.087544
 21
13.295238
 31
0.0
  0
LINE
  8
OBJ
 10
12.970677
 20
13.343255
 30
0.0
 11
13.087544
 21
13.295238
 31
0.0
  0
LINE
  8
OBJ
 10
13.585459
 20
13.132977
 30
0.0
 11
13.301509
 21
13.229126
 31
0.0
  0
TEXT
  8
0
  6
BYBLOCK
 62
     0
 10
19.118475
 20
9.086644
 30
0.0
 40
0.54
  1
2.67
  7
ROMAND
 72
     1
 11
20.031332
 21
9.356644
 31
0.0
 73
     2
  0
LINE
  8
OBJ
 10
16.351557
 20
10.108817
 30
0.0
 11
16.352092
 21
11.126602
 31
0.0
  0
LINE
  8
OBJ
 10
16.286135
 20
10.473991
 30
0.0
 11
16.286135
 21
10.027535
 31
0.0
  0
LINE
  8
OBJ
 10
16.352135
 20
10.109535
 30
0.0
 11
16.286135
 21
10.027535
 31
0.0
  0
LINE
  8
OBJ
 10
16.285894
 20
10.749653
 30
0.0
 11
16.286135
 21
11.208637
 31
0.0
  0
LINE
  8
OBJ
 10
16.352092
 20
11.126602
 30
0.0
 11
16.286135
 21
11.208637
 31
0.0
  0
SOLID
  8
0
  6
BYBLOCK
 62
     0
 10
19.99725
 20
10.078086
 30
0.0
 11
20.17725
 21
10.078086
 31
0.0
 12
20.08725
 22
10.618086
 32
0.0
 13
20.08725
 23
10.618086
 33
0.0
  0
LINE
  8
0
  6
BYBLOCK
 62
     0
 10
20.08725
 20
10.078086
 30
0.0
 11
20.08725
 21
9.882213
 31
0.0
  0
SOLID
  8
0
  6
BYBLOCK
 62
     0
 10
19.99725
 20
8.488221
 30
0.0
 11
20.17725
 21
8.488221
 31
0.0
 12
20.08725
 22
7.948221
 32
0.0
 13
20.08725
 23
7.948221
 33
0.0
  0
LINE
  8
0
  6
BYBLOCK
 62
     0
 10
20.08725
 20
8.488221
 30
0.0
 11
20.08725
 21
8.801947
 31
0.0
  0
POINT
  8
DEFPOINTS
  6
BYBLOCK
 62
     0
 10
20.08725
 20
7.948221
 30
0.0
  0
TEXT
  8
0
  6
BYBLOCK
 62
     0
 10
18.896303
 20
14.952962
 30
0.0
 40
0.54
  1
3.28
  7
ROMAND
 72
     1
 11
19.80916
 21
15.222962
 31
0.0
 73
     2
  0
LINE
  8
OBJ
  6
CENTER
 62
     1
 10
35.892505
 20
16.735693
 30
0.0
 11
35.892505
 21
24.71276
 31
0.0
  0
TEXT
  8
0
  6
BYBLOCK
 62
     0
 10
32.579106
 20
2.59999
 30
0.0
 40
0.54
  1
2.37
  7
ROMAND
 72
     1
 11
33.491963
 21
2.86999
 31
0.0
 73
     2
  0
TEXT
  8
0
  6
BYBLOCK
 62
     0
 10
32.014821
 20
1.105933
 30
0.0
 40
0.54
  1
7.87
  7
ROMAND
 72
     1
 11
32.927678
 21
1.375933
 31
0.0
 73
     2
  0
LINE
  8
0
  6
BYBLOCK
 62
     0
 10
35.352478
 20
15.222962
 30
0.0
 11
31.906281
 21
15.222962
 31
0.0
  0
LINE
  8
OBJ
 10
26.627678
 20
4.567686
 30
0.0
 11
39.227678
 21
4.567686
 31
0.0
  0
LINE
  8
OBJ
 10
27.007678
 20
7.477686
 30
0.0
 11
38.847678
 21
7.477686
 31
0.0
  0
LINE
  8
OBJ
 10
26.627678
 20
4.317686
 30
0.0
 11
39.227678
 21
4.317686
 31
0.0
  0
LINE
  8
OBJ
 10
29.712578
 20
6.602086
 30
0.0
 11
36.166778
 21
6.602086
 31
0.0
  0
CIRCLE
  8
OBJ
 10
35.892478
 20
10.618086
 30
0.0
 40
2.463
  0
ARC
  8
OBJ
 10
39.549693
 20
-45.200782
 30
0.0
 40
59.055
 50
90.568567
 51
99.095093
  0
ARC
  8
OBJ
 10
39.549693
 20
66.436953
 30
0.0
 40
58.975
 50
260.974983
 51
268.074947
  0
CIRCLE
  8
OBJ
 10
35.892478
 20
10.618086
 30
0.0
 40
2.598
  0
LINE
  8
0
  6
BYBLOCK
 62
     0
 10
20.861357
 20
7.408221
 30
0.0
 11
20.861357
 21
6.672953
 31
0.0
  0
LINE
  8
OBJ
 10
29.987678
 20
6.787686
 30
0.0
 11
29.987678
 21
6.967686
 31
0.0
  0
LINE
  8
OBJ
 10
28.017678
 20
6.787686
 30
0.0
 11
28.017678
 21
6.967686
 31
0.0
  0
ARC
  8
OBJ
 10
29.987678
 20
6.877686
 30
0.0
 40
0.25
 50
270.0
 51
90.0
  0
ARC
  8
OBJ
 10
28.017678
 20
6.877686
 30
0.0
 40
0.25
 50
90.0
 51
270.0
  0
LINE
  8
OBJ
 10
26.627678
 20
7.097686
 30
0.0
 11
26.627678
 21
4.317686
 31
0.0
  0
LINE
  8
OBJ
 10
28.372778
 20
8.410506
 30
0.0
 11
28.372778
 21
6.287086
 31
0.0
  0
LINE
  8
OBJ
 10
24.645531
 20
7.088832
 30
0.0
 11
24.645531
 21
6.780221
 31
0.0
  0
LINE
  8
OBJ
 10
25.191678
 20
6.892603
 30
0.0
 11
25.191678
 21
6.592221
 31
0.0
  0
LINE
  8
OBJ
 10
25.971678
 20
7.162971
 30
0.0
 11
25.971678
 21
6.542221
 31
0.0
  0
LINE
  8
OBJ
 10
22.725775
 20
6.704221
 30
0.0
 11
22.725775
 21
7.308221
 31
0.0
  0
LINE
  8
OBJ
 10
23.208413
 20
6.608221
 30
0.0
 11
23.208413
 21
7.404221
 31
0.0
  0
LINE
  8
OBJ
 10
24.021531
 20
12.350086
 30
0.0
 11
24.021531
 21
6.528086
 31
0.0
  0
LINE
  8
OBJ
 10
23.347531
 20
12.300086
 30
0.0
 11
23.347531
 21
6.578086
 31
0.0
  0
CIRCLE
  8
OBJ
 10
29.002678
 20
6.877686
 30
0.0
 40
0.2559
  0
LINE
  8
OBJ
  6
CONTINUOUS
 62
     7
 10
24.021531
 20
6.780221
 30
0.0
 11
25.191678
 21
6.780221
 31
0.0
  0
LINE
  8
0
  6
BYBLOCK
 62
     0
 10
20.861357
 20
4.857686
 30
0.0
 11
20.861357
 21
5.592953
 31
0.0
  0
LINE
  8
OBJ
  6
CONTINUOUS
 62
     7
 10
23.208413
 20
6.608221
 30
0.0
 11
23.344413
 21
6.608221
 31
0.0
  0
LINE
  8
OBJ
  6
CONTINUOUS
 62
     7
 10
22.775775
 20
6.654221
 30
0.0
 11
23.208413
 21
6.654221
 31
0.0
  0
ARC
  8
OBJ
 10
22.775775
 20
6.704221
 30
0.0
 40
0.05
 50
180.0
 51
270.0
  0
LINE
  8
OBJ
  6
CONTINUOUS
 62
     7
 10
23.397531
 20
6.528086
 30
0.0
 11
24.021531
 21
6.528086
 31
0.0
  0
ARC
  8
OBJ
 10
23.397531
 20
6.578086
 30
0.0
 40
0.05
 50
180.0
 51
270.0
  0
POINT
  8
DEFPOINTS
  6
BYBLOCK
 62
     0
 10
26.627678
 20
4.317686
 30
0.0
  0
LINE
  8
OBJ
  6
CONTINUOUS
 62
     7
 10
25.241678
 20
6.542221
 30
0.0
 11
25.971678
 21
6.542221
 31
0.0
  0
ARC
  8
OBJ
 10
25.241678
 20
6.592221
 30
0.0
 40
0.05
 50
180.0
 51
270.0
  0
LINE
  8
0
  6
BYBLOCK
 62
     0
 10
28.992678
 20
4.704999
 30
0.0
 11
28.992678
 21
0.835933
 31
0.0
  0
LINE
  8
0
  6
BYBLOCK
 62
     0
 10
29.532678
 20
1.375933
 30
0.0
 11
31.821963
 21
1.375933
 31
0.0
  0
SOLID
  8
0
  6
BYBLOCK
 62
     0
 10
29.532678
 20
1.465933
 30
0.0
 11
29.532678
 21
1.285933
 31
0.0
 12
28.992678
 22
1.375933
 32
0.0
 13
28.992678
 23
1.375933
 33
0.0
  0
LINE
  8
OBJ
 10
30.177678
 20
4.884999
 30
0.0
 11
30.177678
 21
3.935546
 31
0.0
  0
LINE
  8
OBJ
 10
27.807678
 20
4.884999
 30
0.0
 11
27.807678
 21
3.935546
 31
0.0
  0
LINE
  8
OBJ
  6
DASHED4
 10
27.537678
 20
4.567686
 30
0.0
 11
27.537678
 21
4.317686
 31
0.0
  0
LINE
  8
OBJ
 10
28.017678
 20
6.627686
 30
0.0
 11
29.987678
 21
6.627686
 31
0.0
  0
LINE
  8
OBJ
 10
29.632578
 20
6.287086
 30
0.0
 11
28.372778
 21
6.287086
 31
0.0
  0
LINE
  8
OBJ
 10
28.017678
 20
6.697686
 30
0.0
 11
28.017678
 21
6.537686
 31
0.0
  0
POINT
  8
DEFPOINTS
  6
BYBLOCK
 62
     0
 10
28.992678
 20
4.884999
 30
0.0
  0
ARC
  8
OBJ
 10
29.712578
 20
6.522086
 30
0.0
 40
0.08
 50
90.0
 51
180.0
  0
LINE
  8
OBJ
 10
29.632578
 20
6.522086
 30
0.0
 11
29.632578
 21
6.287086
 31
0.0
  0
LINE
  8
OBJ
 10
29.987678
 20
6.697686
 30
0.0
 11
29.987678
 21
6.537686
 31
0.0
  0
LINE
  8
OBJ
  6
DASHED4
 10
30.447678
 20
4.567686
 30
0.0
 11
30.447678
 21
4.317686
 31
0.0
  0
LINE
  8
0
  6
BYBLOCK
 62
     0
 10
25.811512
 20
15.222962
 30
0.0
 11
29.257709
 21
15.222962
 31
0.0
  0
LINE
  8
OBJ
 10
26.017774
 20
9.297858
 30
0.0
 11
28.346771
 21
8.680049
 31
0.0
  0
ARC
  8
OBJ
 10
39.549693
 20
-45.200782
 30
0.0
 40
59.055
 50
100.995894
 51
103.332381
  0
LINE
  8
0
  6
BYBLOCK
 62
     0
 10
25.271512
 20
8.128221
 30
0.0
 11
25.271512
 21
15.762962
 31
0.0
  0
LINE
  8
0
  6
BYBLOCK
 62
     0
 10
21.994874
 20
10.798086
 30
0.0
 11
21.994874
 21
15.762962
 31
0.0
  0
LINE
  8
0
  6
BYBLOCK
 62
     0
 10
25.271512
 20
8.128221
 30
0.0
 11
25.271512
 21
15.762962
 31
0.0
  0
LINE
  8
OBJ
 10
24.583531
 20
11.810086
 30
0.0
 11
24.583531
 21
11.106086
 31
0.0
  0
LINE
  8
OBJ
 10
24.553531
 20
11.780086
 30
0.0
 11
24.583531
 21
11.810086
 31
0.0
  0
LINE
  8
OBJ
  6
CENTER
 62
     1
 10
25.262632
 20
12.249938
 30
0.0
 11
25.262632
 21
7.010221
 31
0.0
  0
LINE
  8
OBJ
 10
24.977531
 20
11.856086
 30
0.0
 11
24.977531
 21
11.060086
 31
0.0
  0
LINE
  8
OBJ
 10
23.199512
 20
12.248086
 30
0.0
 11
23.199512
 21
11.674086
 31
0.0
  0
LINE
  8
OBJ
 10
25.113531
 20
12.284086
 30
0.0
 11
25.113531
 21
11.060086
 31
0.0
  0
LINE
  8
OBJ
  6
CENTER
 62
     1
 10
26.443678
 20
12.956321
 30
0.0
 11
26.443678
 21
11.77985
 31
0.0
  0
LINE
  8
OBJ
 10
26.017774
 20
12.282956
 30
0.0
 11
26.017774
 21
8.689251
 31
0.0
  0
LINE
  8
OBJ
 10
22.684874
 20
12.184086
 30
0.0
 11
22.684874
 21
11.674086
 31
0.0
  0
LINE
  8
OBJ
  6
CENTER
 62
     1
 10
21.994874
 20
12.249938
 30
0.0
 11
21.994874
 21
9.608094
 31
0.0
  0
LINE
  8
OBJ
  6
CENTER
 62
     1
 10
23.744657
 20
7.948221
 30
0.0
 11
26.755879
 21
7.948221
 31
0.0
  0
LINE
  8
OBJ
  6
CONTINUOUS
 62
     7
 10
24.021531
 20
7.436221
 30
0.0
 11
24.047531
 21
7.436221
 31
0.0
  0
LINE
  8
OBJ
  6
CONTINUOUS
 62
     7
 10
24.021531
 20
7.254221
 30
0.0
 11
24.464053
 21
7.254221
 31
0.0
  0
LINE
  8
OBJ
  6
CONTINUOUS
 62
     7
 10
24.021531
 20
11.696086
 30
0.0
 11
24.553531
 21
11.696086
 31
0.0
  0
LINE
  8
OBJ
 10
21.938893
 20
9.354086
 30
0.0
 11
21.938893
 21
8.052086
 31
0.0
  0
ARC
  8
OBJ
  6
CONTINUOUS
 62
     7
 10
21.742874
 20
9.854086
 30
0.0
 40
0.5
 50
180.0
 51
270.0
  0
ARC
  8
OBJ
 10
22.588893
 20
8.052086
 30
0.0
 40
0.65
 50
180.0
 51
270.0
  0
POINT
  8
DEFPOINTS
  6
BYBLOCK
 62
     0
 10
20.861357
 20
7.948221
 30
0.0
  0
LINE
  8
OBJ
 10
23.208413
 20
6.942257
 30
0.0
 11
23.347531
 21
7.031069
 31
0.0
  0
LINE
  8
OBJ
 10
23.208413
 20
6.974821
 30
0.0
 11
23.347531
 21
7.063634
 31
0.0
  0
LINE
  8
OBJ
  6
CONTINUOUS
 62
     7
 10
23.208413
 20
7.404221
 30
0.0
 11
23.344413
 21
7.404221
 31
0.0
  0
LINE
  8
OBJ
  6
CONTINUOUS
 62
     7
 10
22.647531
 20
7.402086
 30
0.0
 11
23.347531
 21
7.402086
 31
0.0
  0
LINE
  8
OBJ
  6
CONTINUOUS
 62
     7
 10
22.775775
 20
7.358221
 30
0.0
 11
23.208413
 21
7.358221
 31
0.0
  0
ARC
  8
OBJ
 10
22.775775
 20
7.308221
 30
0.0
 40
0.05
 50
90.0
 51
180.0
  0
LINE
  8
OBJ
  6
CONTINUOUS
 62
     7
 10
21.742874
 20
9.354086
 30
0.0
 11
22.624874
 21
9.354086
 31
0.0
  0
LINE
  8
OBJ
  6
CONTINUOUS
 62
     7
 10
21.742874
 20
11.640086
 30
0.0
 11
22.616874
 21
11.640086
 31
0.0
  0
CIRCLE
  8
OBJ
 10
21.994874
 20
10.618086
 30
0.0
 40
0.507
  0
CIRCLE
  8
OBJ
 10
21.994872
 20
10.618086
 30
0.0
 40
0.729
  0
LINE
  8
OBJ
 10
21.050874
 20
10.328141
 30
0.0
 11
21.050874
 21
10.90803
 31
0.0
  0
LINE
  8
OBJ
  6
CONTINUOUS
 62
     7
 10
21.242874
 20
11.140086
 30
0.0
 11
21.242874
 21
9.854086
 31
0.0
  0
CIRCLE
  8
OBJ
 10
21.994874
 20
10.618086
 30
0.0
 40
0.453
  0
ARC
  8
OBJ
 10
21.082069
 20
10.167356
 30
0.0
 40
0.160785
 50
1.329235
 51
90.0
  0
LINE
  8
OBJ
 10
21.082069
 20
10.328141
 30
0.0
 11
21.050874
 21
10.328141
 31
0.0
  0
ARC
  8
OBJ
  6
CONTINUOUS
 62
     7
 10
21.742874
 20
11.140086
 30
0.0
 40
0.5
 50
90.0
 51
180.0
  0
ARC
  8
OBJ
 10
21.082069
 20
11.068815
 30
0.0
 40
0.160785
 50
270.0
 51
358.670765
  0
LINE
  8
OBJ
 10
21.082069
 20
10.90803
 30
0.0
 11
21.050874
 21
10.90803
 31
0.0
  0
POINT
  8
DEFPOINTS
  6
BYBLOCK
 62
     0
 10
21.994874
 20
10.618086
 30
0.0
  0
POINT
  8
DEFPOINTS
  6
BYBLOCK
 62
     0
 10
21.994874
 20
10.618086
 30
0.0
  0
LINE
  8
OBJ
  6
CONTINUOUS
 62
     7
 10
22.616874
 20
10.237882
 30
0.0
 11
22.616874
 21
9.354086
 31
0.0
  0
LINE
  8
OBJ
  6
CONTINUOUS
 62
     7
 10
22.684874
 20
10.382839
 30
0.0
 11
22.684874
 21
9.414086
 31
0.0
  0
LINE
  8
OBJ
  6
CONTINUOUS
 62
     7
 10
22.624874
 20
9.354086
 30
0.0
 11
22.684874
 21
9.414086
 31
0.0
  0
LINE
  8
OBJ
  6
CONTINUOUS
 62
     7
 10
23.347531
 20
10.242086
 30
0.0
 11
24.021531
 21
10.242086
 31
0.0
  0
LINE
  8
OBJ
 10
22.684874
 20
11.674086
 30
0.0
 11
23.347531
 21
11.674086
 31
0.0
  0
LINE
  8
OBJ
  6
CONTINUOUS
 62
     7
 10
22.684874
 20
11.674086
 30
0.0
 11
22.684874
 21
10.853332
 31
0.0
  0
LINE
  8
OBJ
  6
CONTINUOUS
 62
     7
 10
22.616874
 20
11.664086
 30
0.0
 11
22.616874
 21
10.998289
 31
0.0
  0
ARC
  8
OBJ
  6
CONTINUOUS
 62
     7
 10
22.626874
 20
11.664086
 30
0.0
 40
0.01
 50
90.0
 51
180.0
  0
LINE
  8
OBJ
  6
CONTINUOUS
 62
     7
 10
22.626874
 20
11.674086
 30
0.0
 11
22.684874
 21
11.674086
 31
0.0
  0
LINE
  8
OBJ
 10
24.223531
 20
11.696086
 30
0.0
 11
24.223531
 21
8.1473
 31
0.0
  0
LINE
  8
OBJ
  6
CONTINUOUS
 62
     7
 10
24.351512
 20
10.566848
 30
0.0
 11
24.351512
 21
8.454872
 31
0.0
  0
LINE
  8
OBJ
 10
24.04758
 20
9.248302
 30
0.0
 11
24.05345
 21
11.696086
 31
0.0
  0
ARC
  8
OBJ
 10
24.129531
 20
9.246086
 30
0.0
 40
0.05
 50
90.0
 51
180.0
  0
ARC
  8
OBJ
 10
25.184154
 20
9.381058
 30
0.0
 40
0.071062
 50
173.628128
 51
272.876165
  0
LINE
  8
OBJ
  6
CONTINUOUS
 62
     7
 10
24.684023
 20
7.498221
 30
0.0
 11
25.841242
 21
7.498221
 31
0.0
  0
CIRCLE
  8
OBJ
 10
25.262632
 20
7.948221
 30
0.0
 40
0.733
  0
CIRCLE
  8
OBJ
 10
25.271512
 20
7.948221
 30
0.0
 40
0.83
  0
ARC
  8
OBJ
 10
25.262632
 20
7.948221
 30
0.0
 40
1.058
 50
182.75027
 51
180.0
  0
LINE
  8
OBJ
  6
CONTINUOUS
 62
     7
 10
24.640632
 20
8.336042
 30
0.0
 11
24.640632
 21
7.5604
 31
0.0
  0
LINE
  8
OBJ
 10
24.047531
 20
9.246086
 30
0.0
 11
24.047531
 21
7.436221
 31
0.0
  0
LINE
  8
OBJ
 10
24.079531
 20
9.246086
 30
0.0
 11
24.079531
 21
7.718086
 31
0.0
  0
LINE
  8
OBJ
  6
CONTINUOUS
 62
     7
 10
24.645531
 20
6.820221
 30
0.0
 11
25.191678
 21
6.820221
 31
0.0
  0
LINE
  8
OBJ
 10
24.223531
 20
7.436221
 30
0.0
 11
24.337978
 21
7.318221
 31
0.0
  0
LINE
  8
OBJ
  6
CONTINUOUS
 62
     7
 10
24.337978
 20
7.318221
 30
0.0
 11
24.412653
 21
7.318221
 31
0.0
  0
LINE
  8
OBJ
 10
24.223531
 20
7.749142
 30
0.0
 11
24.223531
 21
7.436221
 31
0.0
  0
ARC
  8
OBJ
 10
25.262632
 20
7.948221
 30
0.0
 40
1.058
 50
180.0
 51
182.75027
  0
LINE
  8
OBJ
 10
24.079531
 20
7.718086
 30
0.0
 11
24.047531
 21
7.718044
 31
0.0
  0
ARC
  8
OBJ
 10
24.129531
 20
7.718086
 30
0.0
 40
0.05
 50
180.0
 51
270.0
  0
LINE
  8
OBJ
 10
24.223531
 20
7.668086
 30
0.0
 11
24.129531
 21
7.668086
 31
0.0
  0
LINE
  8
OBJ
  6
CONTINUOUS
 62
     7
 10
24.887947
 20
7.318221
 30
0.0
 11
25.637317
 21
7.318221
 31
0.0
  0
POINT
  8
DEFPOINTS
  6
BYBLOCK
 62
     0
 10
25.271512
 20
7.948221
 30
0.0
  0
POINT
  8
DEFPOINTS
  6
BYBLOCK
 62
     0
 10
25.271512
 20
7.948221
 30
0.0
  0
POINT
  8
DEFPOINTS
  6
BYBLOCK
 62
     0
 10
25.271512
 20
7.948221
 30
0.0
  0
POINT
  8
DEFPOINTS
  6
BYBLOCK
 62
     0
 10
25.262632
 20
7.948221
 30
0.0
  0
LINE
  8
OBJ
 10
24.04758
 20
9.248302
 30
0.0
 11
24.07958
 21
9.248302
 31
0.0
  0
ARC
  8
OBJ
 10
24.097531
 20
9.246086
 30
0.0
 40
0.05
 50
177.458732
 51
180.0
  0
ARC
  8
OBJ
 10
27.007678
 20
7.097686
 30
0.0
 40
0.38
 50
90.0
 51
180.0
  0
ARC
  8
OBJ
 10
25.607531
 20
9.832128
 30
0.0
 40
0.05
 50
270.0
 51
0.0
  0
ARC
  8
OBJ
 10
25.607531
 20
11.39835
 30
0.0
 40
0.05
 50
0.0
 51
90.0
  0
ARC
  8
OBJ
 10
25.607531
 20
10.304086
 30
0.0
 40
0.05
 50
270.0
 51
0.0
  0
ARC
  8
OBJ
 10
25.607531
 20
10.932086
 30
0.0
 40
0.05
 50
0.0
 51
90.0
  0
LINE
  8
OBJ
  6
CONTINUOUS
 62
     7
 10
25.180588
 20
9.310086
 30
0.0
 11
26.017774
 21
9.310086
 31
0.0
  0
LINE
  8
OBJ
  6
CONTINUOUS
 62
     7
 10
24.583531
 20
9.426086
 30
0.0
 11
24.977531
 21
9.426086
 31
0.0
  0
LINE
  8
OBJ
  6
CONTINUOUS
 62
     7
 10
24.583531
 20
10.130086
 30
0.0
 11
24.977531
 21
10.130086
 31
0.0
  0
LINE
  8
OBJ
 10
24.583531
 20
9.426086
 30
0.0
 11
24.583531
 21
10.130086
 31
0.0
  0
LINE
  8
OBJ
 10
24.553531
 20
9.456086
 30
0.0
 11
24.553531
 21
10.100086
 31
0.0
  0
LINE
  8
OBJ
  6
CONTINUOUS
 62
     7
 10
24.241531
 20
9.470086
 30
0.0
 11
24.351512
 21
9.470086
 31
0.0
  0
LINE
  8
OBJ
 10
24.223531
 20
9.296086
 30
0.0
 11
24.129531
 21
9.296086
 31
0.0
  0
LINE
  8
OBJ
 10
24.223531
 20
9.644086
 30
0.0
 11
24.048529
 21
9.644086
 31
0.0
  0
LINE
  8
OBJ
 10
24.553531
 20
9.456086
 30
0.0
 11
24.583531
 21
9.426086
 31
0.0
  0
LINE
  8
OBJ
 10
24.553531
 20
10.100086
 30
0.0
 11
24.583531
 21
10.130086
 31
0.0
  0
LINE
  8
OBJ
 10
25.113531
 20
10.176086
 30
0.0
 11
25.113531
 21
9.380086
 31
0.0
  0
LINE
  8
OBJ
 10
24.977531
 20
9.380086
 30
0.0
 11
24.977531
 21
10.176086
 31
0.0
  0
LINE
  8
OBJ
  6
CONTINUOUS
 62
     7
 10
24.977531
 20
9.380086
 30
0.0
 11
25.113531
 21
9.380086
 31
0.0
  0
LINE
  8
OBJ
 10
24.977531
 20
9.831044
 30
0.0
 11
25.113531
 21
9.731632
 31
0.0
  0
LINE
  8
OBJ
 10
24.977531
 20
9.845338
 30
0.0
 11
25.113531
 21
9.745926
 31
0.0
  0
LINE
  8
OBJ
  6
CONTINUOUS
 62
     7
 10
25.179072
 20
10.254086
 30
0.0
 11
25.607531
 21
10.254086
 31
0.0
  0
LINE
  8
OBJ
  6
CONTINUOUS
 62
     7
 10
24.977531
 20
10.176086
 30
0.0
 11
25.113531
 21
10.176086
 31
0.0
  0
ARC
  8
OBJ
 10
25.185135
 20
10.182268
 30
0.0
 40
0.072073
 50
85.174256
 51
186.539912
  0
LINE
  8
OBJ
  6
CONTINUOUS
 62
     7
 10
24.583531
 20
11.106086
 30
0.0
 11
24.977531
 21
11.106086
 31
0.0
  0
LINE
  8
OBJ
 10
24.553531
 20
11.780086
 30
0.0
 11
24.553531
 21
11.136086
 31
0.0
  0
ARC
  8
OBJ
 10
24.301512
 20
10.566848
 30
0.0
 40
0.05
 50
0.0
 51
90.0
  0
LINE
  8
OBJ
 10
24.223531
 20
10.616848
 30
0.0
 11
24.301512
 21
10.616848
 31
0.0
  0
LINE
  8
OBJ
 10
24.553531
 20
11.136086
 30
0.0
 11
24.583531
 21
11.106086
 31
0.0
  0
LINE
  8
OBJ
  6
CONTINUOUS
 62
     7
 10
25.179072
 20
10.982086
 30
0.0
 11
25.607531
 21
10.982086
 31
0.0
  0
ARC
  8
OBJ
 10
25.185135
 20
11.053903
 30
0.0
 40
0.072073
 50
173.460088
 51
274.825744
  0
LINE
  8
OBJ
  6
CONTINUOUS
 62
     7
 10
24.977531
 20
11.060086
 30
0.0
 11
25.113531
 21
11.060086
 31
0.0
  0
LINE
  8
OBJ
 10
24.977531
 20
11.390833
 30
0.0
 11
25.113531
 21
11.490245
 31
0.0
  0
LINE
  8
OBJ
 10
24.977531
 20
11.405127
 30
0.0
 11
25.113531
 21
11.504539
 31
0.0
  0
LINE
  8
OBJ
 10
25.657531
 20
10.304086
 30
0.0
 11
25.657531
 21
10.618086
 31
0.0
  0
LINE
  8
OBJ
 10
25.657531
 20
10.304086
 30
0.0
 11
25.657531
 21
9.832128
 31
0.0
  0
LINE
  8
OBJ
 10
25.657531
 20
10.932086
 30
0.0
 11
25.657531
 21
11.39835
 31
0.0
  0
LINE
  8
OBJ
 10
25.657531
 20
10.932086
 30
0.0
 11
25.657531
 21
10.618086
 31
0.0
  0
LINE
  8
OBJ
  6
CONTINUOUS
 62
     7
 10
24.021531
 20
12.124086
 30
0.0
 11
25.113531
 21
12.124086
 31
0.0
  0
ARC
  8
OBJ
 10
23.249512
 20
12.248086
 30
0.0
 40
0.05
 50
90.0
 51
180.0
  0
LINE
  8
OBJ
 10
22.734874
 20
12.234086
 30
0.0
 11
23.199512
 21
12.234086
 31
0.0
  0
ARC
  8
OBJ
 10
22.734874
 20
12.184086
 30
0.0
 40
0.05
 50
90.0
 51
180.0
  0
LINE
  8
OBJ
 10
23.397531
 20
12.350086
 30
0.0
 11
24.021531
 21
12.350086
 31
0.0
  0
ARC
  8
OBJ
 10
23.397531
 20
12.300086
 30
0.0
 40
0.05
 50
90.0
 51
180.0
  0
LINE
  8
OBJ
 10
23.249512
 20
12.298086
 30
0.0
 11
23.347531
 21
12.298086
 31
0.0
  0
SOLID
  8
0
  6
BYBLOCK
 62
     0
 10
21.454874
 20
15.312962
 30
0.0
 11
21.454874
 21
15.132962
 31
0.0
 12
21.994874
 22
15.222962
 32
0.0
 13
21.994874
 23
15.222962
 33
0.0
  0
LINE
  8
0
  6
BYBLOCK
 62
     0
 10
21.454874
 20
15.222962
 30
0.0
 11
20.914874
 21
15.222962
 31
0.0
  0
POINT
  8
DEFPOINTS
  6
BYBLOCK
 62
     0
 10
21.994874
 20
15.222962
 30
0.0
  0
LINE
  8
OBJ
  6
CONTINUOUS
 62
     7
 10
25.180588
 20
11.926086
 30
0.0
 11
26.017774
 21
11.926086
 31
0.0
  0
LINE
  8
OBJ
  6
CONTINUOUS
 62
     7
 10
25.163531
 20
12.334086
 30
0.0
 11
25.931627
 21
12.334086
 31
0.0
  0
LINE
  8
OBJ
 10
24.649531
 20
12.080086
 30
0.0
 11
25.113531
 21
12.080086
 31
0.0
  0
LINE
  8
OBJ
  6
CONTINUOUS
 62
     7
 10
24.583531
 20
11.810086
 30
0.0
 11
24.977531
 21
11.810086
 31
0.0
  0
LINE
  8
OBJ
 10
24.649531
 20
12.124086
 30
0.0
 11
24.649531
 21
11.810086
 31
0.0
  0
ARC
  8
OBJ
 10
25.184154
 20
11.855113
 30
0.0
 40
0.071062
 50
87.123835
 51
186.371872
  0
LINE
  8
OBJ
  6
CONTINUOUS
 62
     7
 10
24.977531
 20
11.856086
 30
0.0
 11
25.113531
 21
11.856086
 31
0.0
  0
ARC
  8
OBJ
 10
25.163531
 20
12.284086
 30
0.0
 40
0.05
 50
90.0
 51
180.0
  0
LINE
  8
OBJ
 10
26.744
 20
12.449086
 30
0.0
 11
26.049978
 21
12.449086
 31
0.0
  0
LINE
  8
OBJ
 10
26.049978
 20
12.449086
 30
0.0
 11
26.049978
 21
12.320982
 31
0.0
  0
ARC
  8
OBJ
 10
26.009978
 20
12.320982
 30
0.0
 40
0.04
 50
281.814527
 51
0.0
  0
LINE
  8
OBJ
 10
25.931627
 20
12.334086
 30
0.0
 11
25.931627
 21
11.926086
 31
0.0
  0
SOLID
  8
0
  6
BYBLOCK
 62
     0
 10
25.811512
 20
15.312962
 30
0.0
 11
25.811512
 21
15.132962
 31
0.0
 12
25.271512
 22
15.222962
 32
0.0
 13
25.271512
 23
15.222962
 33
0.0
  0
SOLID
  8
0
  6
BYBLOCK
 62
     0
 10
25.811512
 20
15.312962
 30
0.0
 11
25.811512
 21
15.132962
 31
0.0
 12
25.271512
 22
15.222962
 32
0.0
 13
25.271512
 23
15.222962
 33
0.0
  0
POINT
  8
DEFPOINTS
  6
BYBLOCK
 62
     0
 10
25.271512
 20
15.222962
 30
0.0
  0
LINE
  8
0
  6
BYBLOCK
 62
     0
 10
25.811512
 20
15.222962
 30
0.0
 11
26.351512
 21
15.222962
 31
0.0
  0
LINE
  8
OBJ
  6
CONTINUOUS
 62
     7
 10
29.290478
 20
12.577913
 30
0.0
 11
29.290478
 21
10.762086
 31
0.0
  0
LINE
  8
OBJ
 10
28.372778
 20
12.427242
 30
0.0
 11
28.372778
 21
9.193001
 31
0.0
  0
LINE
  8
OBJ
  6
CONTINUOUS
 62
     7
 10
29.340478
 20
10.524086
 30
0.0
 11
33.296179
 21
10.524086
 31
0.0
  0
LINE
  8
OBJ
  6
CONTINUOUS
 62
     7
 10
29.340478
 20
10.712086
 30
0.0
 11
33.296179
 21
10.712086
 31
0.0
  0
LINE
  8
OBJ
  6
CONTINUOUS
 62
     7
 10
29.290478
 20
10.474086
 30
0.0
 11
29.290478
 21
8.770439
 31
0.0
  0
LINE
  8
OBJ
 10
28.197678
 20
6.877686
 30
0.0
 11
29.807678
 21
6.877686
 31
0.0
  0
LINE
  8
OBJ
 10
28.017678
 20
7.127686
 30
0.0
 11
29.987678
 21
7.127686
 31
0.0
  0
LINE
  8
OBJ
 10
28.279512
 20
8.421086
 30
0.0
 11
30.298538
 21
8.192067
 31
0.0
  0
LINE
  8
OBJ
 10
27.927678
 20
6.877686
 30
0.0
 11
28.107678
 21
6.877686
 31
0.0
  0
LINE
  8
OBJ
 10
28.017678
 20
7.057686
 30
0.0
 11
28.017678
 21
7.217686
 31
0.0
  0
LINE
  8
OBJ
 10
27.837678
 20
6.877686
 30
0.0
 11
27.677678
 21
6.877686
 31
0.0
  0
ARC
  8
OBJ
 10
28.279512
 20
8.671086
 30
0.0
 40
0.25
 50
180.0
 51
270.0
  0
LINE
  8
OBJ
 10
28.029512
 20
8.671086
 30
0.0
 11
28.029512
 21
8.764208
 31
0.0
  0
ARC
  8
OBJ
 10
28.172778
 20
9.193001
 30
0.0
 40
0.2
 50
270.0
 51
0.0
  0
LINE
  8
OBJ
 10
29.897678
 20
6.877686
 30
0.0
 11
30.077678
 21
6.877686
 31
0.0
  0
LINE
  8
OBJ
 10
29.987678
 20
7.057686
 30
0.0
 11
29.987678
 21
7.217686
 31
0.0
  0
LINE
  8
OBJ
 10
30.167678
 20
6.877686
 30
0.0
 11
30.327678
 21
6.877686
 31
0.0
  0
ARC
  8
OBJ
 10
29.490478
 20
8.770439
 30
0.0
 40
0.2
 50
180.0
 51
270.0
  0
LINE
  8
OBJ
 10
29.490478
 20
8.570439
 30
0.0
 11
29.527601
 21
8.570439
 31
0.0
  0
ARC
  8
OBJ
  6
CONTINUOUS
 62
     7
 10
29.340478
 20
10.474086
 30
0.0
 40
0.05
 50
90.0
 51
180.0
  0
ARC
  8
OBJ
  6
CONTINUOUS
 62
     7
 10
29.340478
 20
10.762086
 30
0.0
 40
0.05
 50
180.0
 51
270.0
  0
TEXT
  8
0
  6
BYBLOCK
 62
     0
 10
29.373423
 20
14.952962
 30
0.0
 40
0.54
  1
10.62
  7
ROMAND
 72
     1
 11
30.581995
 21
15.222962
 31
0.0
 73
     2
  0
INSERT
  8
OBJ
  2
OILCAP
 10
29.239678
 20
13.334586
 30
0.0
 41
-1.0
  0
ARC
  8
OBJ
 10
39.549693
 20
-45.200782
 30
0.0
 40
59.055
 50
99.095093
 51
100.995894
  0
LINE
  8
OBJ
 10
30.145178
 20
13.334586
 30
0.0
 11
28.334178
 21
13.334586
 31
0.0
  0
LINE
  8
OBJ
 10
28.334178
 20
13.334586
 30
0.0
 11
28.334178
 21
12.828917
 31
0.0
  0
ARC
  8
OBJ
 10
28.172778
 20
12.427242
 30
0.0
 40
0.2
 50
0.0
 51
90.0
  0
LINE
  8
OBJ
 10
28.167279
 20
12.627242
 30
0.0
 11
28.172778
 21
12.627242
 31
0.0
  0
ARC
  8
OBJ
 10
28.274178
 20
12.828917
 30
0.0
 40
0.06
 50
280.995894
 51
0.0
  0
ARC
  8
OBJ
 10
29.490478
 20
12.577913
 30
0.0
 40
0.2
 50
90.0
 51
180.0
  0
LINE
  8
OBJ
 10
29.490478
 20
12.777913
 30
0.0
 11
29.539262
 21
12.777913
 31
0.0
  0
ARC
  8
OBJ
 10
30.205178
 20
13.170985
 30
0.0
 40
0.06
 50
180.0
 51
279.095093
  0
LINE
  8
OBJ
 10
30.145178
 20
13.334586
 30
0.0
 11
30.145178
 21
13.170985
 31
0.0
  0
ARC
  8
OBJ
 10
35.867678
 20
6.877686
 30
0.0
 40
0.25
 50
90.0
 51
270.0
  0
LINE
  8
OBJ
 10
35.867678
 20
6.787686
 30
0.0
 11
35.867678
 21
6.967686
 31
0.0
  0
LINE
  8
OBJ
 10
37.837678
 20
6.787686
 30
0.0
 11
37.837678
 21
6.967686
 31
0.0
  0
ARC
  8
OBJ
 10
37.837678
 20
6.877686
 30
0.0
 40
0.25
 50
270.0
 51
90.0
  0
LINE
  8
OBJ
 10
39.227678
 20
7.097686
 30
0.0
 11
39.227678
 21
4.317686
 31
0.0
  0
LINE
  8
OBJ
 10
37.506578
 20
7.435271
 30
0.0
 11
37.506578
 21
6.287086
 31
0.0
  0
CIRCLE
  8
OBJ
 10
36.876678
 20
6.877686
 30
0.0
 40
0.2559
  0
LINE
  8
0
  6
BYBLOCK
 62
     0
 10
36.862678
 20
4.704999
 30
0.0
 11
36.862678
 21
0.835933
 31
0.0
  0
SOLID
  8
0
  6
BYBLOCK
 62
     0
 10
36.322678
 20
1.465933
 30
0.0
 11
36.322678
 21
1.285933
 31
0.0
 12
36.862678
 22
1.375933
 32
0.0
 13
36.862678
 23
1.375933
 33
0.0
  0
LINE
  8
0
  6
BYBLOCK
 62
     0
 10
36.322678
 20
1.375933
 30
0.0
 11
34.033392
 21
1.375933
 31
0.0
  0
POINT
  8
DEFPOINTS
  6
BYBLOCK
 62
     0
 10
36.862678
 20
1.375933
 30
0.0
  0
LINE
  8
OBJ
 10
37.837678
 20
6.627686
 30
0.0
 11
35.867678
 21
6.627686
 31
0.0
  0
LINE
  8
OBJ
 10
37.506578
 20
6.287086
 30
0.0
 11
36.246778
 21
6.287086
 31
0.0
  0
LINE
  8
OBJ
  6
DASHED4
 10
35.407678
 20
4.567686
 30
0.0
 11
35.407678
 21
4.317686
 31
0.0
  0
LINE
  8
OBJ
 10
35.677678
 20
4.884999
 30
0.0
 11
35.677678
 21
3.935546
 31
0.0
  0
SOLID
  8
0
  6
BYBLOCK
 62
     0
 10
35.137678
 20
2.95999
 30
0.0
 11
35.137678
 21
2.77999
 31
0.0
 12
35.677678
 22
2.86999
 32
0.0
 13
35.677678
 23
2.86999
 33
0.0
  0
LINE
  8
0
  6
BYBLOCK
 62
     0
 10
35.137678
 20
2.86999
 30
0.0
 11
34.597678
 21
2.86999
 31
0.0
  0
LINE
  8
0
  6
BYBLOCK
 62
     0
 10
35.677678
 20
3.755546
 30
0.0
 11
35.677678
 21
2.32999
 31
0.0
  0
POINT
  8
DEFPOINTS
  6
BYBLOCK
 62
     0
 10
35.677678
 20
2.86999
 30
0.0
  0
POINT
  8
DEFPOINTS
  6
BYBLOCK
 62
     0
 10
35.677678
 20
3.935546
 30
0.0
  0
LINE
  8
OBJ
 10
35.867678
 20
6.697686
 30
0.0
 11
35.867678
 21
6.537686
 31
0.0
  0
ARC
  8
OBJ
 10
36.166778
 20
6.522086
 30
0.0
 40
0.08
 50
0.0
 51
90.0
  0
LINE
  8
OBJ
 10
36.246778
 20
6.522086
 30
0.0
 11
36.246778
 21
6.287086
 31
0.0
  0
LINE
  8
OBJ
  6
DASHED4
 10
38.317678
 20
4.567686
 30
0.0
 11
38.317678
 21
4.317686
 31
0.0
  0
LINE
  8
OBJ
 10
38.047678
 20
4.884999
 30
0.0
 11
38.047678
 21
3.935546
 31
0.0
  0
SOLID
  8
0
  6
BYBLOCK
 62
     0
 10
38.587678
 20
2.95999
 30
0.0
 11
38.587678
 21
2.77999
 31
0.0
 12
38.047678
 22
2.86999
 32
0.0
 13
38.047678
 23
2.86999
 33
0.0
  0
LINE
  8
0
  6
BYBLOCK
 62
     0
 10
38.047678
 20
3.755546
 30
0.0
 11
38.047678
 21
2.32999
 31
0.0
  0
POINT
  8
DEFPOINTS
  6
BYBLOCK
 62
     0
 10
38.047678
 20
3.935546
 30
0.0
  0
LINE
  8
0
  6
BYBLOCK
 62
     0
 10
38.587678
 20
2.86999
 30
0.0
 11
39.127678
 21
2.86999
 31
0.0
  0
POINT
  8
DEFPOINTS
  6
BYBLOCK
 62
     0
 10
36.862678
 20
4.884999
 30
0.0
  0
LINE
  8
OBJ
 10
37.837678
 20
6.697686
 30
0.0
 11
37.837678
 21
6.537686
 31
0.0
  0
LINE
  8
OBJ
 10
40.028478
 20
11.604086
 30
0.0
 11
39.918478
 21
10.618086
 31
0.0
  0
ARC
  8
OBJ
 10
39.528478
 20
13.260164
 30
0.0
 40
0.5
 50
0.0
 51
90.0
  0
LINE
  8
OBJ
 10
39.711678
 20
7.584275
 30
0.0
 11
40.028478
 21
7.584275
 31
0.0
  0
LINE
  8
OBJ
 10
39.711678
 20
8.078275
 30
0.0
 11
40.028478
 21
8.078275
 31
0.0
  0
ARC
  8
OBJ
 10
39.978478
 20
8.206275
 30
0.0
 40
0.05
 50
0.0
 51
90.0
  0
ARC
  8
OBJ
 10
39.978478
 20
7.456275
 30
0.0
 40
0.05
 50
270.0
 51
0.0
  0
LINE
  8
0
  6
BYBLOCK
 62
     0
 10
35.892478
 20
10.798086
 30
0.0
 11
35.892478
 21
15.762962
 31
0.0
  0
LINE
  8
OBJ
 10
34.389169
 20
11.782395
 30
0.0
 11
34.682751
 21
11.951894
 31
0.0
  0
LINE
  8
OBJ
 10
34.095586
 20
11.951895
 30
0.0
 11
34.389169
 21
11.782395
 31
0.0
  0
CIRCLE
  8
OBJ
 10
37.395787
 20
12.121395
 30
0.0
 40
0.339
  0
CIRCLE
  8
OBJ
 10
34.389169
 20
12.121395
 30
0.0
 40
0.339
  0
LINE
  8
OBJ
 10
38.963678
 20
14.082386
 30
0.0
 11
38.963678
 21
7.153786
 31
0.0
  0
CIRCLE
  8
OBJ
 10
35.892478
 20
10.618086
 30
0.0
 40
1.452
  0
LINE
  8
OBJ
 10
38.569678
 20
14.082386
 30
0.0
 11
38.569678
 21
7.153786
 31
0.0
  0
LINE
  8
OBJ
  6
CENTER
 62
     1
 10
35.892478
 20
15.273189
 30
0.0
 11
35.892478
 21
8.826462
 31
0.0
  0
LINE
  8
OBJ
 10
37.657678
 20
6.877686
 30
0.0
 11
36.047678
 21
6.877686
 31
0.0
  0
LINE
  8
OBJ
 10
37.837678
 20
7.127686
 30
0.0
 11
35.867678
 21
7.127686
 31
0.0
  0
CIRCLE
  8
OBJ
 10
35.892478
 20
10.618086
 30
0.0
 40
1.067
  0
CIRCLE
  8
OBJ
 10
34.389169
 20
9.114776
 30
0.0
 40
0.2025
  0
LINE
  8
OBJ
 10
34.219669
 20
9.408359
 30
0.0
 11
34.050169
 21
9.114777
 31
0.0
  0
LINE
  8
OBJ
 10
34.728169
 20
9.114776
 30
0.0
 11
34.558669
 21
9.408359
 31
0.0
  0
CIRCLE
  8
OBJ
 10
34.389169
 20
9.114776
 30
0.0
 40
0.339
  0
CIRCLE
  8
OBJ
 10
34.389169
 20
9.114776
 30
0.0
 40
0.233
  0
CIRCLE
  8
OBJ
 10
34.389169
 20
9.114776
 30
0.0
 40
0.288028
  0
LINE
  8
OBJ
 10
34.344169
 20
9.249776
 30
0.0
 11
34.434169
 21
9.249776
 31
0.0
  0
LINE
  8
OBJ
 10
34.434169
 20
8.979776
 30
0.0
 11
34.344169
 21
8.979776
 31
0.0
  0
LINE
  8
OBJ
 10
34.219669
 20
8.821194
 30
0.0
 11
34.558669
 21
8.821194
 31
0.0
  0
LINE
  8
OBJ
 10
34.344169
 20
8.979776
 30
0.0
 11
34.344169
 21
9.069776
 31
0.0
  0
LINE
  8
OBJ
 10
34.344169
 20
9.069776
 30
0.0
 11
34.254169
 21
9.069776
 31
0.0
  0
LINE
  8
OBJ
 10
34.254169
 20
9.069776
 30
0.0
 11
34.254169
 21
9.159776
 31
0.0
  0
LINE
  8
OBJ
 10
34.344169
 20
9.159776
 30
0.0
 11
34.254169
 21
9.159776
 31
0.0
  0
LINE
  8
OBJ
 10
34.344169
 20
9.159776
 30
0.0
 11
34.344169
 21
9.249776
 31
0.0
  0
LINE
  8
OBJ
 10
34.050169
 20
9.114777
 30
0.0
 11
34.219669
 21
8.821194
 31
0.0
  0
LINE
  8
OBJ
 10
34.434169
 20
9.159776
 30
0.0
 11
34.434169
 21
9.249776
 31
0.0
  0
LINE
  8
OBJ
 10
34.524169
 20
9.159776
 30
0.0
 11
34.434169
 21
9.159776
 31
0.0
  0
LINE
  8
OBJ
 10
34.524169
 20
9.159776
 30
0.0
 11
34.524169
 21
9.069776
 31
0.0
  0
LINE
  8
OBJ
 10
34.524169
 20
9.069776
 30
0.0
 11
34.434169
 21
9.069776
 31
0.0
  0
LINE
  8
OBJ
 10
34.434169
 20
8.979776
 30
0.0
 11
34.434169
 21
9.069776
 31
0.0
  0
LINE
  8
OBJ
 10
34.558669
 20
8.821194
 30
0.0
 11
34.728169
 21
9.114776
 31
0.0
  0
LINE
  8
OBJ
 10
35.687678
 20
6.877686
 30
0.0
 11
35.527678
 21
6.877686
 31
0.0
  0
LINE
  8
OBJ
 10
35.867678
 20
7.057686
 30
0.0
 11
35.867678
 21
7.217686
 31
0.0
  0
LINE
  8
OBJ
 10
35.957678
 20
6.877686
 30
0.0
 11
35.777678
 21
6.877686
 31
0.0
  0
CIRCLE
  8
OBJ
 10
35.892478
 20
10.618086
 30
0.0
 40
0.773
  0
CIRCLE
  8
OBJ
 10
35.892478
 20
10.618086
 30
0.0
 40
0.695
  0
LINE
  8
OBJ
 10
34.558669
 20
9.408359
 30
0.0
 11
34.219669
 21
9.408359
 31
0.0
  0
LINE
  8
OBJ
  6
CONTINUOUS
 62
     7
 10
35.490478
 20
10.792086
 30
0.0
 11
35.490478
 21
10.444086
 31
0.0
  0
ARC
  8
OBJ
 10
35.892478
 20
10.618086
 30
0.0
 40
0.501
 50
200.322589
 51
159.677411
  0
CIRCLE
  8
OBJ
 10
35.892478
 20
10.618086
 30
0.0
 40
0.54
  0
CIRCLE
  8
OBJ
 10
35.892478
 20
10.618086
 30
0.0
 40
0.155
  0
LINE
  8
OBJ
  6
CONTINUOUS
 62
     7
 10
35.381279
 20
10.444086
 30
0.0
 11
35.490478
 21
10.444086
 31
0.0
  0
LINE
  8
OBJ
  6
CONTINUOUS
 62
     7
 10
35.381279
 20
10.792086
 30
0.0
 11
35.490478
 21
10.792086
 31
0.0
  0
POINT
  8
DEFPOINTS
  6
BYBLOCK
 62
     0
 10
35.892478
 20
10.618086
 30
0.0
  0
CIRCLE
  8
OBJ
 10
37.395787
 20
9.114776
 30
0.0
 40
0.2025
  0
LINE
  8
OBJ
 10
37.395787
 20
9.453776
 30
0.0
 11
37.102204
 21
9.284277
 31
0.0
  0
LINE
  8
OBJ
 10
37.689369
 20
9.284276
 30
0.0
 11
37.395787
 21
9.453776
 31
0.0
  0
CIRCLE
  8
OBJ
 10
37.395787
 20
9.114776
 30
0.0
 40
0.339
  0
CIRCLE
  8
OBJ
 10
37.395787
 20
9.114776
 30
0.0
 40
0.233
  0
CIRCLE
  8
OBJ
 10
37.395787
 20
9.114776
 30
0.0
 40
0.288028
  0
LINE
  8
OBJ
 10
39.918478
 20
10.618086
 30
0.0
 11
39.660347
 21
8.256275
 31
0.0
  0
LINE
  8
OBJ
 10
37.979078
 20
7.153786
 30
0.0
 11
38.963678
 21
7.153786
 31
0.0
  0
ARC
  8
OBJ
 10
39.549693
 20
66.436953
 30
0.0
 40
59.055
 50
268.077553
 51
269.431433
  0
ARC
  8
OBJ
 10
37.979078
 20
9.122286
 30
0.0
 40
1.9685
 50
256.111661
 51
270.0
  0
ARC
  8
OBJ
 10
37.566578
 20
7.355226
 30
0.0
 40
0.06
 50
88.077553
 51
180.0
  0
ARC
  8
OBJ
 10
37.566578
 20
7.435271
 30
0.0
 40
0.06
 50
88.074947
 51
180.0
  0
LINE
  8
OBJ
 10
38.017678
 20
6.877686
 30
0.0
 11
38.177678
 21
6.877686
 31
0.0
  0
LINE
  8
OBJ
 10
37.837678
 20
7.057686
 30
0.0
 11
37.837678
 21
7.217686
 31
0.0
  0
LINE
  8
OBJ
 10
37.927678
 20
6.877686
 30
0.0
 11
37.747678
 21
6.877686
 31
0.0
  0
LINE
  8
OBJ
 10
37.395787
 20
8.775776
 30
0.0
 11
37.689369
 21
8.945276
 31
0.0
  0
LINE
  8
OBJ
 10
37.102204
 20
8.945277
 30
0.0
 11
37.395787
 21
8.775776
 31
0.0
  0
LINE
  8
OBJ
 10
37.102204
 20
9.284277
 30
0.0
 11
37.102204
 21
8.945277
 31
0.0
  0
LINE
  8
OBJ
 10
37.530787
 20
9.069776
 30
0.0
 11
37.440787
 21
9.069776
 31
0.0
  0
LINE
  8
OBJ
 10
37.440787
 20
9.069776
 30
0.0
 11
37.440787
 21
8.979776
 31
0.0
  0
LINE
  8
OBJ
 10
37.440787
 20
8.979776
 30
0.0
 11
37.350787
 21
8.979776
 31
0.0
  0
LINE
  8
OBJ
 10
37.350787
 20
9.069776
 30
0.0
 11
37.350787
 21
8.979776
 31
0.0
  0
LINE
  8
OBJ
 10
37.350787
 20
9.069776
 30
0.0
 11
37.260787
 21
9.069776
 31
0.0
  0
LINE
  8
OBJ
 10
37.260787
 20
9.069776
 30
0.0
 11
37.260787
 21
9.159776
 31
0.0
  0
LINE
  8
OBJ
 10
37.350787
 20
9.159776
 30
0.0
 11
37.260787
 21
9.159776
 31
0.0
  0
LINE
  8
OBJ
 10
37.350787
 20
9.249776
 30
0.0
 11
37.350787
 21
9.159776
 31
0.0
  0
LINE
  8
OBJ
 10
37.350787
 20
9.249776
 30
0.0
 11
37.440787
 21
9.249776
 31
0.0
  0
LINE
  8
OBJ
 10
37.440787
 20
9.249776
 30
0.0
 11
37.440787
 21
9.159776
 31
0.0
  0
LINE
  8
OBJ
 10
37.530787
 20
9.159776
 30
0.0
 11
37.440787
 21
9.159776
 31
0.0
  0
LINE
  8
OBJ
 10
37.530787
 20
9.159776
 30
0.0
 11
37.530787
 21
9.069776
 31
0.0
  0
LINE
  8
OBJ
 10
37.689369
 20
8.945276
 30
0.0
 11
37.689369
 21
9.284276
 31
0.0
  0
LINE
  8
OBJ
 10
39.660347
 20
8.256275
 30
0.0
 11
39.540565
 21
7.474164
 31
0.0
  0
LINE
  8
OBJ
 10
39.711678
 20
8.256275
 30
0.0
 11
39.711678
 21
7.406275
 31
0.0
  0
LINE
  8
OBJ
 10
39.660347
 20
8.256275
 30
0.0
 11
39.660347
 21
7.406275
 31
0.0
  0
ARC
  8
OBJ
 10
38.847678
 20
7.097686
 30
0.0
 40
0.38
 50
0.0
 51
90.0
  0
LINE
  8
OBJ
  6
CONTINUOUS
 10
39.086105
 20
7.333759
 30
0.0
 11
39.278293
 21
7.333759
 31
0.0
  0
LINE
  8
OBJ
  6
CONTINUOUS
 10
39.086105
 20
7.204159
 30
0.0
 11
39.278293
 21
7.204159
 31
0.0
  0
LINE
  8
OBJ
  6
CONTINUOUS
 10
39.086105
 20
7.598719
 30
0.0
 11
39.278293
 21
7.598719
 31
0.0
  0
LINE
  8
OBJ
  6
CONTINUOUS
 10
39.086105
 20
7.728319
 30
0.0
 11
39.278293
 21
7.728319
 31
0.0
  0
LINE
  8
OBJ
 10
39.086105
 20
7.728319
 30
0.0
 11
39.086105
 21
7.204159
 31
0.0
  0
LINE
  8
OBJ
 10
38.963678
 20
7.740359
 30
0.0
 11
38.963678
 21
7.19212
 31
0.0
  0
LINE
  8
OBJ
 10
39.028505
 20
7.740359
 30
0.0
 11
39.028505
 21
7.19212
 31
0.0
  0
LINE
  8
OBJ
  6
CENTER2
 10
39.028505
 20
7.225039
 30
0.0
 11
39.086105
 21
7.225039
 31
0.0
  0
LINE
  8
OBJ
 10
39.028505
 20
7.19212
 30
0.0
 11
38.963678
 21
7.19212
 31
0.0
  0
LINE
  8
OBJ
 10
39.028505
 20
7.524544
 30
0.0
 11
39.086105
 21
7.582144
 31
0.0
  0
LINE
  8
OBJ
  6
CENTER2
 10
39.028505
 20
7.707439
 30
0.0
 11
39.086105
 21
7.707439
 31
0.0
  0
LINE
  8
OBJ
 10
39.028505
 20
7.740359
 30
0.0
 11
38.963678
 21
7.740359
 31
0.0
  0
ARC
  8
OBJ
 10
39.107756
 20
7.466239
 30
0.0
 40
0.215949
 50
322.158498
 51
37.841502
  0
LINE
  8
OBJ
 10
39.323705
 20
7.598719
 30
0.0
 11
39.323705
 21
7.333759
 31
0.0
  0
ARC
  8
OBJ
 10
39.461487
 20
7.486275
 30
0.0
 40
0.08
 50
270.0
 51
351.292654
  0
LINE
  8
OBJ
 10
39.323705
 20
7.406275
 30
0.0
 11
39.978478
 21
7.406275
 31
0.0
  0
LINE
  8
OBJ
 10
39.323705
 20
7.234178
 30
0.0
 11
39.295729
 21
7.21351
 31
0.0
  0
ARC
  8
OBJ
 10
39.254766
 20
7.268959
 30
0.0
 40
0.068939
 50
289.954678
 51
70.045322
  0
LINE
  8
OBJ
 10
39.323705
 20
7.333759
 30
0.0
 11
39.323705
 21
7.234178
 31
0.0
  0
ARC
  8
OBJ
 10
39.254766
 20
7.663519
 30
0.0
 40
0.068939
 50
289.954678
 51
70.045322
  0
LINE
  8
OBJ
 10
39.323705
 20
7.698301
 30
0.0
 11
39.323705
 21
7.598719
 31
0.0
  0
LINE
  8
OBJ
 10
39.323705
 20
7.698301
 30
0.0
 11
39.295729
 21
7.718969
 31
0.0
  0
LINE
  8
OBJ
 10
39.660347
 20
8.256275
 30
0.0
 11
39.978478
 21
8.256275
 31
0.0
  0
LINE
  8
OBJ
 10
34.344169
 20
12.256395
 30
0.0
 11
34.434169
 21
12.256395
 31
0.0
  0
LINE
  8
OBJ
 10
34.434169
 20
11.986395
 30
0.0
 11
34.344169
 21
11.986395
 31
0.0
  0
CIRCLE
  8
OBJ
 10
34.389169
 20
12.121395
 30
0.0
 40
0.2025
  0
LINE
  8
OBJ
 10
34.682751
 20
12.290894
 30
0.0
 11
34.389169
 21
12.460395
 31
0.0
  0
CIRCLE
  8
OBJ
 10
34.389169
 20
12.121395
 30
0.0
 40
0.288028
  0
CIRCLE
  8
OBJ
 10
34.389169
 20
12.121395
 30
0.0
 40
0.233
  0
LINE
  8
OBJ
 10
34.389169
 20
12.460395
 30
0.0
 11
34.095586
 21
12.290895
 31
0.0
  0
LINE
  8
OBJ
 10
34.254169
 20
12.166395
 30
0.0
 11
34.344169
 21
12.166395
 31
0.0
  0
LINE
  8
OBJ
 10
34.344169
 20
12.166395
 30
0.0
 11
34.344169
 21
12.256395
 31
0.0
  0
LINE
  8
OBJ
 10
34.344169
 20
11.986395
 30
0.0
 11
34.344169
 21
12.076395
 31
0.0
  0
LINE
  8
OBJ
 10
34.254169
 20
12.076395
 30
0.0
 11
34.344169
 21
12.076395
 31
0.0
  0
LINE
  8
OBJ
 10
34.254169
 20
12.076395
 30
0.0
 11
34.254169
 21
12.166395
 31
0.0
  0
LINE
  8
OBJ
 10
34.095586
 20
12.290895
 30
0.0
 11
34.095586
 21
11.951895
 31
0.0
  0
LINE
  8
OBJ
 10
34.434169
 20
12.166395
 30
0.0
 11
34.434169
 21
12.256395
 31
0.0
  0
LINE
  8
OBJ
 10
34.434169
 20
12.166395
 30
0.0
 11
34.524169
 21
12.166395
 31
0.0
  0
LINE
  8
OBJ
 10
34.524169
 20
12.166395
 30
0.0
 11
34.524169
 21
12.076395
 31
0.0
  0
LINE
  8
OBJ
 10
34.434169
 20
12.076395
 30
0.0
 11
34.524169
 21
12.076395
 31
0.0
  0
LINE
  8
OBJ
 10
34.434169
 20
11.986395
 30
0.0
 11
34.434169
 21
12.076395
 31
0.0
  0
LINE
  8
OBJ
 10
34.682751
 20
11.951894
 30
0.0
 11
34.682751
 21
12.290894
 31
0.0
  0
SOLID
  8
0
  6
BYBLOCK
 62
     0
 10
35.352478
 20
15.312962
 30
0.0
 11
35.352478
 21
15.132962
 31
0.0
 12
35.892478
 22
15.222962
 32
0.0
 13
35.892478
 23
15.222962
 33
0.0
  0
LINE
  8
OBJ
 10
37.979078
 20
14.082386
 30
0.0
 11
38.963678
 21
14.082386
 31
0.0
  0
LINE
  8
OBJ
 10
37.734787
 20
12.121394
 30
0.0
 11
37.565287
 21
12.414977
 31
0.0
  0
LINE
  8
OBJ
 10
37.565287
 20
11.827812
 30
0.0
 11
37.734787
 21
12.121394
 31
0.0
  0
CIRCLE
  8
OBJ
 10
37.395787
 20
12.121395
 30
0.0
 40
0.233
  0
CIRCLE
  8
OBJ
 10
37.395787
 20
12.121395
 30
0.0
 40
0.288028
  0
LINE
  8
OBJ
 10
37.226287
 20
12.414977
 30
0.0
 11
37.056787
 21
12.121395
 31
0.0
  0
CIRCLE
  8
OBJ
 10
37.395787
 20
12.121395
 30
0.0
 40
0.2025
  0
LINE
  8
OBJ
 10
37.226287
 20
11.827812
 30
0.0
 11
37.565287
 21
11.827812
 31
0.0
  0
LINE
  8
OBJ
 10
37.056787
 20
12.121395
 30
0.0
 11
37.226287
 21
11.827812
 31
0.0
  0
LINE
  8
OBJ
 10
37.440787
 20
12.256395
 30
0.0
 11
37.440787
 21
12.166395
 31
0.0
  0
LINE
  8
OBJ
 10
37.440787
 20
12.166395
 30
0.0
 11
37.530787
 21
12.166395
 31
0.0
  0
LINE
  8
OBJ
 10
37.530787
 20
12.166395
 30
0.0
 11
37.530787
 21
12.076395
 31
0.0
  0
LINE
  8
OBJ
 10
37.440787
 20
12.076395
 30
0.0
 11
37.530787
 21
12.076395
 31
0.0
  0
LINE
  8
OBJ
 10
37.440787
 20
12.076395
 30
0.0
 11
37.440787
 21
11.986395
 31
0.0
  0
LINE
  8
OBJ
 10
37.440787
 20
11.986395
 30
0.0
 11
37.350787
 21
11.986395
 31
0.0
  0
LINE
  8
OBJ
 10
37.350787
 20
12.076395
 30
0.0
 11
37.350787
 21
11.986395
 31
0.0
  0
LINE
  8
OBJ
 10
37.260787
 20
12.076395
 30
0.0
 11
37.350787
 21
12.076395
 31
0.0
  0
LINE
  8
OBJ
 10
37.260787
 20
12.076395
 30
0.0
 11
37.260787
 21
12.166395
 31
0.0
  0
LINE
  8
OBJ
 10
37.260787
 20
12.166395
 30
0.0
 11
37.350787
 21
12.166395
 31
0.0
  0
LINE
  8
OBJ
 10
37.350787
 20
12.256395
 30
0.0
 11
37.350787
 21
12.166395
 31
0.0
  0
LINE
  8
OBJ
 10
37.350787
 20
12.256395
 30
0.0
 11
37.440787
 21
12.256395
 31
0.0
  0
LINE
  8
OBJ
 10
37.565287
 20
12.414977
 30
0.0
 11
37.226287
 21
12.414977
 31
0.0
  0
ARC
  8
OBJ
 10
37.979078
 20
12.113886
 30
0.0
 40
1.9685
 50
90.0
 51
121.21759
  0
LINE
  8
OBJ
  6
CONTINUOUS
 10
39.086105
 20
14.045622
 30
0.0
 11
39.278293
 21
14.045622
 31
0.0
  0
LINE
  8
OBJ
  6
CONTINUOUS
 10
39.086105
 20
13.916022
 30
0.0
 11
39.278293
 21
13.916022
 31
0.0
  0
LINE
  8
OBJ
  6
CONTINUOUS
 10
39.086105
 20
13.521462
 30
0.0
 11
39.278293
 21
13.521462
 31
0.0
  0
LINE
  8
OBJ
  6
CONTINUOUS
 10
39.086105
 20
13.651062
 30
0.0
 11
39.278293
 21
13.651062
 31
0.0
  0
LINE
  8
OBJ
 10
39.028505
 20
14.057661
 30
0.0
 11
39.028505
 21
13.509422
 31
0.0
  0
LINE
  8
OBJ
 10
38.963678
 20
14.057661
 30
0.0
 11
38.963678
 21
13.509422
 31
0.0
  0
LINE
  8
OBJ
 10
39.086105
 20
14.045622
 30
0.0
 11
39.086105
 21
13.521462
 31
0.0
  0
LINE
  8
OBJ
 10
39.028505
 20
13.509422
 30
0.0
 11
38.963678
 21
13.509422
 31
0.0
  0
LINE
  8
OBJ
  6
CENTER2
 10
39.028505
 20
13.542342
 30
0.0
 11
39.086105
 21
13.542342
 31
0.0
  0
LINE
  8
OBJ
 10
39.028505
 20
14.057661
 30
0.0
 11
38.963678
 21
14.057661
 31
0.0
  0
LINE
  8
OBJ
  6
CENTER2
 10
39.028505
 20
14.024742
 30
0.0
 11
39.086105
 21
14.024742
 31
0.0
  0
LINE
  8
OBJ
 10
39.028505
 20
13.841846
 30
0.0
 11
39.086105
 21
13.899446
 31
0.0
  0
LINE
  8
OBJ
 10
39.323705
 20
13.651062
 30
0.0
 11
39.323705
 21
13.55148
 31
0.0
  0
ARC
  8
OBJ
 10
39.254766
 20
13.586262
 30
0.0
 40
0.068939
 50
289.954678
 51
70.045322
  0
LINE
  8
OBJ
 10
39.323705
 20
13.55148
 30
0.0
 11
39.295729
 21
13.530813
 31
0.0
  0
LINE
  8
OBJ
 10
39.323705
 20
14.015604
 30
0.0
 11
39.295729
 21
14.036271
 31
0.0
  0
LINE
  8
OBJ
 10
39.323705
 20
14.015604
 30
0.0
 11
39.323705
 21
13.916022
 31
0.0
  0
ARC
  8
OBJ
 10
39.254766
 20
13.980822
 30
0.0
 40
0.068939
 50
289.954678
 51
70.045322
  0
LINE
  8
OBJ
 10
39.323705
 20
13.916022
 30
0.0
 11
39.323705
 21
13.651062
 31
0.0
  0
ARC
  8
OBJ
 10
39.107756
 20
13.783542
 30
0.0
 40
0.215949
 50
322.158498
 51
37.841502
  0
LINE
  8
OBJ
 10
39.323705
 20
13.760164
 30
0.0
 11
39.528478
 21
13.760164
 31
0.0
  0
LINE
  8
OBJ
  6
CONTINUOUS
 62
     7
 10
40.028478
 20
13.260164
 30
0.0
 11
40.028478
 21
11.604086
 31
0.0
  0
LINE
  8
OBJ
  6
CONTINUOUS
 62
     7
 10
40.028478
 20
8.206275
 30
0.0
 11
40.028478
 21
7.456275
 31
0.0
  0
LINE
  8
OBJ
  6
CONTINUOUS
 10
33.119505
 20
21.255913
 30
0.0
 11
34.837148
 21
21.255913
 31
0.0
  0
LINE
  8
OBJ
  6
CONTINUOUS
 10
33.119505
 20
28.169608
 30
0.0
 11
34.837148
 21
28.169608
 31
0.0
  0
LINE
  8
OBJ
 10
38.369123
 20
29.476997
 30
0.0
 11
33.41572
 21
29.476997
 31
0.0
  0
LINE
  8
OBJ
 10
33.319505
 20
29.19236
 30
0.0
 11
38.465505
 21
29.19236
 31
0.0
  0
LINE
  8
OBJ
 10
33.319505
 20
20.23316
 30
0.0
 11
38.465505
 21
20.23316
 31
0.0
  0
LINE
  8
OBJ
 10
38.369123
 20
19.948524
 30
0.0
 11
33.41572
 21
19.948524
 31
0.0
  0
LINE
  8
OBJ
  6
CENTER
 62
     1
 10
21.033564
 20
24.71276
 30
0.0
 11
40.723169
 21
24.71276
 31
0.0
  0
LINE
  8
OBJ
  6
CENTER
 10
29.260564
 20
24.71276
 30
0.0
 11
29.260564
 21
27.294084
 31
0.0
  0
LINE
  8
OBJ
 10
25.482252
 20
27.282455
 30
0.0
 11
25.482252
 21
26.316354
 31
0.0
  0
LINE
  8
OBJ
 10
25.779774
 20
26.252354
 30
0.0
 11
25.779774
 21
27.346455
 31
0.0
  0
CIRCLE
  8
OBJ
 10
26.444529
 20
26.799404
 30
0.0
 40
0.25
  0
ARC
  8
OBJ
 10
26.444529
 20
26.799404
 30
0.0
 40
0.4
 50
90.088655
 51
270.088655
  0
LINE
  8
OBJ
  6
CENTER
 62
     1
 10
26.447791
 20
24.691269
 30
0.0
 11
26.44377
 21
27.289823
 31
0.0
  0
LINE
  8
OBJ
 10
26.017774
 20
24.71276
 30
0.0
 11
26.017774
 21
28.981968
 31
0.0
  0
LINE
  8
OBJ
 10
25.933774
 20
24.71276
 30
0.0
 11
25.933774
 21
28.39276
 31
0.0
  0
LINE
  8
OBJ
 10
24.158574
 20
27.640003
 30
0.0
 11
24.158574
 21
26.05676
 31
0.0
  0
LINE
  8
OBJ
 10
21.071774
 20
27.087656
 30
0.0
 11
21.071774
 21
26.509865
 31
0.0
  0
LINE
  8
OBJ
 10
24.012574
 20
28.340103
 30
0.0
 11
24.012574
 21
24.71276
 31
0.0
  0
LINE
  8
OBJ
 10
22.712574
 20
27.639048
 30
0.0
 11
22.712574
 21
24.71276
 31
0.0
  0
LINE
  8
OBJ
 10
22.787574
 20
27.759244
 30
0.0
 11
22.787574
 21
24.71276
 31
0.0
  0
LINE
  8
OBJ
  6
CENTER
 62
     1
 10
21.994874
 20
29.06905
 30
0.0
 11
21.994874
 21
20.356471
 31
0.0
  0
LINE
  8
OBJ
 10
21.263774
 20
28.45286
 30
0.0
 11
21.263774
 21
24.71276
 31
0.0
  0
LINE
  8
OBJ
 10
25.935768
 20
20.452282
 30
0.0
 11
27.592658
 21
20.452282
 31
0.0
  0
LINE
  8
OBJ
 10
25.127774
 20
22.09471
 30
0.0
 11
25.127774
 21
21.03276
 31
0.0
  0
LINE
  8
OBJ
 10
25.876021
 20
21.11871
 30
0.0
 11
25.876021
 21
22.03071
 31
0.0
  0
LINE
  8
OBJ
  6
CENTER
 62
     1
 10
25.262709
 20
21.890288
 30
0.0
 11
25.262709
 21
19.834039
 31
0.0
  0
LINE
  8
OBJ
 10
22.797574
 20
21.29466
 30
0.0
 11
22.797574
 21
21.85476
 31
0.0
  0
LINE
  8
OBJ
 10
22.827574
 20
21.26466
 30
0.0
 11
22.827574
 21
21.882671
 31
0.0
  0
LINE
  8
OBJ
 10
26.017774
 20
24.71276
 30
0.0
 11
26.017774
 21
20.451939
 31
0.0
  0
LINE
  8
OBJ
 10
25.933774
 20
24.71276
 30
0.0
 11
25.933774
 21
21.03276
 31
0.0
  0
LINE
  8
OBJ
 10
25.127774
 20
20.443553
 30
0.0
 11
25.127774
 21
22.09471
 31
0.0
  0
LINE
  8
OBJ
 10
24.685774
 20
21.33266
 30
0.0
 11
24.685774
 21
21.81676
 31
0.0
  0
LINE
  8
OBJ
 10
23.231574
 20
21.20066
 30
0.0
 11
23.231574
 21
21.94876
 31
0.0
  0
LINE
  8
OBJ
 10
23.347574
 20
21.11666
 30
0.0
 11
23.347574
 21
22.03276
 31
0.0
  0
ARC
  8
OBJ
 10
22.088205
 20
21.023263
 30
0.0
 40
0.986065
 50
43.995601
 51
128.58252
  0
ARC
  8
OBJ
 10
21.402022
 20
21.912843
 30
0.0
 40
0.138486
 50
183.365853
 51
300.955214
  0
LINE
  8
OBJ
 10
24.012574
 20
21.11666
 30
0.0
 11
24.012574
 21
24.71276
 31
0.0
  0
LINE
  8
OBJ
 10
22.787574
 20
21.666276
 30
0.0
 11
22.787574
 21
24.71276
 31
0.0
  0
LINE
  8
OBJ
 10
21.263774
 20
20.97266
 30
0.0
 11
21.263774
 21
24.71276
 31
0.0
  0
LINE
  8
OBJ
 10
24.012574
 20
21.33266
 30
0.0
 11
25.127774
 21
21.33266
 31
0.0
  0
LINE
  8
OBJ
 10
21.263774
 20
20.97266
 30
0.0
 11
22.787574
 21
20.97266
 31
0.0
  0
LINE
  8
OBJ
 10
23.231574
 20
21.57162
 30
0.0
 11
23.347574
 21
21.638884
 31
0.0
  0
LINE
  8
OBJ
 10
23.231574
 20
21.542472
 30
0.0
 11
23.347574
 21
21.618705
 31
0.0
  0
LINE
  8
OBJ
 10
23.231574
 20
21.20066
 30
0.0
 11
23.347574
 21
21.20066
 31
0.0
  0
LINE
  8
OBJ
 10
22.787574
 20
20.97266
 30
0.0
 11
22.787574
 21
21.666276
 31
0.0
  0
LINE
  8
OBJ
 10
22.827574
 20
21.26466
 30
0.0
 11
23.231574
 21
21.26466
 31
0.0
  0
LINE
  8
OBJ
 10
22.797574
 20
21.29466
 30
0.0
 11
22.827574
 21
21.26466
 31
0.0
  0
LINE
  8
OBJ
 10
23.347574
 20
21.11666
 30
0.0
 11
24.012574
 21
21.11666
 31
0.0
  0
LINE
  8
OBJ
 10
25.127774
 20
21.05471
 30
0.0
 11
25.729774
 21
21.05471
 31
0.0
  0
LINE
  8
OBJ
 10
24.158574
 20
20.443553
 30
0.0
 11
25.933774
 21
20.443553
 31
0.0
  0
LINE
  8
OBJ
 10
24.158574
 20
20.443553
 30
0.0
 11
24.158574
 21
21.33266
 31
0.0
  0
LINE
  8
OBJ
 10
24.537774
 20
21.29466
 30
0.0
 11
24.977774
 21
21.29466
 31
0.0
  0
LINE
  8
OBJ
 10
24.537774
 20
20.531553
 30
0.0
 11
24.977774
 21
20.531553
 31
0.0
  0
LINE
  8
OBJ
 10
24.685774
 20
21.37666
 30
0.0
 11
25.127774
 21
21.37666
 31
0.0
  0
LINE
  8
OBJ
 10
24.547774
 20
20.531553
 30
0.0
 11
24.547774
 21
21.29466
 31
0.0
  0
LINE
  8
OBJ
 10
24.537774
 20
20.531553
 30
0.0
 11
24.537774
 21
21.29466
 31
0.0
  0
LINE
  8
OBJ
 10
24.977774
 20
20.495001
 30
0.0
 11
24.977774
 21
21.33266
 31
0.0
  0
LINE
  8
OBJ
 10
24.977774
 20
20.495001
 30
0.0
 11
25.127774
 21
20.495001
 31
0.0
  0
LINE
  8
OBJ
 10
24.977774
 20
20.931066
 30
0.0
 11
25.127774
 21
21.033476
 31
0.0
  0
LINE
  8
OBJ
 10
24.977774
 20
20.88812
 30
0.0
 11
25.127774
 21
20.993833
 31
0.0
  0
LINE
  8
OBJ
 10
25.779774
 20
21.06871
 30
0.0
 11
25.779774
 21
20.443553
 31
0.0
  0
LINE
  8
OBJ
 10
25.933774
 20
21.03276
 30
0.0
 11
25.933774
 21
20.443553
 31
0.0
  0
ARC
  8
OBJ
 10
25.829774
 20
21.06871
 30
0.0
 40
0.05
 50
90.0
 51
180.0
  0
ARC
  8
OBJ
 10
25.729774
 20
21.00471
 30
0.0
 40
0.05
 50
0.0
 51
90.0
  0
LINE
  8
OBJ
 10
25.779774
 20
21.06871
 30
0.0
 11
25.779774
 21
21.05471
 31
0.0
  0
LINE
  8
OBJ
 10
25.829774
 20
21.11871
 30
0.0
 11
25.876021
 21
21.11871
 31
0.0
  0
LINE
  8
OBJ
 10
24.012574
 20
25.48876
 30
0.0
 11
25.127774
 21
25.48876
 31
0.0
  0
LINE
  8
OBJ
 10
24.012574
 20
26.05676
 30
0.0
 11
25.127774
 21
26.05676
 31
0.0
  0
LINE
  8
OBJ
 10
24.012574
 20
23.36876
 30
0.0
 11
25.127774
 21
23.36876
 31
0.0
  0
LINE
  8
OBJ
 10
24.012574
 20
23.93676
 30
0.0
 11
25.127774
 21
23.93676
 31
0.0
  0
LINE
  8
OBJ
 10
24.012574
 20
21.81676
 30
0.0
 11
25.127774
 21
21.81676
 31
0.0
  0
LINE
  8
OBJ
 10
22.712574
 20
21.786473
 30
0.0
 11
22.712574
 21
24.71276
 31
0.0
  0
ARC
  8
OBJ
 10
21.111484
 20
23.070169
 30
0.0
 40
0.155562
 50
270.0
 51
348.228154
  0
ARC
  8
OBJ
 10
21.102969
 20
22.176031
 30
0.0
 40
0.160785
 50
1.329235
 51
90.0
  0
LINE
  8
OBJ
 10
21.071774
 20
22.336816
 30
0.0
 11
21.071774
 21
22.914607
 31
0.0
  0
LINE
  8
OBJ
 10
21.102969
 20
22.336816
 30
0.0
 11
21.071774
 21
22.336816
 31
0.0
  0
LINE
  8
OBJ
 10
21.111484
 20
22.914607
 30
0.0
 11
21.071774
 21
22.914607
 31
0.0
  0
ARC
  8
OBJ
 10
23.240746
 20
21.99076
 30
0.0
 40
0.114787
 50
21.46259
 51
86.383911
  0
LINE
  8
OBJ
 10
23.231574
 20
21.94876
 30
0.0
 11
23.347574
 21
21.94876
 31
0.0
  0
LINE
  8
OBJ
 10
22.827574
 20
21.88476
 30
0.0
 11
23.231574
 21
21.88476
 31
0.0
  0
LINE
  8
OBJ
 10
22.797574
 20
21.85476
 30
0.0
 11
22.827574
 21
21.88476
 31
0.0
  0
LINE
  8
OBJ
 10
23.347574
 20
22.03276
 30
0.0
 11
24.012574
 21
22.03276
 31
0.0
  0
ARC
  8
OBJ
 10
23.268791
 20
23.19476
 30
0.0
 40
0.08928
 50
255.751638
 51
331.937621
  0
LINE
  8
OBJ
 10
23.231574
 20
23.686229
 30
0.0
 11
23.347574
 21
23.599654
 31
0.0
  0
LINE
  8
OBJ
 10
23.231574
 20
23.713569
 30
0.0
 11
23.347574
 21
23.626994
 31
0.0
  0
LINE
  8
OBJ
 10
23.231574
 20
24.06876
 30
0.0
 11
23.347574
 21
24.06876
 31
0.0
  0
LINE
  8
OBJ
 10
23.231574
 20
23.23676
 30
0.0
 11
23.347574
 21
23.23676
 31
0.0
  0
LINE
  8
OBJ
 10
22.797574
 20
23.33076
 30
0.0
 11
22.797574
 21
23.97476
 31
0.0
  0
LINE
  8
OBJ
 10
22.827574
 20
23.30076
 30
0.0
 11
22.827574
 21
24.00476
 31
0.0
  0
LINE
  8
OBJ
 10
23.231574
 20
23.23676
 30
0.0
 11
23.231574
 21
24.06876
 31
0.0
  0
LINE
  8
OBJ
 10
22.827574
 20
23.30076
 30
0.0
 11
23.231574
 21
23.30076
 31
0.0
  0
LINE
  8
OBJ
 10
22.797574
 20
23.33076
 30
0.0
 11
22.827574
 21
23.30076
 31
0.0
  0
LINE
  8
OBJ
 10
22.827574
 20
24.00476
 30
0.0
 11
23.231574
 21
24.00476
 31
0.0
  0
LINE
  8
OBJ
 10
22.797574
 20
23.97476
 30
0.0
 11
22.827574
 21
24.00476
 31
0.0
  0
LINE
  8
OBJ
 10
23.347574
 20
23.15276
 30
0.0
 11
23.347574
 21
24.15276
 31
0.0
  0
LINE
  8
OBJ
 10
23.347574
 20
23.15276
 30
0.0
 11
24.012574
 21
23.15276
 31
0.0
  0
LINE
  8
OBJ
 10
23.347574
 20
24.15276
 30
0.0
 11
24.012574
 21
24.15276
 31
0.0
  0
ARC
  8
OBJ
 10
23.263508
 20
24.11076
 30
0.0
 40
0.093974
 50
26.547057
 51
97.67381
  0
LINE
  8
OBJ
 10
21.071774
 20
24.996896
 30
0.0
 11
21.071774
 21
24.428625
 31
0.0
  0
ARC
  8
OBJ
 10
21.122042
 20
24.281663
 30
0.0
 40
0.146962
 50
15.330356
 51
90.0
  0
LINE
  8
OBJ
 10
21.122042
 20
24.428625
 30
0.0
 11
21.071774
 21
24.428625
 31
0.0
  0
ARC
  8
OBJ
 10
21.122042
 20
25.143858
 30
0.0
 40
0.146962
 50
270.0
 51
344.669644
  0
LINE
  8
OBJ
 10
21.122042
 20
24.996896
 30
0.0
 11
21.071774
 21
24.996896
 31
0.0
  0
ARC
  8
OBJ
 10
21.111484
 20
26.354303
 30
0.0
 40
0.155562
 50
11.771846
 51
90.0
  0
LINE
  8
OBJ
 10
21.111484
 20
26.509865
 30
0.0
 11
21.071774
 21
26.509865
 31
0.0
  0
LINE
  8
OBJ
 10
22.827574
 20
26.12476
 30
0.0
 11
22.827574
 21
25.42076
 31
0.0
  0
LINE
  8
OBJ
 10
23.347574
 20
26.27276
 30
0.0
 11
23.347574
 21
25.27276
 31
0.0
  0
LINE
  8
OBJ
 10
23.231574
 20
26.18876
 30
0.0
 11
23.231574
 21
25.35676
 31
0.0
  0
LINE
  8
OBJ
 10
22.797574
 20
26.09476
 30
0.0
 11
22.797574
 21
25.45076
 31
0.0
  0
LINE
  8
OBJ
 10
23.231574
 20
25.35676
 30
0.0
 11
23.347574
 21
25.35676
 31
0.0
  0
LINE
  8
OBJ
 10
22.827574
 20
25.42076
 30
0.0
 11
23.231574
 21
25.42076
 31
0.0
  0
LINE
  8
OBJ
 10
22.797574
 20
25.45076
 30
0.0
 11
22.827574
 21
25.42076
 31
0.0
  0
LINE
  8
OBJ
 10
23.347574
 20
25.27276
 30
0.0
 11
24.012574
 21
25.27276
 31
0.0
  0
ARC
  8
OBJ
 10
23.263508
 20
25.31476
 30
0.0
 40
0.093974
 50
262.32619
 51
333.452943
  0
ARC
  8
OBJ
 10
23.268791
 20
26.23076
 30
0.0
 40
0.08928
 50
28.062379
 51
104.248362
  0
LINE
  8
OBJ
 10
23.231574
 20
26.18876
 30
0.0
 11
23.347574
 21
26.18876
 31
0.0
  0
LINE
  8
OBJ
 10
23.231574
 20
25.711952
 30
0.0
 11
23.347574
 21
25.798527
 31
0.0
  0
LINE
  8
OBJ
 10
23.231574
 20
25.739291
 30
0.0
 11
23.347574
 21
25.825867
 31
0.0
  0
LINE
  8
OBJ
 10
22.827574
 20
26.12476
 30
0.0
 11
23.231574
 21
26.12476
 31
0.0
  0
LINE
  8
OBJ
 10
22.797574
 20
26.09476
 30
0.0
 11
22.827574
 21
26.12476
 31
0.0
  0
LINE
  8
OBJ
 10
23.347574
 20
26.27276
 30
0.0
 11
24.012574
 21
26.27276
 31
0.0
  0
ARC
  8
OBJ
 10
25.729774
 20
24.22971
 30
0.0
 40
0.05
 50
270.0
 51
0.0
  0
ARC
  8
OBJ
 10
25.432252
 20
24.22971
 30
0.0
 40
0.05
 50
270.0
 51
0.0
  0
LINE
  8
OBJ
 10
25.779774
 20
24.16571
 30
0.0
 11
25.779774
 21
25.23871
 31
0.0
  0
LINE
  8
OBJ
  6
CENTER
 62
     1
 10
26.447774
 20
24.71276
 30
0.0
 11
26.447774
 21
22.114204
 31
0.0
  0
LINE
  8
OBJ
 10
24.158574
 20
23.93676
 30
0.0
 11
24.158574
 21
24.71276
 31
0.0
  0
LINE
  8
OBJ
 10
25.127774
 20
23.13971
 30
0.0
 11
25.729774
 21
23.13971
 31
0.0
  0
LINE
  8
OBJ
 10
25.127774
 20
24.17971
 30
0.0
 11
25.729774
 21
24.17971
 31
0.0
  0
LINE
  8
OBJ
 10
25.127774
 20
22.09471
 30
0.0
 11
25.729774
 21
22.09471
 31
0.0
  0
LINE
  8
OBJ
 10
25.482252
 20
23.08971
 30
0.0
 11
25.482252
 21
22.14471
 31
0.0
  0
LINE
  8
OBJ
 10
24.158574
 20
21.81676
 30
0.0
 11
24.158574
 21
23.36876
 31
0.0
  0
LINE
  8
OBJ
 10
24.685774
 20
21.77276
 30
0.0
 11
25.127774
 21
21.77276
 31
0.0
  0
ARC
  8
OBJ
 10
25.432252
 20
22.14471
 30
0.0
 40
0.05
 50
270.0
 51
0.0
  0
LINE
  8
OBJ
 10
24.685774
 20
23.41276
 30
0.0
 11
25.127774
 21
23.41276
 31
0.0
  0
LINE
  8
OBJ
 10
24.685774
 20
23.89276
 30
0.0
 11
25.127774
 21
23.89276
 31
0.0
  0
LINE
  8
OBJ
 10
24.685774
 20
23.36876
 30
0.0
 11
24.685774
 21
23.93676
 31
0.0
  0
LINE
  8
OBJ
 10
25.127774
 20
23.13971
 30
0.0
 11
25.127774
 21
24.17971
 31
0.0
  0
LINE
  8
OBJ
 10
25.127774
 20
24.17971
 30
0.0
 11
25.127774
 21
23.13971
 31
0.0
  0
ARC
  8
OBJ
 10
25.432252
 20
23.08971
 30
0.0
 40
0.05
 50
0.0
 51
90.0
  0
LINE
  8
OBJ
 10
25.779774
 20
23.15371
 30
0.0
 11
25.779774
 21
22.08071
 31
0.0
  0
ARC
  8
OBJ
 10
26.447774
 20
22.62676
 30
0.0
 40
0.4
 50
90.0
 51
270.0
  0
CIRCLE
  8
OBJ
 10
26.447774
 20
22.62676
 30
0.0
 40
0.25
  0
ARC
  8
OBJ
 10
25.729774
 20
22.14471
 30
0.0
 40
0.05
 50
270.0
 51
0.0
  0
ARC
  8
OBJ
 10
25.829774
 20
22.08071
 30
0.0
 40
0.05
 50
180.0
 51
270.0
  0
LINE
  8
OBJ
 10
25.829774
 20
22.03071
 30
0.0
 11
25.876021
 21
22.03071
 31
0.0
  0
LINE
  8
OBJ
 10
25.779774
 20
22.09471
 30
0.0
 11
25.779774
 21
22.08071
 31
0.0
  0
LINE
  8
OBJ
 10
26.447774
 20
22.22676
 30
0.0
 11
26.773666
 21
22.22002
 31
0.0
  0
LINE
  8
OBJ
 10
25.876021
 20
24.11571
 30
0.0
 11
25.876021
 21
23.20371
 31
0.0
  0
ARC
  8
OBJ
 10
25.729774
 20
23.08971
 30
0.0
 40
0.05
 50
0.0
 51
90.0
  0
LINE
  8
OBJ
 10
25.779774
 20
23.15371
 30
0.0
 11
25.779774
 21
23.13971
 31
0.0
  0
ARC
  8
OBJ
 10
25.829774
 20
23.15371
 30
0.0
 40
0.05
 50
90.0
 51
180.0
  0
LINE
  8
OBJ
 10
25.829774
 20
23.20371
 30
0.0
 11
25.876021
 21
23.20371
 31
0.0
  0
LINE
  8
OBJ
 10
25.779774
 20
24.17971
 30
0.0
 11
25.779774
 21
24.16571
 31
0.0
  0
ARC
  8
OBJ
 10
25.829774
 20
24.16571
 30
0.0
 40
0.05
 50
180.0
 51
270.0
  0
LINE
  8
OBJ
 10
25.829774
 20
24.11571
 30
0.0
 11
25.876021
 21
24.11571
 31
0.0
  0
LINE
  8
OBJ
 10
26.447774
 20
23.02676
 30
0.0
 11
26.773666
 21
23.030012
 31
0.0
  0
LINE
  8
OBJ
 10
25.127774
 20
25.22471
 30
0.0
 11
25.729774
 21
25.22471
 31
0.0
  0
LINE
  8
OBJ
 10
25.127774
 20
26.266354
 30
0.0
 11
25.729774
 21
26.266354
 31
0.0
  0
LINE
  8
OBJ
 10
25.127774
 20
26.266354
 30
0.0
 11
25.127774
 21
25.22471
 31
0.0
  0
LINE
  8
OBJ
 10
24.158574
 20
25.48876
 30
0.0
 11
24.158574
 21
24.71276
 31
0.0
  0
LINE
  8
OBJ
 10
25.127774
 20
25.22471
 30
0.0
 11
25.127774
 21
26.266354
 31
0.0
  0
LINE
  8
OBJ
 10
25.482252
 20
25.17471
 30
0.0
 11
25.482252
 21
24.22971
 31
0.0
  0
ARC
  8
OBJ
 10
25.432252
 20
25.17471
 30
0.0
 40
0.05
 50
0.0
 51
90.0
  0
LINE
  8
OBJ
 10
24.685774
 20
25.53276
 30
0.0
 11
25.127774
 21
25.53276
 31
0.0
  0
LINE
  8
OBJ
 10
24.685774
 20
26.01276
 30
0.0
 11
25.127774
 21
26.01276
 31
0.0
  0
LINE
  8
OBJ
 10
24.685774
 20
26.05676
 30
0.0
 11
24.685774
 21
25.48876
 31
0.0
  0
ARC
  8
OBJ
 10
25.432252
 20
26.316354
 30
0.0
 40
0.05
 50
270.0
 51
360.0
  0
LINE
  8
OBJ
 10
25.876021
 20
25.28871
 30
0.0
 11
25.876021
 21
26.202354
 31
0.0
  0
ARC
  8
OBJ
 10
26.447791
 20
24.691269
 30
0.0
 40
0.25
 50
0.088655
 51
180.088655
  0
ARC
  8
OBJ
 10
26.447791
 20
24.691269
 30
0.0
 40
0.4
 50
90.088655
 51
180.088655
  0
ARC
  8
OBJ
 10
26.447774
 20
24.71276
 30
0.0
 40
0.4
 50
180.0
 51
270.0
  0
ARC
  8
OBJ
 10
26.447774
 20
24.71276
 30
0.0
 40
0.25
 50
180.0
 51
0.0
  0
ARC
  8
OBJ
 10
25.729774
 20
25.17471
 30
0.0
 40
0.05
 50
0.0
 51
90.0
  0
LINE
  8
OBJ
 10
25.779774
 20
25.23871
 30
0.0
 11
25.779774
 21
25.22471
 31
0.0
  0
ARC
  8
OBJ
 10
25.829774
 20
25.23871
 30
0.0
 40
0.05
 50
90.0
 51
180.0
  0
LINE
  8
OBJ
 10
25.829774
 20
25.28871
 30
0.0
 11
25.876021
 21
25.28871
 31
0.0
  0
LINE
  8
OBJ
 10
26.447774
 20
24.31276
 30
0.0
 11
26.773666
 21
24.31309
 31
0.0
  0
LINE
  8
OBJ
 10
26.447172
 20
25.091269
 30
0.0
 11
26.773063
 21
25.091444
 31
0.0
  0
ARC
  8
OBJ
 10
25.729774
 20
26.316354
 30
0.0
 40
0.05
 50
270.0
 51
0.0
  0
LINE
  8
OBJ
 10
25.779774
 20
26.266354
 30
0.0
 11
25.779774
 21
26.252354
 31
0.0
  0
ARC
  8
OBJ
 10
25.829774
 20
26.252354
 30
0.0
 40
0.05
 50
180.0
 51
270.0
  0
LINE
  8
OBJ
 10
25.829774
 20
26.202354
 30
0.0
 11
25.876021
 21
26.202354
 31
0.0
  0
LINE
  8
OBJ
 10
26.445148
 20
26.399405
 30
0.0
 11
26.771044
 21
26.396658
 31
0.0
  0
LINE
  8
OBJ
  6
CONTINUOUS
 10
28.455634
 20
21.120913
 30
0.0
 11
33.308648
 21
21.120913
 31
0.0
  0
LINE
  8
OBJ
  6
CONTINUOUS
 10
29.051629
 20
21.255913
 30
0.0
 11
33.119505
 21
21.255913
 31
0.0
  0
ARC
  8
OBJ
 10
28.99882
 20
20.105962
 30
0.0
 40
1.151163
 50
87.370673
 51
127.988769
  0
ARC
  8
OBJ
 10
27.58003
 20
20.952274
 30
0.0
 40
0.5
 50
269.671764
 51
325.605133
  0
ARC
  8
OBJ
 10
29.642941
 20
19.540041
 30
0.0
 40
2.0
 50
132.557885
 51
145.605133
  0
LINE
  8
OBJ
 10
33.319505
 20
21.055913
 30
0.0
 11
33.319505
 21
20.23316
 31
0.0
  0
LINE
  8
OBJ
 10
33.41572
 20
19.948524
 30
0.0
 11
33.319505
 21
20.23316
 31
0.0
  0
ARC
  8
OBJ
 10
33.119505
 20
21.055913
 30
0.0
 40
0.2
 50
360.0
 51
90.0
  0
LINE
  8
OBJ
 10
29.812564
 20
23.756668
 30
0.0
 11
30.364564
 21
24.71276
 31
0.0
  0
LINE
  8
OBJ
 10
28.156564
 20
24.71276
 30
0.0
 11
28.708564
 21
23.756668
 31
0.0
  0
CIRCLE
  8
OBJ
 10
29.260564
 20
24.71276
 30
0.0
 40
0.78
  0
CIRCLE
  8
OBJ
 10
29.260564
 20
24.71276
 30
0.0
 40
0.90081
  0
LINE
  8
OBJ
  6
CENTER
 10
29.260564
 20
24.71276
 30
0.0
 11
29.260564
 21
22.131437
 31
0.0
  0
LINE
  8
OBJ
 10
28.708564
 20
23.756668
 30
0.0
 11
29.812564
 21
23.756668
 31
0.0
  0
LINE
  8
OBJ
 10
29.812564
 20
25.668852
 30
0.0
 11
28.708564
 21
25.668852
 31
0.0
  0
LINE
  8
OBJ
 10
28.708564
 20
25.668852
 30
0.0
 11
28.156564
 21
24.71276
 31
0.0
  0
LINE
  8
OBJ
 10
30.364564
 20
24.71276
 30
0.0
 11
29.812564
 21
25.668852
 31
0.0
  0
CIRCLE
  8
OBJ
 10
29.260564
 20
24.71276
 30
0.0
 40
0.055
  0
LINE
  8
OBJ
 10
25.935768
 20
28.973239
 30
0.0
 11
27.592658
 21
28.973239
 31
0.0
  0
LINE
  8
OBJ
 10
24.012574
 20
28.124103
 30
0.0
 11
25.127774
 21
28.124103
 31
0.0
  0
LINE
  8
OBJ
 10
24.012574
 20
27.640003
 30
0.0
 11
25.127774
 21
27.640003
 31
0.0
  0
ARC
  8
OBJ
 10
22.088205
 20
28.402258
 30
0.0
 40
0.986065
 50
231.41748
 51
316.004399
  0
LINE
  8
OBJ
 10
21.263774
 20
28.45286
 30
0.0
 11
22.787574
 21
28.45286
 31
0.0
  0
ARC
  8
OBJ
 10
21.102969
 20
27.248441
 30
0.0
 40
0.160785
 50
270.0
 51
358.670765
  0
LINE
  8
OBJ
 10
21.102969
 20
27.087656
 30
0.0
 11
21.071774
 21
27.087656
 31
0.0
  0
ARC
  8
OBJ
 10
21.402022
 20
27.512678
 30
0.0
 40
0.138486
 50
59.044786
 51
176.634147
  0
LINE
  8
OBJ
 10
22.787574
 20
28.45286
 30
0.0
 11
22.787574
 21
27.759244
 31
0.0
  0
LINE
  8
OBJ
 10
22.827574
 20
28.193099
 30
0.0
 11
22.827574
 21
27.575088
 31
0.0
  0
LINE
  8
OBJ
 10
23.231574
 20
28.257099
 30
0.0
 11
23.231574
 21
27.508999
 31
0.0
  0
LINE
  8
OBJ
 10
23.347574
 20
28.340103
 30
0.0
 11
23.347574
 21
27.424003
 31
0.0
  0
LINE
  8
OBJ
 10
22.797574
 20
28.163099
 30
0.0
 11
22.797574
 21
27.602999
 31
0.0
  0
ARC
  8
OBJ
 10
23.240746
 20
27.466003
 30
0.0
 40
0.114787
 50
273.616089
 51
338.53741
  0
LINE
  8
OBJ
 10
23.231574
 20
27.508999
 30
0.0
 11
23.347574
 21
27.508999
 31
0.0
  0
LINE
  8
OBJ
 10
23.231574
 20
27.915287
 30
0.0
 11
23.347574
 21
27.839055
 31
0.0
  0
LINE
  8
OBJ
 10
23.231574
 20
27.886139
 30
0.0
 11
23.347574
 21
27.818875
 31
0.0
  0
LINE
  8
OBJ
 10
22.827574
 20
27.572999
 30
0.0
 11
23.231574
 21
27.572999
 31
0.0
  0
LINE
  8
OBJ
 10
22.797574
 20
27.602999
 30
0.0
 11
22.827574
 21
27.572999
 31
0.0
  0
LINE
  8
OBJ
 10
23.347574
 20
27.424003
 30
0.0
 11
24.012574
 21
27.424003
 31
0.0
  0
LINE
  8
OBJ
 10
23.231574
 20
28.257099
 30
0.0
 11
23.347574
 21
28.257099
 31
0.0
  0
LINE
  8
OBJ
 10
22.827574
 20
28.193099
 30
0.0
 11
23.231574
 21
28.193099
 31
0.0
  0
LINE
  8
OBJ
 10
22.797574
 20
28.163099
 30
0.0
 11
22.827574
 21
28.193099
 31
0.0
  0
LINE
  8
OBJ
 10
23.347574
 20
28.340103
 30
0.0
 11
24.012574
 21
28.340103
 31
0.0
  0
LINE
  8
OBJ
  6
CENTER
 62
     1
 10
25.262709
 20
27.535233
 30
0.0
 11
25.262709
 21
29.591482
 31
0.0
  0
LINE
  8
OBJ
 10
25.127774
 20
27.332455
 30
0.0
 11
25.729774
 21
27.332455
 31
0.0
  0
LINE
  8
OBJ
 10
25.127774
 20
28.370811
 30
0.0
 11
25.729774
 21
28.370811
 31
0.0
  0
LINE
  8
OBJ
 10
24.158574
 20
28.981968
 30
0.0
 11
25.933774
 21
28.981968
 31
0.0
  0
LINE
  8
OBJ
 10
24.685774
 20
28.124103
 30
0.0
 11
24.685774
 21
27.640003
 31
0.0
  0
LINE
  8
OBJ
 10
25.127774
 20
28.981968
 30
0.0
 11
25.127774
 21
27.332455
 31
0.0
  0
LINE
  8
OBJ
 10
24.685774
 20
27.684003
 30
0.0
 11
25.127774
 21
27.684003
 31
0.0
  0
ARC
  8
OBJ
 10
25.432252
 20
27.282455
 30
0.0
 40
0.05
 50
0.0
 51
90.0
  0
LINE
  8
OBJ
 10
24.685774
 20
28.080103
 30
0.0
 11
25.127774
 21
28.080103
 31
0.0
  0
LINE
  8
OBJ
 10
24.537774
 20
28.130861
 30
0.0
 11
24.977774
 21
28.130861
 31
0.0
  0
LINE
  8
OBJ
 10
24.537774
 20
28.893968
 30
0.0
 11
24.977774
 21
28.893968
 31
0.0
  0
LINE
  8
OBJ
 10
24.158574
 20
28.981968
 30
0.0
 11
24.158574
 21
28.124103
 31
0.0
  0
LINE
  8
OBJ
 10
24.537774
 20
28.893968
 30
0.0
 11
24.537774
 21
28.130861
 31
0.0
  0
LINE
  8
OBJ
 10
24.547774
 20
28.893968
 30
0.0
 11
24.547774
 21
28.130861
 31
0.0
  0
LINE
  8
OBJ
 10
24.977774
 20
28.93052
 30
0.0
 11
24.977774
 21
28.124103
 31
0.0
  0
LINE
  8
OBJ
 10
24.977774
 20
28.5374
 30
0.0
 11
25.127774
 21
28.431687
 31
0.0
  0
LINE
  8
OBJ
 10
24.977774
 20
28.494454
 30
0.0
 11
25.127774
 21
28.392045
 31
0.0
  0
LINE
  8
OBJ
 10
24.977774
 20
28.93052
 30
0.0
 11
25.127774
 21
28.93052
 31
0.0
  0
LINE
  8
OBJ
 10
25.876021
 20
28.306811
 30
0.0
 11
25.876021
 21
27.394811
 31
0.0
  0
ARC
  8
OBJ
 10
25.729774
 20
27.282455
 30
0.0
 40
0.05
 50
0.0
 51
90.0
  0
LINE
  8
OBJ
 10
25.779774
 20
27.332455
 30
0.0
 11
25.779774
 21
27.346455
 31
0.0
  0
ARC
  8
OBJ
 10
25.829774
 20
27.346455
 30
0.0
 40
0.05
 50
90.0
 51
180.0
  0
LINE
  8
OBJ
 10
25.829774
 20
27.396455
 30
0.0
 11
25.876021
 21
27.396455
 31
0.0
  0
LINE
  8
OBJ
 10
26.44391
 20
27.199404
 30
0.0
 11
26.769791
 21
27.206648
 31
0.0
  0
LINE
  8
OBJ
 10
25.779774
 20
28.356811
 30
0.0
 11
25.779774
 21
28.981968
 31
0.0
  0
LINE
  8
OBJ
 10
25.933774
 20
28.39276
 30
0.0
 11
25.933774
 21
28.981968
 31
0.0
  0
ARC
  8
OBJ
 10
25.729774
 20
28.420811
 30
0.0
 40
0.05
 50
270.0
 51
0.0
  0
LINE
  8
OBJ
 10
25.779774
 20
28.356811
 30
0.0
 11
25.779774
 21
28.370811
 31
0.0
  0
ARC
  8
OBJ
 10
25.829774
 20
28.356811
 30
0.0
 40
0.05
 50
180.0
 51
270.0
  0
LINE
  8
OBJ
 10
25.829774
 20
28.306811
 30
0.0
 11
25.876021
 21
28.306811
 31
0.0
  0
LINE
  8
OBJ
  6
CONTINUOUS
 10
29.051629
 20
28.169608
 30
0.0
 11
33.119505
 21
28.169608
 31
0.0
  0
LINE
  8
OBJ
  6
CONTINUOUS
 10
28.455634
 20
28.304608
 30
0.0
 11
33.308648
 21
28.304608
 31
0.0
  0
ARC
  8
OBJ
 10
28.99882
 20
29.319559
 30
0.0
 40
1.151163
 50
232.011231
 51
272.629327
  0
ARC
  8
OBJ
 10
29.642941
 20
29.88548
 30
0.0
 40
2.0
 50
214.394867
 51
227.442115
  0
ARC
  8
OBJ
 10
27.58003
 20
28.473247
 30
0.0
 40
0.5
 50
34.394867
 51
90.328236
  0
LINE
  8
OBJ
 10
33.41572
 20
29.476997
 30
0.0
 11
33.319505
 21
29.19236
 31
0.0
  0
LINE
  8
OBJ
 10
33.319505
 20
28.369608
 30
0.0
 11
33.319505
 21
29.19236
 31
0.0
  0
ARC
  8
OBJ
 10
33.119505
 20
28.369608
 30
0.0
 40
0.2
 50
270.0
 51
0.0
  0
LINE
  8
OBJ
  6
CONTINUOUS
 10
38.900505
 20
29.07036
 30
0.0
 11
38.900505
 21
24.71276
 31
0.0
  0
LINE
  8
OBJ
  6
CONTINUOUS
 10
38.498505
 20
29.12036
 30
0.0
 11
38.498505
 21
24.71276
 31
0.0
  0
LINE
  8
OBJ
 10
39.97088
 20
28.234308
 30
0.0
 11
39.994953
 21
26.643434
 31
0.0
  0
LINE
  8
OBJ
  6
CENTER
 62
     1
 10
35.880168
 20
32.682344
 30
0.0
 11
35.892511
 21
24.705286
 31
0.0
  0
ARC
  8
OBJ
 10
39.619996
 20
22.78776
 30
0.0
 40
0.375
 50
359.133054
 51
90.0
  0
ARC
  8
OBJ
 10
39.619996
 20
26.63776
 30
0.0
 40
0.375
 50
270.0
 51
0.866946
  0
LINE
  8
OBJ
 10
39.991536
 20
26.586936
 30
0.0
 11
40.080506
 21
24.711766
 31
0.0
  0
ARC
  8
OBJ
 10
39.530362
 20
24.710915
 30
0.0
 40
0.543
 50
0.088655
 51
68.005219
  0
ARC
  8
OBJ
 10
39.530361
 20
24.71276
 30
0.0
 40
0.543
 50
292.083436
 51
0.0
  0
LINE
  8
OBJ
 10
40.000505
 20
22.969671
 30
0.0
 11
40.080505
 21
24.71276
 31
0.0
  0
LINE
  8
OBJ
 10
39.976352
 20
21.191703
 30
0.0
 11
40.000505
 21
22.969671
 31
0.0
  0
LINE
  8
OBJ
  6
CONTINUOUS
 10
38.900505
 20
20.35516
 30
0.0
 11
38.900505
 21
24.71276
 31
0.0
  0
LINE
  8
OBJ
  6
CONTINUOUS
 10
38.498505
 20
20.30516
 30
0.0
 11
38.498505
 21
24.71276
 31
0.0
  0
LINE
  8
OBJ
 10
34.68233
 20
19.645848
 30
0.0
 11
37.102183
 21
19.645848
 31
0.0
  0
LINE
  8
OBJ
 10
38.498505
 20
20.30516
 30
0.0
 11
35.892505
 21
20.62716
 31
0.0
  0
LINE
  8
OBJ
  6
CONTINUOUS
 10
35.307434
 20
17.247848
 30
0.0
 11
35.307434
 21
19.543848
 31
0.0
  0
LINE
  8
OBJ
  6
CONTINUOUS
 10
36.488536
 20
17.247848
 30
0.0
 11
36.488536
 21
19.543848
 31
0.0
  0
LINE
  8
OBJ
 10
36.488536
 20
17.247848
 30
0.0
 11
35.307434
 21
17.247848
 31
0.0
  0
LINE
  8
OBJ
 10
35.388716
 20
17.182425
 30
0.0
 11
36.406501
 21
17.181891
 31
0.0
  0
LINE
  8
OBJ
 10
35.389434
 20
17.181848
 30
0.0
 11
35.307434
 21
17.247848
 31
0.0
  0
LINE
  8
OBJ
 10
36.406501
 20
17.181891
 30
0.0
 11
36.488536
 21
17.247848
 31
0.0
  0
LINE
  8
OBJ
 10
36.682985
 20
19.543848
 30
0.0
 11
35.112985
 21
19.543848
 31
0.0
  0
LINE
  8
OBJ
 10
36.758985
 20
19.589848
 30
0.0
 11
35.036985
 21
19.589848
 31
0.0
  0
LINE
  8
OBJ
 10
35.026985
 20
19.645848
 30
0.0
 11
36.768985
 21
19.645848
 31
0.0
  0
LINE
  8
OBJ
 10
34.13561
 20
19.896196
 30
0.0
 11
34.70675
 21
19.896196
 31
0.0
  0
LINE
  8
OBJ
 10
34.1591
 20
19.838596
 30
0.0
 11
34.68326
 21
19.838596
 31
0.0
  0
ARC
  8
OBJ
 10
34.42118
 20
19.816945
 30
0.0
 40
0.215949
 50
232.158498
 51
307.841502
  0
LINE
  8
OBJ
 10
34.2887
 20
19.600996
 30
0.0
 11
34.55366
 21
19.600996
 31
0.0
  0
LINE
  8
OBJ
  6
CENTER2
 10
34.17998
 20
19.896196
 30
0.0
 11
34.17998
 21
19.838596
 31
0.0
  0
LINE
  8
OBJ
 10
34.362876
 20
19.896196
 30
0.0
 11
34.305276
 21
19.838596
 31
0.0
  0
LINE
  8
OBJ
  6
CENTER
 10
34.42118
 20
19.412486
 30
0.0
 11
34.42118
 21
20.050132
 31
0.0
  0
LINE
  8
OBJ
  6
CONTINUOUS
 10
34.2887
 20
19.838596
 30
0.0
 11
34.2887
 21
19.646408
 31
0.0
  0
LINE
  8
OBJ
  6
CONTINUOUS
 10
34.1591
 20
19.838596
 30
0.0
 11
34.1591
 21
19.646408
 31
0.0
  0
ARC
  8
OBJ
 10
34.2239
 20
19.669935
 30
0.0
 40
0.068939
 50
199.954678
 51
340.045322
  0
LINE
  8
OBJ
 10
34.189118
 20
19.600996
 30
0.0
 11
34.2887
 21
19.600996
 31
0.0
  0
LINE
  8
OBJ
 10
34.189118
 20
19.600996
 30
0.0
 11
34.168451
 21
19.628972
 31
0.0
  0
LINE
  8
OBJ
 10
34.13561
 20
19.948524
 30
0.0
 11
34.13561
 21
19.896196
 31
0.0
  0
LINE
  8
OBJ
  6
CENTER2
 10
34.66238
 20
19.896196
 30
0.0
 11
34.66238
 21
19.838596
 31
0.0
  0
LINE
  8
OBJ
  6
CONTINUOUS
 10
34.68326
 20
19.838596
 30
0.0
 11
34.68326
 21
19.646408
 31
0.0
  0
LINE
  8
OBJ
  6
CONTINUOUS
 10
34.55366
 20
19.838596
 30
0.0
 11
34.55366
 21
19.646408
 31
0.0
  0
ARC
  8
OBJ
 10
34.61846
 20
19.669935
 30
0.0
 40
0.068939
 50
199.954678
 51
340.045322
  0
LINE
  8
OBJ
 10
34.55366
 20
19.600996
 30
0.0
 11
34.653242
 21
19.600996
 31
0.0
  0
LINE
  8
OBJ
 10
34.653242
 20
19.600996
 30
0.0
 11
34.673909
 21
19.628972
 31
0.0
  0
ARC
  8
OBJ
 10
35.092985
 20
19.579848
 30
0.0
 40
0.01
 50
0.0
 51
90.0
  0
LINE
  8
OBJ
 10
35.102985
 20
19.579848
 30
0.0
 11
35.102985
 21
19.553848
 31
0.0
  0
ARC
  8
OBJ
 10
35.036985
 20
19.599848
 30
0.0
 40
0.01
 50
180.0
 51
270.0
  0
LINE
  8
OBJ
 10
35.026985
 20
19.645848
 30
0.0
 11
35.026985
 21
19.599848
 31
0.0
  0
ARC
  8
OBJ
 10
35.112985
 20
19.553848
 30
0.0
 40
0.01
 50
180.0
 51
270.0
  0
LINE
  8
OBJ
 10
34.70675
 20
19.948524
 30
0.0
 11
34.70675
 21
19.896196
 31
0.0
  0
ARC
  8
OBJ
 10
34.837148
 20
21.055913
 30
0.0
 40
0.2
 50
360.0
 51
90.0
  0
LINE
  8
OBJ
 10
36.768985
 20
19.645848
 30
0.0
 11
36.768985
 21
19.599848
 31
0.0
  0
ARC
  8
OBJ
 10
36.758985
 20
19.599848
 30
0.0
 40
0.01
 50
270.0
 51
0.0
  0
LINE
  8
OBJ
 10
36.692985
 20
19.579848
 30
0.0
 11
36.692985
 21
19.553848
 31
0.0
  0
ARC
  8
OBJ
 10
36.702985
 20
19.579848
 30
0.0
 40
0.01
 50
90.0
 51
180.0
  0
ARC
  8
OBJ
 10
36.682985
 20
19.553848
 30
0.0
 40
0.01
 50
270.0
 51
360.0
  0
LINE
  8
OBJ
 10
38.369123
 20
19.948524
 30
0.0
 11
38.465505
 21
20.23316
 31
0.0
  0
LINE
  8
OBJ
 10
37.6494
 20
19.896196
 30
0.0
 11
37.07826
 21
19.896196
 31
0.0
  0
LINE
  8
OBJ
 10
37.422134
 20
19.896196
 30
0.0
 11
37.479734
 21
19.838596
 31
0.0
  0
LINE
  8
OBJ
  6
CENTER2
 10
37.60503
 20
19.896196
 30
0.0
 11
37.60503
 21
19.838596
 31
0.0
  0
LINE
  8
OBJ
  6
CENTER2
 10
37.12263
 20
19.896196
 30
0.0
 11
37.12263
 21
19.838596
 31
0.0
  0
LINE
  8
OBJ
  6
CENTER
 10
37.36383
 20
19.412486
 30
0.0
 11
37.36383
 21
20.050132
 31
0.0
  0
LINE
  8
OBJ
 10
37.62591
 20
19.838596
 30
0.0
 11
37.10175
 21
19.838596
 31
0.0
  0
ARC
  8
OBJ
 10
37.16655
 20
19.669935
 30
0.0
 40
0.068939
 50
199.954678
 51
340.045322
  0
LINE
  8
OBJ
 10
37.23135
 20
19.600996
 30
0.0
 11
37.131768
 21
19.600996
 31
0.0
  0
LINE
  8
OBJ
 10
37.131768
 20
19.600996
 30
0.0
 11
37.111101
 21
19.628972
 31
0.0
  0
LINE
  8
OBJ
  6
CONTINUOUS
 10
37.10175
 20
19.838596
 30
0.0
 11
37.10175
 21
19.646408
 31
0.0
  0
ARC
  8
OBJ
 10
37.36383
 20
19.816945
 30
0.0
 40
0.215949
 50
232.158498
 51
307.841502
  0
LINE
  8
OBJ
 10
37.49631
 20
19.600996
 30
0.0
 11
37.23135
 21
19.600996
 31
0.0
  0
LINE
  8
OBJ
  6
CONTINUOUS
 10
37.23135
 20
19.838596
 30
0.0
 11
37.23135
 21
19.646408
 31
0.0
  0
ARC
  8
OBJ
 10
37.56111
 20
19.669935
 30
0.0
 40
0.068939
 50
199.954678
 51
340.045322
  0
LINE
  8
OBJ
 10
37.595892
 20
19.600996
 30
0.0
 11
37.49631
 21
19.600996
 31
0.0
  0
LINE
  8
OBJ
 10
37.595892
 20
19.600996
 30
0.0
 11
37.616559
 21
19.628972
 31
0.0
  0
LINE
  8
OBJ
  6
CONTINUOUS
 10
37.49631
 20
19.838596
 30
0.0
 11
37.49631
 21
19.646408
 31
0.0
  0
LINE
  8
OBJ
  6
CONTINUOUS
 10
37.62591
 20
19.838596
 30
0.0
 11
37.62591
 21
19.646408
 31
0.0
  0
LINE
  8
OBJ
 10
37.07826
 20
19.948524
 30
0.0
 11
37.07826
 21
19.896196
 31
0.0
  0
LINE
  8
OBJ
 10
37.6494
 20
19.948524
 30
0.0
 11
37.6494
 21
19.896196
 31
0.0
  0
ARC
  8
OBJ
 10
39.080505
 20
21.532028
 30
0.0
 40
1.0
 50
276.478716
 51
322.596635
  0
LINE
  8
OBJ
 10
38.498505
 20
20.30516
 30
0.0
 11
38.850505
 21
20.30516
 31
0.0
  0
ARC
  8
OBJ
 10
38.475505
 20
20.29516
 30
0.0
 40
0.01
 50
90.0
 51
180.0
  0
LINE
  8
OBJ
  6
CONTINUOUS
 10
38.475505
 20
20.30516
 30
0.0
 11
38.498505
 21
20.30516
 31
0.0
  0
LINE
  8
OBJ
 10
38.465505
 20
20.29516
 30
0.0
 11
38.465505
 21
20.23316
 31
0.0
  0
ARC
  8
OBJ
 10
38.850505
 20
20.35516
 30
0.0
 40
0.05
 50
270.0
 51
0.0
  0
LINE
  8
OBJ
 10
38.900505
 20
20.50516
 30
0.0
 11
39.193339
 21
20.538414
 31
0.0
  0
ARC
  8
OBJ
 10
39.477695
 20
21.228317
 30
0.0
 40
0.5
 50
322.596635
 51
355.800561
  0
ARC
  8
OBJ
  6
CENTER
 10
35.598628
 20
25.226492
 30
0.0
 40
1.4965
 50
34.7321
 51
59.180363
  0
ARC
  8
OBJ
  6
CENTER
 10
35.599429
 20
24.1911
 30
0.0
 40
1.4965
 50
300.908293
 51
325.356555
  0
LINE
  8
OBJ
  6
CENTER
 62
     1
 10
36.686642
 20
26.26276
 30
0.0
 11
39.848505
 21
26.26276
 31
0.0
  0
LINE
  8
OBJ
  6
CENTER
 62
     1
 10
36.686642
 20
23.16276
 30
0.0
 11
39.848505
 21
23.16276
 31
0.0
  0
ARC
  8
OBJ
  6
CENTER
 10
37.496891
 20
24.715893
 30
0.0
 40
2.89733
 50
180.061953
 51
194.873513
  0
ARC
  8
OBJ
  6
CENTER
 10
36.220149
 20
24.183484
 30
0.0
 40
1.4965
 50
213.237349
 51
237.685612
  0
ARC
  8
OBJ
  6
CENTER
 10
36.716204
 20
24.508555
 30
0.0
 40
2.089579
 50
194.873513
 51
213.237349
  0
ARC
  8
OBJ
  6
CENTER
 10
35.903602
 20
23.683033
 30
0.0
 40
0.904341
 50
269.296952
 51
300.908293
  0
ARC
  8
OBJ
  6
CENTER
 10
35.903602
 20
23.683033
 30
0.0
 40
0.904341
 50
237.685612
 51
269.296952
  0
ARC
  8
OBJ
  6
CENTER
 10
36.219336
 20
25.235069
 30
0.0
 40
1.4965
 50
122.403043
 51
146.851306
  0
ARC
  8
OBJ
  6
CENTER
 10
36.715893
 20
24.910766
 30
0.0
 40
2.089579
 50
146.851306
 51
165.215142
  0
ARC
  8
OBJ
  6
CENTER
 10
37.4969
 20
24.704635
 30
0.0
 40
2.89733
 50
165.215142
 51
180.026702
  0
ARC
  8
OBJ
  6
CENTER
 10
35.902014
 20
25.735029
 30
0.0
 40
0.904341
 50
59.180363
 51
90.791703
  0
ARC
  8
OBJ
  6
CENTER
 10
35.902014
 20
25.735029
 30
0.0
 40
0.904341
 50
90.791703
 51
122.403043
  0
ARC
  8
OBJ
  6
CENTER
 10
34.336136
 20
24.754679
 30
0.0
 40
2.89733
 50
343.720391
 51
359.171011
  0
ARC
  8
OBJ
 10
39.530361
 20
24.71276
 30
0.0
 40
0.543
 50
180.0
 51
261.969664
  0
LINE
  8
OBJ
 10
39.50151
 20
24.172727
 30
0.0
 11
39.454505
 21
24.712255
 31
0.0
  0
LINE
  8
OBJ
  6
CONTINUOUS
 10
39.608505
 20
24.172727
 30
0.0
 11
39.608505
 21
24.71276
 31
0.0
  0
LINE
  8
OBJ
  6
CONTINUOUS
 10
39.734505
 20
24.172727
 30
0.0
 11
39.734505
 21
24.71276
 31
0.0
  0
LINE
  8
OBJ
  6
CONTINUOUS
 10
38.174944
 20
22.82476
 30
0.0
 11
38.900505
 21
22.82476
 31
0.0
  0
LINE
  8
OBJ
  6
CONTINUOUS
 10
38.174944
 20
23.50076
 30
0.0
 11
38.900505
 21
23.50076
 31
0.0
  0
LINE
  8
OBJ
 10
36.969623
 20
23.15348
 30
0.0
 11
37.429882
 21
22.968721
 31
0.0
  0
ARC
  8
OBJ
 10
38.174944
 20
24.82476
 30
0.0
 40
2.0
 50
248.128231
 51
270.0
  0
ARC
  8
OBJ
 10
38.174944
 20
21.50076
 30
0.0
 40
2.0
 50
90.0
 51
111.871769
  0
ARC
  8
OBJ
  6
CENTER
 10
35.111501
 20
24.528246
 30
0.0
 40
2.089579
 50
325.356555
 51
343.720391
  0
LINE
  8
OBJ
 10
37.429882
 20
23.3568
 30
0.0
 11
36.969623
 21
23.172041
 31
0.0
  0
ARC
  8
OBJ
 10
36.973349
 20
23.16276
 30
0.0
 40
0.01
 50
111.871769
 51
248.128231
  0
LINE
  8
OBJ
 10
39.260532
 20
23.03028
 30
0.0
 11
39.260532
 21
22.930699
 31
0.0
  0
ARC
  8
OBJ
 10
39.191593
 20
22.96548
 30
0.0
 40
0.068939
 50
289.954678
 51
70.045322
  0
LINE
  8
OBJ
 10
38.965332
 20
23.43688
 30
0.0
 11
38.965332
 21
22.888641
 31
0.0
  0
LINE
  8
OBJ
 10
38.900505
 20
23.43688
 30
0.0
 11
38.900505
 21
22.888641
 31
0.0
  0
LINE
  8
OBJ
 10
39.022932
 20
23.42484
 30
0.0
 11
39.022932
 21
22.90068
 31
0.0
  0
LINE
  8
OBJ
 10
38.965332
 20
22.888641
 30
0.0
 11
38.900505
 21
22.888641
 31
0.0
  0
LINE
  8
OBJ
  6
CENTER2
 10
38.965332
 20
22.92156
 30
0.0
 11
39.022932
 21
22.92156
 31
0.0
  0
LINE
  8
OBJ
  6
CONTINUOUS
 10
39.022932
 20
22.90068
 30
0.0
 11
39.215121
 21
22.90068
 31
0.0
  0
LINE
  8
OBJ
 10
39.260532
 20
22.930699
 30
0.0
 11
39.232557
 21
22.910031
 31
0.0
  0
ARC
  8
OBJ
 10
39.191593
 20
23.36004
 30
0.0
 40
0.068939
 50
289.954678
 51
70.045322
  0
ARC
  8
OBJ
 10
39.044584
 20
23.16276
 30
0.0
 40
0.215949
 50
322.158498
 51
37.841502
  0
LINE
  8
OBJ
 10
38.965332
 20
23.43688
 30
0.0
 11
38.900505
 21
23.43688
 31
0.0
  0
LINE
  8
OBJ
  6
CENTER2
 10
38.965332
 20
23.40396
 30
0.0
 11
39.022932
 21
23.40396
 31
0.0
  0
LINE
  8
OBJ
 10
38.965332
 20
23.221065
 30
0.0
 11
39.022932
 21
23.278665
 31
0.0
  0
LINE
  8
OBJ
  6
CONTINUOUS
 10
39.022932
 20
23.42484
 30
0.0
 11
39.215121
 21
23.42484
 31
0.0
  0
LINE
  8
OBJ
  6
CONTINUOUS
 10
39.022932
 20
23.29524
 30
0.0
 11
39.215121
 21
23.29524
 31
0.0
  0
LINE
  8
OBJ
  6
CONTINUOUS
 10
39.022932
 20
23.03028
 30
0.0
 11
39.215121
 21
23.03028
 31
0.0
  0
LINE
  8
OBJ
 10
39.260532
 20
23.16276
 30
0.0
 11
39.619996
 21
23.16276
 31
0.0
  0
LINE
  8
OBJ
 10
39.260532
 20
23.394822
 30
0.0
 11
39.232557
 21
23.415489
 31
0.0
  0
LINE
  8
OBJ
 10
39.260532
 20
23.394822
 30
0.0
 11
39.260532
 21
23.29524
 31
0.0
  0
LINE
  8
OBJ
 10
39.260532
 20
23.29524
 30
0.0
 11
39.260532
 21
23.03028
 31
0.0
  0
LINE
  8
OBJ
  6
CONTINUOUS
 10
39.454505
 20
24.172727
 30
0.0
 11
39.734505
 21
24.172727
 31
0.0
  0
LINE
  8
OBJ
  6
CONTINUOUS
 10
38.174944
 20
25.92476
 30
0.0
 11
38.900505
 21
25.92476
 31
0.0
  0
LINE
  8
OBJ
  6
CONTINUOUS
 10
38.174944
 20
26.60076
 30
0.0
 11
38.900505
 21
26.60076
 31
0.0
  0
ARC
  8
OBJ
  6
CENTER
 10
34.336209
 20
24.660959
 30
0.0
 40
2.89733
 50
0.917645
 51
16.368264
  0
ARC
  8
OBJ
 10
38.174944
 20
24.60076
 30
0.0
 40
2.0
 50
90.0
 51
111.871769
  0
ARC
  8
OBJ
 10
38.174944
 20
27.92476
 30
0.0
 40
2.0
 50
248.128231
 51
270.0
  0
ARC
  8
OBJ
  6
CENTER
 10
35.111222
 20
24.888591
 30
0.0
 40
2.089579
 50
16.368264
 51
34.7321
  0
LINE
  8
OBJ
 10
37.429882
 20
26.068721
 30
0.0
 11
36.969623
 21
26.25348
 31
0.0
  0
LINE
  8
OBJ
 10
36.969623
 20
26.272041
 30
0.0
 11
37.429882
 21
26.4568
 31
0.0
  0
ARC
  8
OBJ
 10
36.973349
 20
26.26276
 30
0.0
 40
0.01
 50
111.871769
 51
248.128231
  0
ARC
  8
OBJ
 10
39.530362
 20
24.710915
 30
0.0
 40
0.543
 50
98.118991
 51
180.088655
  0
LINE
  8
OBJ
  6
CONTINUOUS
 10
39.607671
 20
25.251068
 30
0.0
 11
39.608506
 21
24.711036
 31
0.0
  0
LINE
  8
OBJ
  6
CONTINUOUS
 10
39.733671
 20
25.251263
 30
0.0
 11
39.734506
 21
24.711231
 31
0.0
  0
LINE
  8
OBJ
 10
39.500676
 20
25.250903
 30
0.0
 11
39.454506
 21
24.711303
 31
0.0
  0
LINE
  8
OBJ
  6
CONTINUOUS
 10
39.453671
 20
25.25083
 30
0.0
 11
39.733671
 21
25.251263
 31
0.0
  0
ARC
  8
OBJ
 10
39.191593
 20
26.46004
 30
0.0
 40
0.068939
 50
289.954678
 51
70.045322
  0
ARC
  8
OBJ
 10
39.191593
 20
26.06548
 30
0.0
 40
0.068939
 50
289.954678
 51
70.045322
  0
ARC
  8
OBJ
 10
39.044584
 20
26.26276
 30
0.0
 40
0.215949
 50
322.158498
 51
37.841502
  0
LINE
  8
OBJ
 10
38.965332
 20
26.53688
 30
0.0
 11
38.965332
 21
25.988641
 31
0.0
  0
LINE
  8
OBJ
 10
38.900505
 20
26.53688
 30
0.0
 11
38.900505
 21
25.988641
 31
0.0
  0
LINE
  8
OBJ
 10
39.022932
 20
26.52484
 30
0.0
 11
39.022932
 21
26.00068
 31
0.0
  0
LINE
  8
OBJ
 10
38.965332
 20
25.988641
 30
0.0
 11
38.900505
 21
25.988641
 31
0.0
  0
LINE
  8
OBJ
  6
CENTER2
 10
38.965332
 20
26.02156
 30
0.0
 11
39.022932
 21
26.02156
 31
0.0
  0
LINE
  8
OBJ
  6
CONTINUOUS
 10
39.022932
 20
26.00068
 30
0.0
 11
39.215121
 21
26.00068
 31
0.0
  0
LINE
  8
OBJ
 10
38.965332
 20
26.53688
 30
0.0
 11
38.900505
 21
26.53688
 31
0.0
  0
LINE
  8
OBJ
  6
CENTER2
 10
38.965332
 20
26.50396
 30
0.0
 11
39.022932
 21
26.50396
 31
0.0
  0
LINE
  8
OBJ
 10
38.965332
 20
26.321065
 30
0.0
 11
39.022932
 21
26.378665
 31
0.0
  0
LINE
  8
OBJ
  6
CONTINUOUS
 10
39.022932
 20
26.52484
 30
0.0
 11
39.215121
 21
26.52484
 31
0.0
  0
LINE
  8
OBJ
  6
CONTINUOUS
 10
39.022932
 20
26.39524
 30
0.0
 11
39.215121
 21
26.39524
 31
0.0
  0
LINE
  8
OBJ
  6
CONTINUOUS
 10
39.022932
 20
26.13028
 30
0.0
 11
39.215121
 21
26.13028
 31
0.0
  0
LINE
  8
OBJ
 10
39.260532
 20
26.13028
 30
0.0
 11
39.260532
 21
26.030699
 31
0.0
  0
LINE
  8
OBJ
 10
39.260532
 20
26.030699
 30
0.0
 11
39.232557
 21
26.010031
 31
0.0
  0
LINE
  8
OBJ
 10
39.260532
 20
26.26276
 30
0.0
 11
39.619996
 21
26.26276
 31
0.0
  0
LINE
  8
OBJ
 10
39.260532
 20
26.494822
 30
0.0
 11
39.232557
 21
26.515489
 31
0.0
  0
LINE
  8
OBJ
 10
39.260532
 20
26.494822
 30
0.0
 11
39.260532
 21
26.39524
 31
0.0
  0
LINE
  8
OBJ
 10
39.260532
 20
26.39524
 30
0.0
 11
39.260532
 21
26.13028
 31
0.0
  0
LINE
  8
OBJ
  6
CONTINUOUS
 10
36.488536
 20
32.177673
 30
0.0
 11
36.488536
 21
29.881673
 31
0.0
  0
LINE
  8
OBJ
  6
CONTINUOUS
 10
35.307434
 20
32.177673
 30
0.0
 11
35.307434
 21
29.881673
 31
0.0
  0
LINE
  8
OBJ
 10
34.68233
 20
29.779673
 30
0.0
 11
37.102183
 21
29.779673
 31
0.0
  0
LINE
  8
OBJ
 10
38.498505
 20
29.12036
 30
0.0
 11
35.892505
 21
28.79836
 31
0.0
  0
ARC
  8
OBJ
 10
34.837148
 20
28.369608
 30
0.0
 40
0.2
 50
270.0
 51
0.0
  0
LINE
  8
OBJ
 10
35.026985
 20
29.779673
 30
0.0
 11
36.768985
 21
29.779673
 31
0.0
  0
LINE
  8
OBJ
 10
36.758985
 20
29.835673
 30
0.0
 11
35.036985
 21
29.835673
 31
0.0
  0
LINE
  8
OBJ
 10
36.682985
 20
29.881673
 30
0.0
 11
35.112985
 21
29.881673
 31
0.0
  0
LINE
  8
OBJ
 10
34.13561
 20
29.529325
 30
0.0
 11
34.70675
 21
29.529325
 31
0.0
  0
LINE
  8
OBJ
 10
34.1591
 20
29.586925
 30
0.0
 11
34.68326
 21
29.586925
 31
0.0
  0
ARC
  8
OBJ
 10
34.42118
 20
29.608576
 30
0.0
 40
0.215949
 50
52.158498
 51
127.841502
  0
LINE
  8
OBJ
 10
34.2887
 20
29.824525
 30
0.0
 11
34.55366
 21
29.824525
 31
0.0
  0
ARC
  8
OBJ
 10
34.2239
 20
29.755586
 30
0.0
 40
0.068939
 50
19.954678
 51
160.045322
  0
LINE
  8
OBJ
 10
34.189118
 20
29.824525
 30
0.0
 11
34.168451
 21
29.796549
 31
0.0
  0
LINE
  8
OBJ
  6
CENTER
 10
34.42118
 20
30.013035
 30
0.0
 11
34.42118
 21
29.375389
 31
0.0
  0
LINE
  8
OBJ
  6
CONTINUOUS
 10
34.2887
 20
29.586925
 30
0.0
 11
34.2887
 21
29.779113
 31
0.0
  0
LINE
  8
OBJ
  6
CONTINUOUS
 10
34.1591
 20
29.586925
 30
0.0
 11
34.1591
 21
29.779113
 31
0.0
  0
LINE
  8
OBJ
  6
CENTER2
 10
34.17998
 20
29.529325
 30
0.0
 11
34.17998
 21
29.586925
 31
0.0
  0
LINE
  8
OBJ
 10
34.13561
 20
29.476997
 30
0.0
 11
34.13561
 21
29.529325
 31
0.0
  0
LINE
  8
OBJ
 10
34.362876
 20
29.529325
 30
0.0
 11
34.305276
 21
29.586925
 31
0.0
  0
LINE
  8
OBJ
 10
34.189118
 20
29.824525
 30
0.0
 11
34.2887
 21
29.824525
 31
0.0
  0
LINE
  8
OBJ
 10
35.026985
 20
29.779673
 30
0.0
 11
35.026985
 21
29.825673
 31
0.0
  0
ARC
  8
OBJ
 10
34.61846
 20
29.755586
 30
0.0
 40
0.068939
 50
19.954678
 51
160.045322
  0
LINE
  8
OBJ
 10
34.653242
 20
29.824525
 30
0.0
 11
34.673909
 21
29.796549
 31
0.0
  0
LINE
  8
OBJ
  6
CONTINUOUS
 10
34.68326
 20
29.586925
 30
0.0
 11
34.68326
 21
29.779113
 31
0.0
  0
LINE
  8
OBJ
  6
CONTINUOUS
 10
34.55366
 20
29.586925
 30
0.0
 11
34.55366
 21
29.779113
 31
0.0
  0
LINE
  8
OBJ
  6
CENTER2
 10
34.66238
 20
29.529325
 30
0.0
 11
34.66238
 21
29.586925
 31
0.0
  0
LINE
  8
OBJ
 10
34.70675
 20
29.476997
 30
0.0
 11
34.70675
 21
29.529325
 31
0.0
  0
LINE
  8
OBJ
 10
34.55366
 20
29.824525
 30
0.0
 11
34.653242
 21
29.824525
 31
0.0
  0
ARC
  8
OBJ
 10
35.036985
 20
29.825673
 30
0.0
 40
0.01
 50
90.0
 51
180.0
  0
ARC
  8
OBJ
 10
35.112985
 20
29.871673
 30
0.0
 40
0.01
 50
90.0
 51
180.0
  0
LINE
  8
OBJ
 10
35.102985
 20
29.845673
 30
0.0
 11
35.102985
 21
29.871673
 31
0.0
  0
ARC
  8
OBJ
 10
35.092985
 20
29.845673
 30
0.0
 40
0.01
 50
270.0
 51
0.0
  0
LINE
  8
OBJ
 10
36.768985
 20
29.779673
 30
0.0
 11
36.768985
 21
29.825673
 31
0.0
  0
ARC
  8
OBJ
 10
36.682985
 20
29.871673
 30
0.0
 40
0.01
 50
0.0
 51
90.0
  0
ARC
  8
OBJ
 10
36.702985
 20
29.845673
 30
0.0
 40
0.01
 50
180.0
 51
270.0
  0
LINE
  8
OBJ
 10
36.692985
 20
29.845673
 30
0.0
 11
36.692985
 21
29.871673
 31
0.0
  0
ARC
  8
OBJ
 10
36.758985
 20
29.825673
 30
0.0
 40
0.01
 50
360.0
 51
90.0
  0
LINE
  8
OBJ
 10
38.369123
 20
29.476997
 30
0.0
 11
38.465505
 21
29.19236
 31
0.0
  0
ARC
  8
OBJ
 10
39.075687
 20
27.890947
 30
0.0
 40
1.0
 50
37.49202
 51
83.609939
  0
LINE
  8
OBJ
 10
38.498505
 20
29.12036
 30
0.0
 11
38.850505
 21
29.12036
 31
0.0
  0
ARC
  8
OBJ
 10
38.475505
 20
29.13036
 30
0.0
 40
0.01
 50
180.0
 51
270.0
  0
LINE
  8
OBJ
  6
CONTINUOUS
 10
38.475505
 20
29.12036
 30
0.0
 11
38.498505
 21
29.12036
 31
0.0
  0
LINE
  8
OBJ
 10
38.465505
 20
29.13036
 30
0.0
 11
38.465505
 21
29.19236
 31
0.0
  0
ARC
  8
OBJ
 10
38.850505
 20
29.07036
 30
0.0
 40
0.05
 50
0.0
 51
90.0
  0
LINE
  8
OBJ
 10
38.894098
 20
28.917535
 30
0.0
 11
39.186983
 21
28.884734
 31
0.0
  0
ARC
  8
OBJ
 10
39.472406
 20
28.195273
 30
0.0
 40
0.5
 50
4.47774
 51
37.49202
  0
LINE
  8
OBJ
 10
37.6494
 20
29.529325
 30
0.0
 11
37.07826
 21
29.529325
 31
0.0
  0
LINE
  8
OBJ
 10
37.595892
 20
29.824525
 30
0.0
 11
37.616559
 21
29.796549
 31
0.0
  0
ARC
  8
OBJ
 10
37.56111
 20
29.755586
 30
0.0
 40
0.068939
 50
19.954678
 51
160.045322
  0
LINE
  8
OBJ
 10
37.131768
 20
29.824525
 30
0.0
 11
37.111101
 21
29.796549
 31
0.0
  0
ARC
  8
OBJ
 10
37.16655
 20
29.755586
 30
0.0
 40
0.068939
 50
19.954678
 51
160.045322
  0
ARC
  8
OBJ
 10
37.36383
 20
29.608576
 30
0.0
 40
0.215949
 50
52.158498
 51
127.841502
  0
LINE
  8
OBJ
  6
CENTER
 10
37.36383
 20
30.013035
 30
0.0
 11
37.36383
 21
29.375389
 31
0.0
  0
LINE
  8
OBJ
 10
37.62591
 20
29.586925
 30
0.0
 11
37.10175
 21
29.586925
 31
0.0
  0
LINE
  8
OBJ
 10
37.07826
 20
29.476997
 30
0.0
 11
37.07826
 21
29.529325
 31
0.0
  0
LINE
  8
OBJ
  6
CENTER2
 10
37.12263
 20
29.529325
 30
0.0
 11
37.12263
 21
29.586925
 31
0.0
  0
LINE
  8
OBJ
  6
CONTINUOUS
 10
37.10175
 20
29.586925
 30
0.0
 11
37.10175
 21
29.779113
 31
0.0
  0
LINE
  8
OBJ
  6
CENTER2
 10
37.60503
 20
29.529325
 30
0.0
 11
37.60503
 21
29.586925
 31
0.0
  0
LINE
  8
OBJ
  6
CONTINUOUS
 10
37.62591
 20
29.586925
 30
0.0
 11
37.62591
 21
29.779113
 31
0.0
  0
LINE
  8
OBJ
  6
CONTINUOUS
 10
37.49631
 20
29.586925
 30
0.0
 11
37.49631
 21
29.779113
 31
0.0
  0
LINE
  8
OBJ
 10
37.422134
 20
29.529325
 30
0.0
 11
37.479734
 21
29.586925
 31
0.0
  0
LINE
  8
OBJ
  6
CONTINUOUS
 10
37.23135
 20
29.586925
 30
0.0
 11
37.23135
 21
29.779113
 31
0.0
  0
LINE
  8
OBJ
 10
37.23135
 20
29.824525
 30
0.0
 11
37.131768
 21
29.824525
 31
0.0
  0
LINE
  8
OBJ
 10
37.595892
 20
29.824525
 30
0.0
 11
37.49631
 21
29.824525
 31
0.0
  0
LINE
  8
OBJ
 10
37.49631
 20
29.824525
 30
0.0
 11
37.23135
 21
29.824525
 31
0.0
  0
LINE
  8
OBJ
 10
37.6494
 20
29.476997
 30
0.0
 11
37.6494
 21
29.529325
 31
0.0
  0
LINE
  8
OBJ
 10
36.488536
 20
32.177673
 30
0.0
 11
35.307434
 21
32.177673
 31
0.0
  0
LINE
  8
OBJ
 10
35.388716
 20
32.243096
 30
0.0
 11
36.406501
 21
32.24363
 31
0.0
  0
LINE
  8
OBJ
 10
35.389434
 20
32.243673
 30
0.0
 11
35.307434
 21
32.177673
 31
0.0
  0
LINE
  8
OBJ
 10
36.406501
 20
32.24363
 30
0.0
 11
36.488536
 21
32.177673
 31
0.0
  0
ENDSEC
  0
EOF
