  0
SECTION
  2
HEADER
  9
$ACADVER
  1
AC1009
  9
$INSBASE
 10
0.0
 20
0.0
 30
0.0
  9
$EXTMIN
 10
-206.489008
 20
-130.13857
 30
0.0
  9
$EXTMAX
 10
105.432511
 20
67.348114
 30
0.0315
  9
$LIMMIN
 10
0.0
 20
0.0
  9
$LIMMAX
 10
12.0
 20
9.0
  9
$ORTHOMODE
 70
     0
  9
$REGENMODE
 70
     1
  9
$FILLMODE
 70
     1
  9
$QTEXTMODE
 70
     0
  9
$MIRRTEXT
 70
     1
  9
$DRAGMODE
 70
     2
  9
$LTSCALE
 40
1.0
  9
$OSMODE
 70
     0
  9
$ATTMODE
 70
     1
  9
$TEXTSIZE
 40
0.225
  9
$TRACEWID
 40
0.05
  9
$TEXTSTYLE
  7
ROMAND
  9
$CLAYER
  8
0
  9
$CELTYPE
  6
BYLAYER
  9
$CECOLOR
 62
   256
  9
$DIMSCALE
 40
1.0
  9
$DIMASZ
 40
1.0
  9
$DIMEXO
 40
0.38
  9
$DIMDLI
 40
2.0
  9
$DIMRND
 40
0.0
  9
$DIMDLE
 40
0.0
  9
$DIMEXE
 40
1.0
  9
$DIMTP
 40
0.0
  9
$DIMTM
 40
0.0
  9
$DIMTXT
 40
1.0
  9
$DIMCEN
 40
0.5
  9
$DIMTSZ
 40
0.0
  9
$DIMTOL
 70
     0
  9
$DIMLIM
 70
     0
  9
$DIMTIH
 70
     1
  9
$DIMTOH
 70
     1
  9
$DIMSE1
 70
     0
  9
$DIMSE2
 70
     0
  9
$DIMTAD
 70
     0
  9
$DIMZIN
 70
     0
  9
$DIMBLK
  1

  9
$DIMASO
 70
     1
  9
$DIMSHO
 70
     1
  9
$DIMPOST
  1

  9
$DIMAPOST
  1

  9
$DIMALT
 70
     0
  9
$DIMALTD
 70
     2
  9
$DIMALTF
 40
25.4
  9
$DIMLFAC
 40
1.0
  9
$DIMTOFL
 70
     0
  9
$DIMTVP
 40
0.0
  9
$DIMTIX
 70
     0
  9
$DIMSOXD
 70
     0
  9
$DIMSAH
 70
     0
  9
$DIMBLK1
  1

  9
$DIMBLK2
  1

  9
$DIMSTYLE
  2
*UNNAMED
  9
$DIMCLRD
 70
     0
  9
$DIMCLRE
 70
     0
  9
$DIMCLRT
 70
     0
  9
$DIMTFAC
 40
1.0
  9
$DIMGAP
 40
0.5
  9
$LUNITS
 70
     2
  9
$LUPREC
 70
     4
  9
$SKETCHINC
 40
0.1
  9
$FILLETRAD
 40
0.04
  9
$AUNITS
 70
     0
  9
$AUPREC
 70
     0
  9
$MENU
  1
acad
  9
$ELEVATION
 40
0.0
  9
$PELEVATION
 40
0.0
  9
$THICKNESS
 40
0.0
  9
$LIMCHECK
 70
     0
  9
$BLIPMODE
 70
     1
  9
$CHAMFERA
 40
0.0
  9
$CHAMFERB
 40
0.0
  9
$SKPOLY
 70
     0
  9
$TDCREATE
 40
2450820.260140162
  9
$TDUPDATE
 40
2450820.265025579
  9
$TDINDWG
 40
0.0043322917
  9
$TDUSRTIMER
 40
0.0043322917
  9
$USRTIMER
 70
     1
  9
$ANGBASE
 50
0.0
  9
$ANGDIR
 70
     0
  9
$PDMODE
 70
     0
  9
$PDSIZE
 40
0.0
  9
$PLINEWID
 40
0.0
  9
$COORDS
 70
     1
  9
$SPLFRAME
 70
     0
  9
$SPLINETYPE
 70
     6
  9
$SPLINESEGS
 70
     8
  9
$ATTDIA
 70
     0
  9
$ATTREQ
 70
     1
  9
$HANDLING
 70
     0
  9
$HANDSEED
  5
0
  9
$SURFTAB1
 70
     6
  9
$SURFTAB2
 70
     6
  9
$SURFTYPE
 70
     6
  9
$SURFU
 70
     6
  9
$SURFV
 70
     6
  9
$UCSNAME
  2

  9
$UCSORG
 10
0.0
 20
0.0
 30
0.0
  9
$UCSXDIR
 10
1.0
 20
0.0
 30
0.0
  9
$UCSYDIR
 10
0.0
 20
1.0
 30
0.0
  9
$PUCSNAME
  2

  9
$PUCSORG
 10
0.0
 20
0.0
 30
0.0
  9
$PUCSXDIR
 10
1.0
 20
0.0
 30
0.0
  9
$PUCSYDIR
 10
0.0
 20
1.0
 30
0.0
  9
$USERI1
 70
     0
  9
$USERI2
 70
     0
  9
$USERI3
 70
     0
  9
$USERI4
 70
     0
  9
$USERI5
 70
     0
  9
$USERR1
 40
0.0
  9
$USERR2
 40
0.0
  9
$USERR3
 40
0.0
  9
$USERR4
 40
0.0
  9
$USERR5
 40
0.0
  9
$WORLDVIEW
 70
     1
  9
$SHADEDGE
 70
     3
  9
$SHADEDIF
 70
    70
  9
$TILEMODE
 70
     1
  9
$MAXACTVP
 70
    16
  9
$PINSBASE
 10
0.0
 20
0.0
 30
0.0
  9
$PLIMCHECK
 70
     0
  9
$PEXTMIN
 10
1.000000E+20
 20
1.000000E+20
 30
1.000000E+20
  9
$PEXTMAX
 10
-1.000000E+20
 20
-1.000000E+20
 30
-1.000000E+20
  9
$PLIMMIN
 10
0.0
 20
0.0
  9
$PLIMMAX
 10
12.0
 20
9.0
  9
$UNITMODE
 70
     0
  9
$VISRETAIN
 70
     0
  9
$PLINEGEN
 70
     0
  9
$PSLTSCALE
 70
     1
  9
$TREEDEPTH
 70
  3020
  9
$DWGCODEPAGE
  3
iso8859-1
  0
ENDSEC
  0
SECTION
  2
TABLES
  0
TABLE
  2
VPORT
 70
     2
  0
VPORT
  2
*ACTIVE
 70
     0
 10
0.0
 20
0.0
 11
1.0
 21
1.0
 12
12.849958
 22
9.158757
 13
0.0
 23
0.0
 14
1.0
 24
1.0
 15
0.0
 25
0.0
 16
0.0
 26
0.0
 36
1.0
 17
0.0
 27
0.0
 37
0.0
 40
19.136244
 41
1.379728
 42
50.0
 43
0.0
 44
0.0
 50
0.0
 51
0.0
 71
     0
 72
   100
 73
     1
 74
     0
 75
     0
 76
     0
 77
     0
 78
     0
  0
ENDTAB
  0
TABLE
  2
LTYPE
 70
     3
  0
LTYPE
  2
CONTINUOUS
 70
    64
  3
Solid line
 72
    65
 73
     0
 40
0.0
  0
LTYPE
  2
CENTER2
 70
    64
  3
CENTER2 _._._._._
 72
    65
 73
     4
 40
0.15
 49
0.1
 49
-0.025
 49
0.0
 49
-0.025
  0
LTYPE
  2
DASHED4
 70
    64
  3
- - - - - - - -
 72
    65
 73
     2
 40
0.06
 49
0.03
 49
-0.03
  0
ENDTAB
  0
TABLE
  2
LAYER
 70
     3
  0
LAYER
  2
0
 70
    64
 62
     7
  6
CONTINUOUS
  0
LAYER
  2
OBJ
 70
    64
 62
     7
  6
CONTINUOUS
  0
LAYER
  2
DEFPOINTS
 70
    64
 62
     7
  6
CONTINUOUS
  0
ENDTAB
  0
TABLE
  2
STYLE
 70
     2
  0
STYLE
  2
STANDARD
 70
     0
 40
0.0
 41
1.0
 50
0.0
 71
     0
 42
0.2
  3
txt
  4

  0
STYLE
  2
ROMAND
 70
     0
 40
1.0
 41
1.0
 50
0.0
 71
     0
 42
0.225
  3
romand
  4

  0
ENDTAB
  0
TABLE
  2
VIEW
 70
     0
  0
ENDTAB
  0
TABLE
  2
UCS
 70
     0
  0
ENDTAB
  0
TABLE
  2
APPID
 70
     1
  0
APPID
  2
ACAD
 70
    64
  0
ENDTAB
  0
TABLE
  2
DIMSTYLE
 70
     0
  0
ENDTAB
  0
ENDSEC
  0
SECTION
  2
BLOCKS
  0
BLOCK
  8
0
  2
CVRSCR
 70
    64
 10
0.0
 20
0.0
 30
0.0
  3
CVRSCR
  0
POLYLINE
  8
0
 66
     1
 10
0.0
 20
0.0
 30
0.0
 70
     1
  0
VERTEX
  8
0
 10
-0.219375
 20
0.0
 30
0.0
  0
VERTEX
  8
0
 10
-0.109687
 20
0.189984
 30
0.0
  0
VERTEX
  8
0
 10
0.109687
 20
0.189984
 30
0.0
  0
VERTEX
  8
0
 10
0.219375
 20
0.0
 30
0.0
  0
VERTEX
  8
0
 10
0.109687
 20
-0.189984
 30
0.0
  0
VERTEX
  8
0
 10
-0.109687
 20
-0.189984
 30
0.0
  0
SEQEND
  8
0
  0
CIRCLE
  8
0
 10
0.0
 20
0.0
 30
0.0
 40
0.186787
  0
CIRCLE
  8
OBJ
 10
0.0
 20
0.0
 30
0.0
 40
0.16065
  0
ARC
  8
0
 10
0.0
 20
0.0
 30
0.0
 40
0.193285
 50
79.395522
 51
100.604478
  0
LINE
  8
OBJ
 10
0.1071
 20
0.0357
 30
0.0
 11
0.0357
 21
0.0357
 31
0.0
  0
LINE
  8
OBJ
 10
0.1071
 20
-0.0357
 30
0.0
 11
0.0357
 21
-0.0357
 31
0.0
  0
LINE
  8
OBJ
 10
0.1071
 20
-0.0357
 30
0.0
 11
0.1071
 21
0.0357
 31
0.0
  0
LINE
  8
OBJ
 10
0.0357
 20
0.0357
 30
0.0
 11
0.0357
 21
0.1071
 31
0.0
  0
LINE
  8
OBJ
 10
-0.0357
 20
0.0357
 30
0.0
 11
-0.0357
 21
0.1071
 31
0.0
  0
LINE
  8
0
 10
0.0357
 20
-0.0357
 30
0.0
 11
-0.0357
 21
0.0357
 31
0.0
  0
LINE
  8
0
 10
0.0357
 20
0.0357
 30
0.0
 11
-0.0357
 21
-0.0357
 31
0.0
  0
LINE
  8
OBJ
 10
-0.0357
 20
0.0357
 30
0.0
 11
-0.1071
 21
0.0357
 31
0.0
  0
LINE
  8
OBJ
 10
-0.1071
 20
0.0357
 30
0.0
 11
-0.1071
 21
-0.0357
 31
0.0
  0
LINE
  8
OBJ
 10
-0.0357
 20
-0.0357
 30
0.0
 11
-0.1071
 21
-0.0357
 31
0.0
  0
LINE
  8
OBJ
 10
-0.0357
 20
-0.1071
 30
0.0
 11
-0.0357
 21
-0.0357
 31
0.0
  0
LINE
  8
OBJ
 10
-0.0357
 20
-0.1071
 30
0.0
 11
0.0357
 21
-0.1071
 31
0.0
  0
LINE
  8
OBJ
 10
0.0357
 20
-0.1071
 30
0.0
 11
0.0357
 21
-0.0357
 31
0.0
  0
LINE
  8
OBJ
 10
0.0357
 20
0.1071
 30
0.0
 11
-0.0357
 21
0.1071
 31
0.0
  0
ARC
  8
0
 10
0.0
 20
0.0
 30
0.0
 40
0.193285
 50
139.395522
 51
160.604478
  0
ARC
  8
0
 10
0.0
 20
0.0
 30
0.0
 40
0.193285
 50
199.395522
 51
220.604478
  0
ARC
  8
0
 10
0.0
 20
0.0
 30
0.0
 40
0.193285
 50
259.395522
 51
280.604478
  0
ARC
  8
0
 10
0.0
 20
0.0
 30
0.0
 40
0.193285
 50
319.395522
 51
340.604478
  0
ARC
  8
0
 10
0.0
 20
0.0
 30
0.0
 40
0.193285
 50
19.395522
 51
40.604478
  0
ENDBLK
  8
0
  0
ENDSEC
  0
SECTION
  2
ENTITIES
  0
LINE
  8
0
 10
11.564782
 20
10.821998
 30
0.0
 11
12.734782
 21
10.821998
 31
0.0
  0
ARC
  8
0
 10
11.814782
 20
11.976498
 30
0.0
 40
0.25
 50
90.848008
 51
180.0
  0
ARC
  8
0
 10
11.814782
 20
12.476443
 30
0.0
 40
0.25
 50
180.0
 51
269.151992
  0
ARC
  8
0
 10
11.467236
 20
12.241783
 30
0.0
 40
1.217699
 50
274.59474
 51
294.468693
  0
ARC
  8
0
 10
11.467236
 20
13.342212
 30
0.0
 40
1.217699
 50
65.531307
 51
85.40526
  0
ARC
  8
0
 10
11.814782
 20
13.107552
 30
0.0
 40
0.25
 50
90.848008
 51
180.0
  0
ARC
  8
0
 10
11.814782
 20
13.607498
 30
0.0
 40
0.25
 50
180.0
 51
269.151992
  0
LINE
  8
0
 10
11.564782
 20
14.761998
 30
0.0
 11
12.734782
 21
14.761998
 31
0.0
  0
LINE
  8
OBJ
 10
22.225363
 20
12.791998
 30
0.0
 11
11.004041
 21
12.791998
 31
0.0
  0
ARC
  8
0
 10
11.814782
 20
3.511754
 30
0.0
 40
0.25
 50
180.0
 51
270.0
  0
ARC
  8
0
 10
11.814782
 20
4.311754
 30
0.0
 40
0.25
 50
90.0
 51
180.0
  0
CIRCLE
  8
0
 10
12.149782
 20
3.911754
 30
0.0
 40
0.585
  0
LINE
  8
0
 10
22.225363
 20
3.911754
 30
0.0
 11
11.004041
 21
3.911754
 31
0.0
  0
ARC
  8
0
 62
     7
 10
5.186259
 20
-34.043353
 30
0.0
 40
38.723106
 50
89.315564
 51
90.684436
  0
LINE
  8
0
 62
     7
 10
0.165911
 20
3.911754
 30
0.0
 11
10.206607
 21
3.911754
 31
0.0
  0
ARC
  8
OBJ
 62
     7
 10
5.186259
 20
2.180267
 30
0.0
 40
4.120471
 50
79.786344
 51
100.213656
  0
LINE
  8
0
 62
     7
 10
4.300259
 20
5.761754
 30
0.0
 11
6.072259
 21
5.761754
 31
0.0
  0
ARC
  8
0
 62
     7
 10
5.673399
 20
5.161441
 30
0.0
 40
0.990298
 50
60.533676
 51
119.466324
  0
LINE
  8
OBJ
  6
CONTINUOUS
 62
     7
 10
4.211981
 20
6.151738
 30
0.0
 11
6.160538
 21
6.151738
 31
0.0
  0
LINE
  8
OBJ
  6
CONTINUOUS
 62
     7
 10
4.211981
 20
5.791738
 30
0.0
 11
6.160538
 21
5.791738
 31
0.0
  0
LINE
  8
0
 62
     7
 10
5.657259
 20
1.278754
 30
0.0
 11
4.715259
 21
1.278754
 31
0.0
  0
ARC
  8
0
 62
     7
 10
5.453228
 20
4.71874
 30
0.0
 40
0.2
 50
251.694703
 51
0.0
  0
ARC
  8
0
 62
     7
 10
5.186259
 20
3.911754
 30
0.0
 40
0.65
 50
48.295107
 51
90.0
  0
LINE
  8
0
 62
     7
 10
6.317259
 20
3.261754
 30
0.0
 11
5.186259
 21
3.261754
 31
0.0
  0
ARC
  8
0
 62
     7
 10
5.186259
 20
4.675795
 30
0.0
 40
2.582042
 50
270.0
 51
280.353519
  0
LINE
  8
0
 62
     7
 10
2.411259
 20
2.386754
 30
0.0
 11
2.411259
 21
5.436754
 31
0.0
  0
LINE
  8
0
 62
     7
 10
2.627259
 20
2.326754
 30
0.0
 11
2.627259
 21
3.721184
 31
0.0
  0
LINE
  8
0
 62
     7
 10
2.725259
 20
2.128254
 30
0.0
 11
2.725259
 21
3.333254
 31
0.0
  0
LINE
  8
0
 62
     7
 10
2.675259
 20
3.283254
 30
0.0
 11
2.675259
 21
2.178254
 31
0.0
  0
ARC
  8
0
 62
     7
 10
4.082259
 20
2.753754
 30
0.0
 40
0.66
 50
180.0
 51
270.0
  0
LINE
  8
0
 62
     7
 10
2.471259
 20
2.326754
 30
0.0
 11
2.627259
 21
2.326754
 31
0.0
  0
ARC
  8
0
 62
     7
 10
2.471259
 20
2.386754
 30
0.0
 40
0.06
 50
180.0
 51
270.0
  0
LINE
  8
0
 10
4.082259
 20
1.741754
 30
0.0
 11
4.124026
 21
1.741754
 31
0.0
  0
LINE
  8
OBJ
 10
3.082259
 20
0.361754
 30
0.0
 11
3.082259
 21
0.481754
 31
0.0
  0
LINE
  8
OBJ
 10
3.572259
 20
0.632053
 30
0.0
 11
3.572259
 21
0.211454
 31
0.0
  0
ARC
  8
OBJ
 10
3.982259
 20
0.581754
 30
0.0
 40
0.22
 50
270.0
 51
0.0
  0
ARC
  8
OBJ
 10
3.982259
 20
0.581754
 30
0.0
 40
0.1
 50
270.0
 51
0.0
  0
LINE
  8
OBJ
 10
4.082259
 20
1.741754
 30
0.0
 11
4.082259
 21
0.581754
 31
0.0
  0
LINE
  8
OBJ
 10
4.202259
 20
0.581754
 30
0.0
 11
4.202259
 21
1.646821
 31
0.0
  0
LINE
  8
OBJ
 10
3.982259
 20
0.481754
 30
0.0
 11
3.082259
 21
0.481754
 31
0.0
  0
LINE
  8
OBJ
 10
3.082259
 20
0.361754
 30
0.0
 11
3.982259
 21
0.361754
 31
0.0
  0
ARC
  8
0
 62
     7
 10
2.974259
 20
2.179754
 30
0.0
 40
0.256
 50
191.10098
 51
267.26401
  0
LINE
  8
0
 62
     7
 10
2.627259
 20
2.326754
 30
0.0
 11
2.650412
 21
2.326754
 31
0.0
  0
ARC
  8
0
 62
     7
 10
2.650412
 20
2.266754
 30
0.0
 40
0.06
 50
65.536235
 51
90.0
  0
LINE
  8
0
 62
     7
 10
4.081259
 20
1.745754
 30
0.0
 11
4.12191
 21
1.745754
 31
0.0
  0
LINE
  8
0
 62
     7
 10
4.202259
 20
1.646821
 30
0.0
 11
4.202259
 21
0.958754
 31
0.0
  0
LINE
  8
0
 62
     7
 10
4.595259
 20
1.158754
 30
0.0
 11
4.595259
 21
0.958754
 31
0.0
  0
LINE
  8
0
 62
     7
 10
4.595259
 20
1.158754
 30
0.0
 11
4.715259
 21
1.278754
 31
0.0
  0
LINE
  8
0
 62
     7
 10
4.595259
 20
0.958754
 30
0.0
 11
4.202259
 21
0.958754
 31
0.0
  0
LINE
  8
0
 62
     7
 10
4.081259
 20
1.745754
 30
0.0
 11
4.081259
 21
2.146042
 31
0.0
  0
LINE
  8
0
 62
     7
 10
5.041259
 20
2.097828
 30
0.0
 11
5.041259
 21
1.278754
 31
0.0
  0
LINE
  8
0
 62
     7
 10
5.331259
 20
2.097828
 30
0.0
 11
5.331259
 21
1.278754
 31
0.0
  0
ARC
  8
0
 62
     7
 10
4.041259
 20
1.847759
 30
0.0
 40
0.04
 50
0.0
 51
90.0
  0
ARC
  8
0
 62
     7
 10
5.182175
 20
25.057004
 30
0.0
 40
23.239251
 50
264.517951
 51
267.284704
  0
LINE
  8
0
 62
     7
 10
4.402759
 20
1.711332
 30
0.0
 11
4.559009
 21
1.801543
 31
0.0
  0
LINE
  8
0
 62
     7
 10
4.246509
 20
1.801543
 30
0.0
 11
4.402759
 21
1.711332
 31
0.0
  0
LINE
  8
0
 62
     7
 10
4.246509
 20
1.981964
 30
0.0
 11
4.246509
 21
1.801543
 31
0.0
  0
LINE
  8
0
 62
     7
 10
4.402759
 20
2.072176
 30
0.0
 11
4.246509
 21
1.981964
 31
0.0
  0
LINE
  8
0
 62
     7
 10
4.559009
 20
1.981964
 30
0.0
 11
4.402759
 21
2.072176
 31
0.0
  0
LINE
  8
0
 62
     7
 10
4.559009
 20
1.801543
 30
0.0
 11
4.559009
 21
1.981964
 31
0.0
  0
CIRCLE
  8
0
 62
     7
 10
4.402759
 20
1.891754
 30
0.0
 40
0.25
  0
CIRCLE
  8
0
 62
     7
 10
4.402759
 20
1.891754
 30
0.0
 40
0.281
  0
LINE
  8
0
 62
     7
 10
2.675259
 20
2.178254
 30
0.0
 11
2.725259
 21
2.128254
 31
0.0
  0
LINE
  8
0
 62
     7
 10
2.725259
 20
2.128254
 30
0.0
 11
3.871666
 21
2.128254
 31
0.0
  0
ARC
  8
0
 62
     7
 10
5.186259
 20
4.675795
 30
0.0
 40
2.582042
 50
259.646481
 51
270.0
  0
LINE
  8
0
 62
     7
 10
4.086228
 20
1.891754
 30
0.0
 11
4.086228
 21
2.101741
 31
0.0
  0
ARC
  8
0
 62
     7
 10
3.886228
 20
2.101741
 30
0.0
 40
0.2
 50
0.0
 51
31.700091
  0
LINE
  8
0
 62
     7
 10
4.082259
 20
2.093754
 30
0.0
 11
4.086228
 21
2.093754
 31
0.0
  0
ARC
  8
0
 62
     7
 10
4.919291
 20
2.101741
 30
0.0
 40
0.2
 50
148.299909
 51
180.0
  0
LINE
  8
0
 62
     7
 10
4.719291
 20
1.891754
 30
0.0
 11
4.719291
 21
2.101741
 31
0.0
  0
LINE
  8
0
 62
     7
 10
4.086228
 20
1.891754
 30
0.0
 11
4.086228
 21
1.973063
 31
0.0
  0
ARC
  8
0
 62
     7
 10
4.402759
 20
1.891754
 30
0.0
 40
0.316532
 50
180.0
 51
0.0
  0
LINE
  8
0
 62
     7
 10
2.471259
 20
5.496754
 30
0.0
 11
2.627259
 21
5.496754
 31
0.0
  0
LINE
  8
0
 62
     7
 10
0.826259
 20
3.586954
 30
0.0
 11
0.796259
 21
3.616954
 31
0.0
  0
LINE
  8
0
 62
     7
 10
0.796259
 20
4.200843
 30
0.0
 11
0.826259
 21
4.230843
 31
0.0
  0
LINE
  8
OBJ
 62
     7
 10
0.796259
 20
4.200843
 30
0.0
 11
0.796259
 21
3.616954
 31
0.0
  0
LINE
  8
0
 62
     7
 10
0.826259
 20
3.586954
 30
0.0
 11
0.826259
 21
4.230843
 31
0.0
  0
ARC
  8
0
 62
     7
 10
2.471259
 20
5.436754
 30
0.0
 40
0.06
 50
90.0
 51
180.0
  0
LINE
  8
0
 62
     7
 10
2.086259
 20
4.304754
 30
0.0
 11
2.086259
 21
3.518754
 31
0.0
  0
LINE
  8
0
 62
     7
 10
2.176259
 20
4.602697
 30
0.0
 11
2.176259
 21
3.22081
 31
0.0
  0
LINE
  8
0
 62
     7
 10
2.176259
 20
3.518754
 30
0.0
 11
2.086259
 21
3.518754
 31
0.0
  0
LINE
  8
OBJ
 62
     7
 10
2.166243
 20
3.21341
 30
0.0
 11
2.189463
 21
3.230564
 31
0.0
  0
LINE
  8
OBJ
 62
     7
 10
2.166243
 20
3.130757
 30
0.0
 11
2.166243
 21
3.21341
 31
0.0
  0
ARC
  8
OBJ
 62
     7
 10
2.223463
 20
3.184541
 30
0.0
 40
0.057219
 50
109.954678
 51
250.045322
  0
LINE
  8
OBJ
  6
CONTINUOUS
 62
     7
 10
2.363451
 20
3.238325
 30
0.0
 11
2.203935
 21
3.238325
 31
0.0
  0
LINE
  8
OBJ
  6
CONTINUOUS
 62
     7
 10
2.363451
 20
3.130757
 30
0.0
 11
2.203935
 21
3.130757
 31
0.0
  0
LINE
  8
OBJ
  6
CENTER2
 62
     7
 10
2.411259
 20
3.220995
 30
0.0
 11
2.363451
 21
3.220995
 31
0.0
  0
LINE
  8
0
 62
     7
 10
2.176259
 20
4.304754
 30
0.0
 11
2.086259
 21
4.304754
 31
0.0
  0
LINE
  8
OBJ
  6
CENTER2
 62
     7
 10
2.411259
 20
5.002904
 30
0.0
 11
2.363451
 21
5.002904
 31
0.0
  0
LINE
  8
OBJ
 62
     7
 10
2.411259
 20
4.851101
 30
0.0
 11
2.363451
 21
4.898909
 31
0.0
  0
LINE
  8
OBJ
  6
CENTER2
 62
     7
 10
2.411259
 20
4.602512
 30
0.0
 11
2.363451
 21
4.602512
 31
0.0
  0
LINE
  8
OBJ
 62
     7
 10
2.166243
 20
4.995319
 30
0.0
 11
2.189463
 21
5.012473
 31
0.0
  0
ARC
  8
OBJ
 62
     7
 10
2.223463
 20
4.96645
 30
0.0
 40
0.057219
 50
109.954678
 51
250.045322
  0
LINE
  8
OBJ
 62
     7
 10
2.363451
 20
5.020234
 30
0.0
 11
2.363451
 21
4.585182
 31
0.0
  0
LINE
  8
OBJ
  6
CONTINUOUS
 62
     7
 10
2.363451
 20
5.020234
 30
0.0
 11
2.203935
 21
5.020234
 31
0.0
  0
LINE
  8
OBJ
  6
CONTINUOUS
 62
     7
 10
2.363451
 20
4.69275
 30
0.0
 11
2.203935
 21
4.69275
 31
0.0
  0
LINE
  8
OBJ
  6
CONTINUOUS
 62
     7
 10
2.363451
 20
4.585182
 30
0.0
 11
2.203935
 21
4.585182
 31
0.0
  0
LINE
  8
OBJ
  6
CONTINUOUS
 62
     7
 10
2.363451
 20
4.912666
 30
0.0
 11
2.203935
 21
4.912666
 31
0.0
  0
LINE
  8
OBJ
 62
     7
 10
2.166243
 20
4.912666
 30
0.0
 11
2.166243
 21
4.69275
 31
0.0
  0
ARC
  8
OBJ
 62
     7
 10
2.345481
 20
4.802708
 30
0.0
 40
0.179237
 50
142.158498
 51
217.841502
  0
LINE
  8
OBJ
 62
     7
 10
2.166243
 20
4.995319
 30
0.0
 11
2.166243
 21
4.912666
 31
0.0
  0
ARC
  8
OBJ
 62
     7
 10
2.223463
 20
4.638966
 30
0.0
 40
0.057219
 50
109.954678
 51
250.045322
  0
LINE
  8
OBJ
 62
     7
 10
2.166243
 20
4.69275
 30
0.0
 11
2.166243
 21
4.610097
 31
0.0
  0
LINE
  8
OBJ
 62
     7
 10
2.166243
 20
4.610097
 30
0.0
 11
2.189463
 21
4.592943
 31
0.0
  0
ARC
  8
0
 62
     7
 10
2.031953
 20
4.251619
 30
0.0
 40
0.020776
 50
270.0
 51
313.519048
  0
LINE
  8
0
 62
     7
 10
2.046259
 20
4.236554
 30
0.0
 11
2.086259
 21
4.236554
 31
0.0
  0
LINE
  8
0
 62
     7
 10
2.031953
 20
4.230843
 30
0.0
 11
2.030581
 21
4.230843
 31
0.0
  0
LINE
  8
0
 62
     7
 10
0.826259
 20
3.586954
 30
0.0
 11
2.086259
 21
3.586954
 31
0.0
  0
LINE
  8
0
 62
     7
 10
0.826259
 20
4.230843
 30
0.0
 11
2.030581
 21
4.230843
 31
0.0
  0
LINE
  8
OBJ
 62
     7
 10
2.166243
 20
2.828188
 30
0.0
 11
2.166243
 21
2.910841
 31
0.0
  0
LINE
  8
OBJ
  6
CONTINUOUS
 62
     7
 10
2.363451
 20
2.910841
 30
0.0
 11
2.203935
 21
2.910841
 31
0.0
  0
LINE
  8
OBJ
  6
CONTINUOUS
 62
     7
 10
2.363451
 20
2.803273
 30
0.0
 11
2.203935
 21
2.803273
 31
0.0
  0
ARC
  8
OBJ
 62
     7
 10
2.223463
 20
2.857057
 30
0.0
 40
0.057219
 50
109.954678
 51
250.045322
  0
LINE
  8
OBJ
 62
     7
 10
2.166243
 20
2.828188
 30
0.0
 11
2.189463
 21
2.811034
 31
0.0
  0
LINE
  8
OBJ
 62
     7
 10
2.411259
 20
2.972406
 30
0.0
 11
2.363451
 21
2.924598
 31
0.0
  0
LINE
  8
OBJ
  6
CENTER2
 62
     7
 10
2.411259
 20
2.820603
 30
0.0
 11
2.363451
 21
2.820603
 31
0.0
  0
ARC
  8
OBJ
 62
     7
 10
2.345481
 20
3.020799
 30
0.0
 40
0.179237
 50
142.158498
 51
217.841502
  0
LINE
  8
OBJ
 62
     7
 10
2.166243
 20
2.910841
 30
0.0
 11
2.166243
 21
3.130757
 31
0.0
  0
LINE
  8
OBJ
 62
     7
 10
2.363451
 20
2.803273
 30
0.0
 11
2.363451
 21
3.238325
 31
0.0
  0
LINE
  8
0
 10
3.386901
 20
4.788716
 30
0.0
 11
2.974259
 21
5.643754
 31
0.0
  0
ARC
  8
0
 62
     7
 10
5.186259
 20
-34.043353
 30
0.0
 40
38.723106
 50
91.653317
 51
92.314199
  0
ARC
  8
0
 62
     7
 10
2.974259
 20
5.643754
 30
0.0
 40
0.256
 50
92.73599
 51
178.852861
  0
ARC
  8
0
 62
     7
 10
2.650412
 20
5.556754
 30
0.0
 40
0.06
 50
270.0
 51
355.528648
  0
LINE
  8
0
 62
     7
 10
2.627259
 20
5.496754
 30
0.0
 11
2.650412
 21
5.496754
 31
0.0
  0
ARC
  8
0
 62
     7
 10
2.981559
 20
3.911754
 30
0.0
 40
0.4023
 50
90.0
 51
270.0
  0
LINE
  8
0
 62
     7
 10
2.981559
 20
4.204951
 30
0.0
 11
2.981559
 21
3.618556
 31
0.0
  0
ARC
  8
0
 62
     7
 10
3.637967
 20
4.268481
 30
0.0
 40
0.38
 50
92.311151
 51
143.078683
  0
LINE
  8
0
 62
     7
 10
2.981559
 20
3.509454
 30
0.0
 11
3.095314
 21
3.509454
 31
0.0
  0
LINE
  8
0
 62
     7
 10
2.981559
 20
4.314054
 30
0.0
 11
3.095314
 21
4.314054
 31
0.0
  0
ARC
  8
0
 62
     7
 10
23.664529
 20
3.910029
 30
0.0
 40
21.01827
 50
175.254473
 51
179.384325
  0
LINE
  8
0
 62
     7
 10
2.627259
 20
4.102323
 30
0.0
 11
2.627259
 21
5.496754
 31
0.0
  0
ARC
  8
0
 62
     7
 10
23.664529
 20
3.910029
 30
0.0
 40
21.01827
 50
180.606118
 51
183.010153
  0
ARC
  8
OBJ
 62
     7
 10
4.466259
 20
6.176394
 30
0.0
 40
0.06
 50
100.213656
 51
180.0
  0
ARC
  8
0
 62
     7
 10
4.439646
 20
5.838519
 30
0.0
 40
0.083
 50
214.306679
 51
247.651076
  0
LINE
  8
OBJ
 62
     7
 10
4.406259
 20
6.151738
 30
0.0
 11
4.406259
 21
6.176394
 31
0.0
  0
ARC
  8
0
 62
     7
 10
4.69912
 20
5.161441
 30
0.0
 40
0.990298
 50
60.533676
 51
119.466324
  0
LINE
  8
0
 62
     7
 10
4.211981
 20
5.791738
 30
0.0
 11
4.211981
 21
6.151738
 31
0.0
  0
LINE
  8
0
 62
     7
 10
5.186259
 20
6.023638
 30
0.0
 11
5.186259
 21
5.791738
 31
0.0
  0
ARC
  8
0
 62
     7
 10
4.200259
 20
5.503785
 30
0.0
 40
0.1
 50
281.619765
 51
0.0
  0
LINE
  8
0
 62
     7
 10
4.300259
 20
5.761754
 30
0.0
 11
4.300259
 21
5.503785
 31
0.0
  0
LINE
  8
0
 62
     7
 10
4.005259
 20
3.618556
 30
0.0
 11
4.005259
 21
4.204951
 31
0.0
  0
LINE
  8
0
 62
     7
 10
5.186259
 20
3.618556
 30
0.0
 11
5.186259
 21
4.204951
 31
0.0
  0
ARC
  8
0
 62
     7
 10
5.182175
 20
-17.233497
 30
0.0
 40
23.239251
 50
92.392685
 51
95.482049
  0
ARC
  8
0
 62
     7
 10
5.186259
 20
3.911754
 30
0.0
 40
0.75
 50
59.241002
 51
90.0
  0
ARC
  8
0
 62
     7
 10
5.186259
 20
3.911754
 30
0.0
 40
0.75
 50
90.0
 51
120.758998
  0
ARC
  8
0
 62
     7
 10
4.055259
 20
3.911754
 30
0.0
 40
0.75
 50
89.016657
 51
128.739425
  0
ARC
  8
0
 62
     7
 10
5.186259
 20
3.911754
 30
0.0
 40
0.7
 50
61.856476
 51
90.0
  0
ARC
  8
0
 62
     7
 10
5.186259
 20
3.911754
 30
0.0
 40
0.7
 50
90.0
 51
118.143524
  0
ARC
  8
0
 62
     7
 10
4.055259
 20
3.911754
 30
0.0
 40
0.7
 50
91.632131
 51
123.309712
  0
LINE
  8
0
 62
     7
 10
2.725259
 20
3.333254
 30
0.0
 11
2.675259
 21
3.283254
 31
0.0
  0
LINE
  8
0
 62
     7
 10
2.725259
 20
3.333254
 30
0.0
 11
3.216259
 21
3.333254
 31
0.0
  0
LINE
  8
0
 62
     7
 10
3.137809
 20
3.821543
 30
0.0
 11
3.137809
 21
4.001964
 31
0.0
  0
LINE
  8
0
 62
     7
 10
2.981559
 20
3.731332
 30
0.0
 11
3.137809
 21
3.821543
 31
0.0
  0
LINE
  8
0
 62
     7
 10
3.137809
 20
4.001964
 30
0.0
 11
2.981559
 21
4.092176
 31
0.0
  0
LINE
  8
0
 62
     7
 10
2.825309
 20
4.001964
 30
0.0
 11
2.825309
 21
3.821543
 31
0.0
  0
LINE
  8
0
 62
     7
 10
2.981559
 20
4.092176
 30
0.0
 11
2.825309
 21
4.001964
 31
0.0
  0
ARC
  8
0
 62
     7
 10
2.981559
 20
3.911754
 30
0.0
 40
0.25
 50
20.149001
 51
339.850999
  0
ARC
  8
0
 62
     7
 10
2.981559
 20
3.911754
 30
0.0
 40
0.281
 50
33.360068
 51
326.639932
  0
LINE
  8
0
 62
     7
 10
2.825309
 20
3.821543
 30
0.0
 11
2.981559
 21
3.731332
 31
0.0
  0
LINE
  8
0
 62
     7
 10
3.216259
 20
3.490615
 30
0.0
 11
2.923077
 21
3.536281
 31
0.0
  0
LINE
  8
0
 62
     7
 10
3.216259
 20
4.332892
 30
0.0
 11
2.923077
 21
4.287226
 31
0.0
  0
ARC
  8
0
 62
     7
 10
2.981559
 20
3.911754
 30
0.0
 40
0.38
 50
98.853111
 51
261.146889
  0
LINE
  8
0
 62
     7
 10
3.422259
 20
2.753754
 30
0.0
 11
3.422259
 21
3.326754
 31
0.0
  0
LINE
  8
0
 62
     7
 10
3.216259
 20
3.326754
 30
0.0
 11
3.771931
 21
3.326754
 31
0.0
  0
ARC
  8
0
 62
     7
 10
4.055259
 20
3.911754
 30
0.0
 40
0.65
 50
204.058139
 51
270.0
  0
ARC
  8
0
 62
     7
 10
4.620759
 20
4.546348
 30
0.0
 40
0.2
 50
228.295107
 51
311.704893
  0
ARC
  8
0
 62
     7
 10
3.886228
 20
4.744777
 30
0.0
 40
0.2
 50
281.470358
 51
0.0
  0
ARC
  8
0
 62
     7
 10
4.919291
 20
4.71874
 30
0.0
 40
0.2
 50
180.0
 51
288.305297
  0
LINE
  8
0
 62
     7
 10
3.216259
 20
3.326754
 30
0.0
 11
3.771931
 21
3.326754
 31
0.0
  0
LINE
  8
0
 62
     7
 10
3.216259
 20
4.496754
 30
0.0
 11
3.771931
 21
4.496754
 31
0.0
  0
LINE
  8
0
 62
     7
 10
4.055259
 20
3.261754
 30
0.0
 11
5.186259
 21
3.261754
 31
0.0
  0
ARC
  8
0
 62
     7
 10
4.055259
 20
3.911754
 30
0.0
 40
0.65
 50
48.295107
 51
155.076706
  0
ARC
  8
0
 62
     7
 10
5.186259
 20
3.911754
 30
0.0
 40
0.65
 50
90.0
 51
131.704893
  0
LINE
  8
0
 62
     7
 10
3.216259
 20
3.326754
 30
0.0
 11
3.216259
 21
4.496754
 31
0.0
  0
LINE
  8
0
 62
     7
 10
4.559009
 20
4.851543
 30
0.0
 11
4.559009
 21
5.031964
 31
0.0
  0
LINE
  8
0
 62
     7
 10
4.246509
 20
4.851543
 30
0.0
 11
4.402759
 21
4.761332
 31
0.0
  0
LINE
  8
0
 62
     7
 10
4.402759
 20
5.122176
 30
0.0
 11
4.246509
 21
5.031964
 31
0.0
  0
LINE
  8
0
 62
     7
 10
4.246509
 20
5.031964
 30
0.0
 11
4.246509
 21
4.851543
 31
0.0
  0
LINE
  8
0
 62
     7
 10
4.402759
 20
4.761332
 30
0.0
 11
4.559009
 21
4.851543
 31
0.0
  0
LINE
  8
0
 62
     7
 10
4.559009
 20
5.031964
 30
0.0
 11
4.402759
 21
5.122176
 31
0.0
  0
LINE
  8
0
 62
     7
 10
4.086228
 20
4.941754
 30
0.0
 11
4.086228
 21
4.744777
 31
0.0
  0
CIRCLE
  8
0
 62
     7
 10
4.402759
 20
4.941754
 30
0.0
 40
0.25
  0
CIRCLE
  8
0
 62
     7
 10
4.402759
 20
4.941754
 30
0.0
 40
0.281
  0
CIRCLE
  8
0
 62
     7
 10
4.402759
 20
4.941754
 30
0.0
 40
0.316532
  0
LINE
  8
0
 62
     7
 10
4.719291
 20
4.941754
 30
0.0
 11
4.719291
 21
4.71874
 31
0.0
  0
LINE
  8
0
 62
     7
 10
7.961259
 20
2.386754
 30
0.0
 11
7.961259
 21
5.436754
 31
0.0
  0
ARC
  8
0
 62
     7
 10
-13.29201
 20
3.910029
 30
0.0
 40
21.01827
 50
355.248932
 51
359.393882
  0
LINE
  8
0
 62
     7
 10
7.745259
 20
2.326754
 30
0.0
 11
7.745259
 21
3.721184
 31
0.0
  0
LINE
  8
0
 62
     7
 10
7.697259
 20
3.283254
 30
0.0
 11
7.697259
 21
2.178254
 31
0.0
  0
LINE
  8
0
 62
     7
 10
7.647259
 20
2.128254
 30
0.0
 11
7.647259
 21
3.333254
 31
0.0
  0
ARC
  8
0
 62
     7
 10
6.290259
 20
2.753754
 30
0.0
 40
0.66
 50
270.0
 51
0.0
  0
LINE
  8
0
 10
6.290259
 20
1.741754
 30
0.0
 11
6.248493
 21
1.741754
 31
0.0
  0
LINE
  8
OBJ
 10
6.800259
 20
0.632053
 30
0.0
 11
6.800259
 21
0.211454
 31
0.0
  0
ARC
  8
OBJ
 10
6.390259
 20
0.581754
 30
0.0
 40
0.1
 50
180.0
 51
270.0
  0
ARC
  8
OBJ
 10
6.390259
 20
0.581754
 30
0.0
 40
0.22
 50
180.0
 51
270.0
  0
LINE
  8
OBJ
 10
6.170259
 20
0.581754
 30
0.0
 11
6.170259
 21
1.646821
 31
0.0
  0
LINE
  8
OBJ
 10
6.290259
 20
1.741754
 30
0.0
 11
6.290259
 21
0.581754
 31
0.0
  0
LINE
  8
OBJ
 10
7.290259
 20
0.361754
 30
0.0
 11
7.290259
 21
0.481754
 31
0.0
  0
LINE
  8
OBJ
 10
7.290259
 20
0.361754
 30
0.0
 11
6.390259
 21
0.361754
 31
0.0
  0
LINE
  8
OBJ
 10
6.390259
 20
0.481754
 30
0.0
 11
7.290259
 21
0.481754
 31
0.0
  0
LINE
  8
0
 62
     7
 10
6.250609
 20
1.745754
 30
0.0
 11
6.291259
 21
1.745754
 31
0.0
  0
LINE
  8
0
 62
     7
 10
6.170259
 20
1.646821
 30
0.0
 11
6.170259
 21
0.958754
 31
0.0
  0
LINE
  8
0
 62
     7
 10
5.777259
 20
1.158754
 30
0.0
 11
5.777259
 21
0.958754
 31
0.0
  0
LINE
  8
0
 62
     7
 10
5.777259
 20
1.158754
 30
0.0
 11
5.657259
 21
1.278754
 31
0.0
  0
LINE
  8
0
 62
     7
 10
6.170259
 20
0.958754
 30
0.0
 11
5.777259
 21
0.958754
 31
0.0
  0
LINE
  8
0
 62
     7
 10
6.291259
 20
1.745754
 30
0.0
 11
6.291259
 21
2.093754
 31
0.0
  0
ARC
  8
0
 62
     7
 10
6.331259
 20
1.847759
 30
0.0
 40
0.04
 50
90.0
 51
180.0
  0
ARC
  8
0
 62
     7
 10
7.901259
 20
2.386754
 30
0.0
 40
0.06
 50
270.0
 51
0.0
  0
LINE
  8
0
 62
     7
 10
7.901259
 20
2.326754
 30
0.0
 11
7.745259
 21
2.326754
 31
0.0
  0
ARC
  8
0
 62
     7
 10
7.398259
 20
2.179754
 30
0.0
 40
0.256
 50
272.73599
 51
357.626817
  0
ARC
  8
0
 62
     7
 10
7.722106
 20
2.266754
 30
0.0
 40
0.06
 50
90.0
 51
175.528648
  0
LINE
  8
0
 62
     7
 10
7.745259
 20
2.326754
 30
0.0
 11
7.722106
 21
2.326754
 31
0.0
  0
ARC
  8
0
 62
     7
 10
5.182175
 20
25.057004
 30
0.0
 40
23.239251
 50
272.735458
 51
275.474566
  0
LINE
  8
0
 62
     7
 10
5.969759
 20
1.711332
 30
0.0
 11
6.126009
 21
1.801543
 31
0.0
  0
LINE
  8
0
 62
     7
 10
5.813509
 20
1.801543
 30
0.0
 11
5.969759
 21
1.711332
 31
0.0
  0
LINE
  8
0
 62
     7
 10
5.813509
 20
1.981964
 30
0.0
 11
5.813509
 21
1.801543
 31
0.0
  0
LINE
  8
0
 62
     7
 10
5.969759
 20
2.072176
 30
0.0
 11
5.813509
 21
1.981964
 31
0.0
  0
LINE
  8
0
 62
     7
 10
6.126009
 20
1.981964
 30
0.0
 11
5.969759
 21
2.072176
 31
0.0
  0
LINE
  8
0
 62
     7
 10
6.126009
 20
1.801543
 30
0.0
 11
6.126009
 21
1.981964
 31
0.0
  0
CIRCLE
  8
0
 62
     7
 10
5.969759
 20
1.891754
 30
0.0
 40
0.25
  0
CIRCLE
  8
0
 62
     7
 10
5.969759
 20
1.891754
 30
0.0
 40
0.281
  0
LINE
  8
0
 62
     7
 10
7.697259
 20
2.178254
 30
0.0
 11
7.647259
 21
2.128254
 31
0.0
  0
LINE
  8
0
 62
     7
 10
7.647259
 20
2.128254
 30
0.0
 11
6.500853
 21
2.128254
 31
0.0
  0
ARC
  8
0
 62
     7
 10
5.453228
 20
2.101741
 30
0.0
 40
0.2
 50
0.0
 51
31.700091
  0
LINE
  8
0
 62
     7
 10
5.653228
 20
1.891754
 30
0.0
 11
5.653228
 21
2.101741
 31
0.0
  0
ARC
  8
0
 62
     7
 10
6.486291
 20
2.101741
 30
0.0
 40
0.2
 50
148.299909
 51
180.0
  0
LINE
  8
0
 62
     7
 10
6.290259
 20
2.093754
 30
0.0
 11
6.286291
 21
2.093754
 31
0.0
  0
LINE
  8
0
 62
     7
 10
6.286291
 20
1.891754
 30
0.0
 11
6.286291
 21
1.973063
 31
0.0
  0
LINE
  8
0
 62
     7
 10
6.286291
 20
1.891754
 30
0.0
 11
6.286291
 21
2.101741
 31
0.0
  0
ARC
  8
0
 62
     7
 10
5.969759
 20
1.891754
 30
0.0
 40
0.316532
 50
180.0
 51
0.0
  0
LINE
  8
0
 62
     7
 10
9.546259
 20
3.586954
 30
0.0
 11
8.286259
 21
3.586954
 31
0.0
  0
LINE
  8
0
 62
     7
 10
9.546259
 20
4.230843
 30
0.0
 11
8.341937
 21
4.230843
 31
0.0
  0
LINE
  8
0
 10
6.985617
 20
4.788716
 30
0.0
 11
7.398259
 21
5.643754
 31
0.0
  0
ARC
  8
OBJ
 62
     7
 10
5.906259
 20
6.176394
 30
0.0
 40
0.06
 50
0.0
 51
79.786344
  0
LINE
  8
OBJ
 62
     7
 10
5.966259
 20
6.151738
 30
0.0
 11
5.966259
 21
6.176394
 31
0.0
  0
ARC
  8
0
 62
     7
 10
5.932873
 20
5.838519
 30
0.0
 40
0.083
 50
292.348924
 51
325.693321
  0
LINE
  8
0
 62
     7
 10
6.160538
 20
5.791738
 30
0.0
 11
6.160538
 21
6.151738
 31
0.0
  0
ARC
  8
0
 62
     7
 10
6.172259
 20
5.503785
 30
0.0
 40
0.1
 50
180.0
 51
258.380235
  0
LINE
  8
0
 62
     7
 10
6.072259
 20
5.761754
 30
0.0
 11
6.072259
 21
5.503785
 31
0.0
  0
LINE
  8
0
 62
     7
 10
6.367259
 20
3.618556
 30
0.0
 11
6.367259
 21
4.204951
 31
0.0
  0
ARC
  8
0
 62
     7
 10
7.901259
 20
5.436754
 30
0.0
 40
0.06
 50
360.0
 51
90.0
  0
LINE
  8
0
 62
     7
 10
7.901259
 20
5.496754
 30
0.0
 11
7.745259
 21
5.496754
 31
0.0
  0
ARC
  8
0
 62
     7
 10
7.398259
 20
5.643754
 30
0.0
 40
0.256
 50
1.147139
 51
87.26401
  0
LINE
  8
0
 62
     7
 10
7.745259
 20
5.496754
 30
0.0
 11
7.722106
 21
5.496754
 31
0.0
  0
ARC
  8
0
 62
     7
 10
7.722106
 20
5.556754
 30
0.0
 40
0.06
 50
184.471352
 51
270.0
  0
LINE
  8
0
 62
     7
 10
8.286259
 20
4.304754
 30
0.0
 11
8.286259
 21
3.518754
 31
0.0
  0
LINE
  8
0
 62
     7
 10
8.196259
 20
4.602697
 30
0.0
 11
8.196259
 21
3.22081
 31
0.0
  0
LINE
  8
0
 62
     7
 10
8.196259
 20
3.518754
 30
0.0
 11
8.286259
 21
3.518754
 31
0.0
  0
LINE
  8
OBJ
 62
     7
 10
8.206275
 20
3.21341
 30
0.0
 11
8.183055
 21
3.230564
 31
0.0
  0
LINE
  8
OBJ
 62
     7
 10
8.206275
 20
3.130757
 30
0.0
 11
8.206275
 21
3.21341
 31
0.0
  0
ARC
  8
OBJ
 62
     7
 10
8.149056
 20
3.184541
 30
0.0
 40
0.057219
 50
289.954678
 51
70.045322
  0
LINE
  8
OBJ
  6
CONTINUOUS
 62
     7
 10
8.009067
 20
3.238325
 30
0.0
 11
8.168584
 21
3.238325
 31
0.0
  0
LINE
  8
OBJ
  6
CONTINUOUS
 62
     7
 10
8.009067
 20
3.130757
 30
0.0
 11
8.168584
 21
3.130757
 31
0.0
  0
LINE
  8
OBJ
  6
CENTER2
 62
     7
 10
7.961259
 20
3.220995
 30
0.0
 11
8.009067
 21
3.220995
 31
0.0
  0
LINE
  8
OBJ
  6
CENTER2
 62
     7
 10
7.961259
 20
5.002904
 30
0.0
 11
8.009067
 21
5.002904
 31
0.0
  0
LINE
  8
OBJ
 62
     7
 10
7.961259
 20
4.851101
 30
0.0
 11
8.009067
 21
4.898909
 31
0.0
  0
LINE
  8
OBJ
  6
CENTER2
 62
     7
 10
7.961259
 20
4.602512
 30
0.0
 11
8.009067
 21
4.602512
 31
0.0
  0
LINE
  8
OBJ
 62
     7
 10
8.206275
 20
4.995319
 30
0.0
 11
8.183055
 21
5.012473
 31
0.0
  0
ARC
  8
OBJ
 62
     7
 10
8.149056
 20
4.96645
 30
0.0
 40
0.057219
 50
289.954678
 51
70.045322
  0
LINE
  8
OBJ
 62
     7
 10
8.009067
 20
5.020234
 30
0.0
 11
8.009067
 21
4.585182
 31
0.0
  0
LINE
  8
OBJ
  6
CONTINUOUS
 62
     7
 10
8.009067
 20
5.020234
 30
0.0
 11
8.168584
 21
5.020234
 31
0.0
  0
LINE
  8
OBJ
  6
CONTINUOUS
 62
     7
 10
8.009067
 20
4.69275
 30
0.0
 11
8.168584
 21
4.69275
 31
0.0
  0
LINE
  8
OBJ
  6
CONTINUOUS
 62
     7
 10
8.009067
 20
4.585182
 30
0.0
 11
8.168584
 21
4.585182
 31
0.0
  0
LINE
  8
OBJ
  6
CONTINUOUS
 62
     7
 10
8.009067
 20
4.912666
 30
0.0
 11
8.168584
 21
4.912666
 31
0.0
  0
LINE
  8
OBJ
 62
     7
 10
8.206275
 20
4.912666
 30
0.0
 11
8.206275
 21
4.69275
 31
0.0
  0
ARC
  8
OBJ
 62
     7
 10
8.027038
 20
4.802708
 30
0.0
 40
0.179237
 50
322.158498
 51
37.841502
  0
LINE
  8
OBJ
 62
     7
 10
8.206275
 20
4.995319
 30
0.0
 11
8.206275
 21
4.912666
 31
0.0
  0
ARC
  8
OBJ
 62
     7
 10
8.149056
 20
4.638966
 30
0.0
 40
0.057219
 50
289.954678
 51
70.045322
  0
LINE
  8
OBJ
 62
     7
 10
8.206275
 20
4.69275
 30
0.0
 11
8.206275
 21
4.610097
 31
0.0
  0
LINE
  8
OBJ
 62
     7
 10
8.206275
 20
4.610097
 30
0.0
 11
8.183055
 21
4.592943
 31
0.0
  0
LINE
  8
0
 62
     7
 10
8.196259
 20
4.304754
 30
0.0
 11
8.286259
 21
4.304754
 31
0.0
  0
LINE
  8
0
 62
     7
 10
8.340565
 20
4.230843
 30
0.0
 11
8.341937
 21
4.230843
 31
0.0
  0
LINE
  8
0
 62
     7
 10
8.326259
 20
4.236554
 30
0.0
 11
8.286259
 21
4.236554
 31
0.0
  0
ARC
  8
0
 62
     7
 10
8.340565
 20
4.251619
 30
0.0
 40
0.020776
 50
226.480952
 51
270.0
  0
LINE
  8
0
 62
     7
 10
7.390959
 20
4.314054
 30
0.0
 11
7.282064
 21
4.314054
 31
0.0
  0
LINE
  8
0
 62
     7
 10
7.390959
 20
4.314054
 30
0.0
 11
7.277205
 21
4.314054
 31
0.0
  0
LINE
  8
0
 62
     7
 10
7.390959
 20
3.509454
 30
0.0
 11
7.277205
 21
3.509454
 31
0.0
  0
LINE
  8
0
 62
     7
 10
7.390959
 20
3.509454
 30
0.0
 11
7.282064
 21
3.509454
 31
0.0
  0
ARC
  8
0
 62
     7
 10
7.390959
 20
3.911754
 30
0.0
 40
0.4023
 50
270.0
 51
90.0
  0
LINE
  8
0
 62
     7
 10
7.390959
 20
4.204951
 30
0.0
 11
7.390959
 21
3.618556
 31
0.0
  0
ARC
  8
0
 62
     7
 10
-13.29201
 20
3.910029
 30
0.0
 40
21.01827
 50
0.615675
 51
4.745527
  0
LINE
  8
0
 62
     7
 10
7.745259
 20
4.102323
 30
0.0
 11
7.745259
 21
5.496754
 31
0.0
  0
ARC
  8
0
 62
     7
 10
5.182175
 20
-17.233497
 30
0.0
 40
23.239251
 50
84.525434
 51
87.587159
  0
ARC
  8
0
 62
     7
 10
6.734552
 20
4.268481
 30
0.0
 40
0.38
 50
36.921317
 51
87.688849
  0
LINE
  8
OBJ
 62
     7
 10
8.206275
 20
2.828188
 30
0.0
 11
8.206275
 21
2.910841
 31
0.0
  0
LINE
  8
OBJ
  6
CONTINUOUS
 62
     7
 10
8.009067
 20
2.910841
 30
0.0
 11
8.168584
 21
2.910841
 31
0.0
  0
LINE
  8
OBJ
  6
CONTINUOUS
 62
     7
 10
8.009067
 20
2.803273
 30
0.0
 11
8.168584
 21
2.803273
 31
0.0
  0
ARC
  8
OBJ
 62
     7
 10
8.149056
 20
2.857057
 30
0.0
 40
0.057219
 50
289.954678
 51
70.045322
  0
LINE
  8
OBJ
 62
     7
 10
8.206275
 20
2.828188
 30
0.0
 11
8.183055
 21
2.811034
 31
0.0
  0
LINE
  8
OBJ
 62
     7
 10
7.961259
 20
2.972406
 30
0.0
 11
8.009067
 21
2.924598
 31
0.0
  0
LINE
  8
OBJ
  6
CENTER2
 62
     7
 10
7.961259
 20
2.820603
 30
0.0
 11
8.009067
 21
2.820603
 31
0.0
  0
ARC
  8
OBJ
 62
     7
 10
8.027038
 20
3.020799
 30
0.0
 40
0.179237
 50
322.158498
 51
37.841502
  0
LINE
  8
OBJ
 62
     7
 10
8.206275
 20
2.910841
 30
0.0
 11
8.206275
 21
3.130757
 31
0.0
  0
LINE
  8
OBJ
 62
     7
 10
8.009067
 20
2.803273
 30
0.0
 11
8.009067
 21
3.238325
 31
0.0
  0
ARC
  8
0
 62
     7
 10
5.186259
 20
-34.043353
 30
0.0
 40
38.723106
 50
87.685801
 51
88.346683
  0
ARC
  8
0
 62
     7
 10
6.317259
 20
3.911754
 30
0.0
 40
0.75
 50
51.260575
 51
90.983343
  0
LINE
  8
0
 62
     7
 10
7.647259
 20
3.333254
 30
0.0
 11
7.697259
 21
3.283254
 31
0.0
  0
LINE
  8
0
 62
     7
 10
7.647259
 20
3.333254
 30
0.0
 11
7.156259
 21
3.333254
 31
0.0
  0
LINE
  8
0
 62
     7
 10
7.156259
 20
3.490615
 30
0.0
 11
7.449442
 21
3.536281
 31
0.0
  0
LINE
  8
0
 62
     7
 10
7.547209
 20
3.821543
 30
0.0
 11
7.390959
 21
3.731332
 31
0.0
  0
LINE
  8
0
 62
     7
 10
7.390959
 20
3.731332
 30
0.0
 11
7.234709
 21
3.821543
 31
0.0
  0
LINE
  8
0
 62
     7
 10
7.390959
 20
4.092176
 30
0.0
 11
7.547209
 21
4.001964
 31
0.0
  0
LINE
  8
0
 62
     7
 10
7.234709
 20
4.001964
 30
0.0
 11
7.390959
 21
4.092176
 31
0.0
  0
LINE
  8
0
 62
     7
 10
7.547209
 20
4.001964
 30
0.0
 11
7.547209
 21
3.821543
 31
0.0
  0
LINE
  8
0
 62
     7
 10
7.234709
 20
3.821543
 30
0.0
 11
7.234709
 21
4.001964
 31
0.0
  0
ARC
  8
0
 62
     7
 10
7.390959
 20
3.911754
 30
0.0
 40
0.25
 50
200.149001
 51
159.850999
  0
ARC
  8
0
 62
     7
 10
7.390959
 20
3.911754
 30
0.0
 40
0.281
 50
213.360068
 51
146.639932
  0
ARC
  8
0
 62
     7
 10
7.390959
 20
3.911754
 30
0.0
 40
0.38
 50
278.853111
 51
81.146889
  0
LINE
  8
0
 62
     7
 10
7.156259
 20
4.332892
 30
0.0
 11
7.449442
 21
4.287226
 31
0.0
  0
ARC
  8
0
 62
     7
 10
6.317259
 20
3.911754
 30
0.0
 40
0.7
 50
56.690288
 51
88.367869
  0
LINE
  8
0
 62
     7
 10
7.156259
 20
4.496754
 30
0.0
 11
6.600588
 21
4.496754
 31
0.0
  0
LINE
  8
0
 62
     7
 10
7.156259
 20
3.326754
 30
0.0
 11
6.600588
 21
3.326754
 31
0.0
  0
LINE
  8
0
 62
     7
 10
7.156259
 20
3.326754
 30
0.0
 11
6.600588
 21
3.326754
 31
0.0
  0
LINE
  8
0
 62
     7
 10
7.156259
 20
3.326754
 30
0.0
 11
7.156259
 21
4.496754
 31
0.0
  0
LINE
  8
0
 62
     7
 10
5.813509
 20
4.851543
 30
0.0
 11
5.813509
 21
5.031964
 31
0.0
  0
LINE
  8
0
 62
     7
 10
5.969759
 20
5.122176
 30
0.0
 11
6.126009
 21
5.031964
 31
0.0
  0
LINE
  8
0
 62
     7
 10
6.126009
 20
5.031964
 30
0.0
 11
6.126009
 21
4.851543
 31
0.0
  0
LINE
  8
0
 62
     7
 10
6.126009
 20
4.851543
 30
0.0
 11
5.969759
 21
4.761332
 31
0.0
  0
LINE
  8
0
 62
     7
 10
5.813509
 20
5.031964
 30
0.0
 11
5.969759
 21
5.122176
 31
0.0
  0
LINE
  8
0
 62
     7
 10
5.969759
 20
4.761332
 30
0.0
 11
5.813509
 21
4.851543
 31
0.0
  0
ARC
  8
0
 62
     7
 10
5.751759
 20
4.546348
 30
0.0
 40
0.2
 50
228.295107
 51
311.704893
  0
CIRCLE
  8
0
 62
     7
 10
5.969759
 20
4.941754
 30
0.0
 40
0.25
  0
LINE
  8
0
 62
     7
 10
5.653228
 20
4.941754
 30
0.0
 11
5.653228
 21
4.71874
 31
0.0
  0
ARC
  8
0
 62
     7
 10
6.486291
 20
4.744777
 30
0.0
 40
0.2
 50
180.0
 51
258.529642
  0
LINE
  8
0
 62
     7
 10
6.286291
 20
4.941754
 30
0.0
 11
6.286291
 21
4.744777
 31
0.0
  0
CIRCLE
  8
0
 62
     7
 10
5.969759
 20
4.941754
 30
0.0
 40
0.316532
  0
CIRCLE
  8
0
 62
     7
 10
5.969759
 20
4.941754
 30
0.0
 40
0.281
  0
LINE
  8
0
 62
     7
 10
6.950259
 20
2.753754
 30
0.0
 11
6.950259
 21
3.326754
 31
0.0
  0
ARC
  8
0
 62
     7
 10
6.317259
 20
3.911754
 30
0.0
 40
0.65
 50
270.0
 51
335.941861
  0
ARC
  8
0
 62
     7
 10
6.317259
 20
3.911754
 30
0.0
 40
0.65
 50
24.923294
 51
131.704893
  0
LINE
  8
0
 62
     7
 10
9.546259
 20
3.586954
 30
0.0
 11
9.576259
 21
3.616954
 31
0.0
  0
LINE
  8
0
 62
     7
 10
9.576259
 20
4.200843
 30
0.0
 11
9.546259
 21
4.230843
 31
0.0
  0
LINE
  8
0
 62
     7
 10
9.546259
 20
3.586954
 30
0.0
 11
9.546259
 21
4.230843
 31
0.0
  0
LINE
  8
OBJ
 62
     7
 10
9.576259
 20
4.200843
 30
0.0
 11
9.576259
 21
3.616954
 31
0.0
  0
LINE
  8
0
 10
11.564782
 20
3.511754
 30
0.0
 11
11.564782
 21
4.311754
 31
0.0
  0
LINE
  8
0
 10
11.564782
 20
13.607498
 30
0.0
 11
11.564782
 21
14.761998
 31
0.0
  0
LINE
  8
0
 10
11.564782
 20
11.976498
 30
0.0
 11
11.564782
 21
12.791998
 31
0.0
  0
LINE
  8
0
 10
11.564782
 20
11.976498
 30
0.0
 11
11.564782
 21
10.821998
 31
0.0
  0
LINE
  8
0
 10
11.564782
 20
13.607498
 30
0.0
 11
11.564782
 21
12.791998
 31
0.0
  0
LINE
  8
0
 10
20.909282
 20
1.741754
 30
0.0
 11
15.119282
 21
1.741754
 31
0.0
  0
LINE
  8
0
 10
21.029282
 20
0.481754
 30
0.0
 11
14.999282
 21
0.481754
 31
0.0
  0
LINE
  8
0
 10
21.029282
 20
0.361754
 30
0.0
 11
14.999282
 21
0.361754
 31
0.0
  0
LINE
  8
0
 10
17.174778
 20
1.767749
 30
0.0
 11
18.853787
 21
1.767749
 31
0.0
  0
ARC
  8
0
 10
21.506169
 20
19.381571
 30
0.0
 40
17.579614
 50
249.882709
 51
267.856935
  0
ARC
  8
0
 10
15.549641
 20
11.164285
 30
0.0
 40
6.008727
 50
276.069579
 51
292.77137
  0
CIRCLE
  8
0
 10
19.195282
 20
3.911754
 30
0.0
 40
1.585
  0
ARC
  8
0
 10
17.737396
 20
5.838519
 30
0.0
 40
0.083
 50
292.348924
 51
325.693321
  0
ARC
  8
OBJ
 10
17.710782
 20
6.176394
 30
0.0
 40
0.06
 50
0.0
 51
79.786344
  0
LINE
  8
OBJ
  6
CONTINUOUS
 10
17.542527
 20
6.151738
 30
0.0
 11
17.970781
 21
6.151738
 31
0.0
  0
ARC
  8
OBJ
 10
17.8184
 20
5.790633
 30
0.0
 40
0.361106
 50
40.184879
 51
139.815121
  0
LINE
  8
OBJ
  6
CONTINUOUS
 10
15.887292
 20
5.791738
 30
0.0
 11
18.094272
 21
5.791738
 31
0.0
  0
LINE
  8
0
 10
16.104782
 20
5.761754
 30
0.0
 11
17.876782
 21
5.761754
 31
0.0
  0
LINE
  8
0
 10
14.815003
 20
2.506524
 30
0.0
 11
14.815003
 21
2.378254
 31
0.0
  0
ARC
  8
0
 10
12.746782
 20
2.541754
 30
0.0
 40
0.5
 50
180.0
 51
270.0
  0
LINE
  8
0
 10
13.514782
 20
2.041754
 30
0.0
 11
13.514782
 21
4.561754
 31
0.0
  0
CIRCLE
  8
0
 10
14.255782
 20
2.730754
 30
0.0
 40
0.355
  0
LINE
  8
0
 10
13.653282
 20
2.18772
 30
0.0
 11
13.653282
 21
4.611754
 31
0.0
  0
CIRCLE
  8
0
 10
14.255782
 20
2.730754
 30
0.0
 40
0.6025
  0
LINE
  8
0
 10
15.651782
 20
2.738352
 30
0.0
 11
15.651782
 21
0.958754
 31
0.0
  0
ARC
  8
0
 10
14.565003
 20
2.378254
 30
0.0
 40
0.25
 50
270.0
 51
0.0
  0
LINE
  8
0
 10
13.783282
 20
1.698754
 30
0.0
 11
12.834782
 21
1.698754
 31
0.0
  0
LINE
  8
0
 10
13.783282
 20
2.084754
 30
0.0
 11
13.514782
 21
2.084754
 31
0.0
  0
LINE
  8
0
 10
13.284782
 20
1.698754
 30
0.0
 11
13.284782
 21
2.041754
 31
0.0
  0
LINE
  8
0
 10
13.344782
 20
1.698754
 30
0.0
 11
13.344782
 21
2.041754
 31
0.0
  0
LINE
  8
0
 10
13.314782
 20
1.728754
 30
0.0
 11
13.314782
 21
2.041754
 31
0.0
  0
LINE
  8
0
 10
13.374782
 20
1.728754
 30
0.0
 11
13.374782
 21
2.041754
 31
0.0
  0
LINE
  8
0
 10
13.404782
 20
1.698754
 30
0.0
 11
13.404782
 21
2.041754
 31
0.0
  0
LINE
  8
0
 10
13.434782
 20
1.728754
 30
0.0
 11
13.434782
 21
2.041754
 31
0.0
  0
LINE
  8
0
 10
13.464782
 20
1.698754
 30
0.0
 11
13.464782
 21
2.041754
 31
0.0
  0
LINE
  8
0
 10
13.494782
 20
1.728754
 30
0.0
 11
13.494782
 21
2.041754
 31
0.0
  0
LINE
  8
0
 10
13.524782
 20
1.698754
 30
0.0
 11
13.524782
 21
2.084754
 31
0.0
  0
LINE
  8
0
 10
13.554782
 20
1.728754
 30
0.0
 11
13.554782
 21
2.054754
 31
0.0
  0
LINE
  8
0
 10
13.584782
 20
1.698754
 30
0.0
 11
13.584782
 21
2.084754
 31
0.0
  0
LINE
  8
0
 10
13.614782
 20
1.728754
 30
0.0
 11
13.614782
 21
2.054754
 31
0.0
  0
LINE
  8
0
 10
13.644782
 20
1.698754
 30
0.0
 11
13.644782
 21
2.084754
 31
0.0
  0
LINE
  8
0
 10
13.674782
 20
1.728754
 30
0.0
 11
13.674782
 21
2.054754
 31
0.0
  0
LINE
  8
0
 10
13.704782
 20
1.698754
 30
0.0
 11
13.704782
 21
2.084754
 31
0.0
  0
LINE
  8
0
 10
13.734782
 20
1.728754
 30
0.0
 11
13.734782
 21
2.054754
 31
0.0
  0
LINE
  8
0
 10
13.764782
 20
1.698754
 30
0.0
 11
13.764782
 21
2.084754
 31
0.0
  0
LINE
  8
0
 10
14.304782
 20
1.698754
 30
0.0
 11
14.304782
 21
2.084754
 31
0.0
  0
LINE
  8
0
 10
14.334782
 20
1.728754
 30
0.0
 11
14.334782
 21
2.054754
 31
0.0
  0
LINE
  8
0
 10
14.316082
 20
2.084754
 30
0.0
 11
14.366082
 21
2.034754
 31
0.0
  0
LINE
  8
0
 10
14.366082
 20
1.748754
 30
0.0
 11
14.366082
 21
2.034754
 31
0.0
  0
LINE
  8
0
 10
14.366082
 20
1.748754
 30
0.0
 11
14.316082
 21
1.698754
 31
0.0
  0
LINE
  8
0
 10
14.364782
 20
1.747454
 30
0.0
 11
14.364782
 21
2.036054
 31
0.0
  0
LINE
  8
0
 10
11.811082
 20
1.616164
 30
0.0
 11
11.811082
 21
2.167344
 31
0.0
  0
LINE
  8
0
 10
11.850452
 20
1.576794
 30
0.0
 11
11.850452
 21
2.206714
 31
0.0
  0
LINE
  8
0
 10
11.850452
 20
1.576794
 30
0.0
 11
12.204782
 21
1.576794
 31
0.0
  0
LINE
  8
0
 10
11.811082
 20
1.616164
 30
0.0
 11
11.850452
 21
1.576794
 31
0.0
  0
LINE
  8
0
 10
12.304782
 20
2.025694
 30
0.0
 11
12.204782
 21
1.862685
 31
0.0
  0
LINE
  8
0
 10
11.850452
 20
2.206714
 30
0.0
 11
11.811082
 21
2.167344
 31
0.0
  0
LINE
  8
0
 10
11.850452
 20
2.206714
 30
0.0
 11
12.204782
 21
2.206714
 31
0.0
  0
LINE
  8
0
 10
12.204782
 20
2.246754
 30
0.0
 11
12.304782
 21
2.246754
 31
0.0
  0
LINE
  8
0
 10
12.204782
 20
1.536754
 30
0.0
 11
12.304782
 21
1.536754
 31
0.0
  0
LINE
  8
0
 10
12.304782
 20
1.536754
 30
0.0
 11
12.304782
 21
2.246754
 31
0.0
  0
LINE
  8
0
 10
12.204782
 20
1.536754
 30
0.0
 11
12.204782
 21
2.246754
 31
0.0
  0
LINE
  8
0
 10
11.850452
 20
2.176714
 30
0.0
 11
12.204782
 21
2.176714
 31
0.0
  0
LINE
  8
0
 10
11.850452
 20
2.146714
 30
0.0
 11
12.204782
 21
2.146714
 31
0.0
  0
LINE
  8
0
 10
11.850452
 20
2.116714
 30
0.0
 11
12.204782
 21
2.116714
 31
0.0
  0
LINE
  8
0
 10
11.850452
 20
2.086714
 30
0.0
 11
12.204782
 21
2.086714
 31
0.0
  0
LINE
  8
0
 10
11.850452
 20
2.056714
 30
0.0
 11
12.204782
 21
2.056714
 31
0.0
  0
LINE
  8
0
 10
11.850452
 20
2.026714
 30
0.0
 11
12.204782
 21
2.026714
 31
0.0
  0
LINE
  8
0
 10
11.850452
 20
1.996714
 30
0.0
 11
12.204782
 21
1.996714
 31
0.0
  0
LINE
  8
0
 10
11.850452
 20
1.966714
 30
0.0
 11
12.204782
 21
1.966714
 31
0.0
  0
LINE
  8
0
 10
11.850452
 20
1.936714
 30
0.0
 11
12.204782
 21
1.936714
 31
0.0
  0
LINE
  8
0
 10
11.850452
 20
1.906714
 30
0.0
 11
12.204782
 21
1.906714
 31
0.0
  0
LINE
  8
0
 10
11.850452
 20
1.876714
 30
0.0
 11
12.204782
 21
1.876714
 31
0.0
  0
LINE
  8
0
 10
11.850452
 20
1.846714
 30
0.0
 11
12.204782
 21
1.846714
 31
0.0
  0
LINE
  8
0
 10
11.850452
 20
1.816714
 30
0.0
 11
12.204782
 21
1.816714
 31
0.0
  0
LINE
  8
0
 10
11.850452
 20
1.786714
 30
0.0
 11
12.204782
 21
1.786714
 31
0.0
  0
LINE
  8
0
 10
11.850452
 20
1.756714
 30
0.0
 11
12.204782
 21
1.756714
 31
0.0
  0
LINE
  8
0
 10
11.850452
 20
1.726714
 30
0.0
 11
12.204782
 21
1.726714
 31
0.0
  0
LINE
  8
0
 10
11.850452
 20
1.696714
 30
0.0
 11
12.204782
 21
1.696714
 31
0.0
  0
LINE
  8
0
 10
11.850452
 20
1.666714
 30
0.0
 11
12.204782
 21
1.666714
 31
0.0
  0
LINE
  8
0
 10
11.850452
 20
1.636714
 30
0.0
 11
12.204782
 21
1.636714
 31
0.0
  0
LINE
  8
0
 10
11.850452
 20
1.606714
 30
0.0
 11
12.204782
 21
1.606714
 31
0.0
  0
LINE
  8
0
 10
14.316082
 20
2.084754
 30
0.0
 11
14.302958
 21
2.084754
 31
0.0
  0
LINE
  8
0
 10
14.316082
 20
1.698754
 30
0.0
 11
14.293282
 21
1.698754
 31
0.0
  0
LINE
  8
0
 10
14.342954
 20
2.128254
 30
0.0
 11
14.565003
 21
2.128254
 31
0.0
  0
LINE
  8
0
 10
14.255782
 20
2.128254
 30
0.0
 11
14.255782
 21
2.128254
 31
0.0
  0
ARC
  8
0
 10
13.683282
 20
2.08772
 30
0.0
 40
0.1
 50
0.0
 51
90.0
  0
LINE
  8
0
 10
13.653282
 20
2.18772
 30
0.0
 11
13.683282
 21
2.18772
 31
0.0
  0
LINE
  8
0
 10
13.514782
 20
2.211754
 30
0.0
 11
13.653282
 21
2.211754
 31
0.0
  0
ARC
  8
0
 10
12.204782
 20
2.28439
 30
0.0
 40
0.1
 50
0.0
 51
25.400262
  0
ARC
  8
0
 10
14.393282
 20
2.041841
 30
0.0
 40
0.1
 50
101.287344
 51
180.0
  0
ARC
  8
0
 10
12.934782
 20
1.941754
 30
0.0
 40
0.1
 50
90.0
 51
180.0
  0
ARC
  8
0
 10
12.284782
 20
2.303099
 30
0.0
 40
0.02
 50
0.0
 51
27.319443
  0
LINE
  8
0
 10
14.293282
 20
2.041841
 30
0.0
 11
14.293282
 21
1.575222
 31
0.0
  0
LINE
  8
0
 10
13.783282
 20
2.08772
 30
0.0
 11
13.783282
 21
1.575222
 31
0.0
  0
LINE
  8
0
 10
13.783282
 20
1.575222
 30
0.0
 11
14.293282
 21
1.575222
 31
0.0
  0
LINE
  8
0
 10
12.834782
 20
1.941754
 30
0.0
 11
12.834782
 21
1.536754
 31
0.0
  0
LINE
  8
0
 10
12.304782
 20
2.28439
 30
0.0
 11
12.304782
 21
1.575222
 31
0.0
  0
LINE
  8
0
 10
12.834782
 20
1.536754
 30
0.0
 11
12.304782
 21
1.536754
 31
0.0
  0
LINE
  8
0
 10
12.746782
 20
2.041754
 30
0.0
 11
13.514782
 21
2.041754
 31
0.0
  0
ARC
  8
0
 10
15.119282
 20
1.621754
 30
0.0
 40
0.12
 50
90.0
 51
180.0
  0
LINE
  8
0
 10
14.999282
 20
1.621754
 30
0.0
 11
14.999282
 21
0.361754
 31
0.0
  0
CIRCLE
  8
0
 10
16.045782
 20
1.431754
 30
0.0
 40
0.167
  0
LINE
  8
0
 10
16.045782
 20
1.356165
 30
0.0
 11
16.045782
 21
0.577666
 31
0.0
  0
LINE
  8
0
 10
16.488782
 20
1.081754
 30
0.0
 11
16.478782
 21
1.081754
 31
0.0
  0
LINE
  8
0
 10
16.448782
 20
1.051754
 30
0.0
 11
16.448782
 21
0.958754
 31
0.0
  0
ARC
  8
0
 10
16.478782
 20
1.051754
 30
0.0
 40
0.03
 50
90.0
 51
180.0
  0
LINE
  8
0
 10
16.645782
 20
1.238754
 30
0.0
 11
16.645782
 21
0.958754
 31
0.0
  0
LINE
  8
0
 10
16.488782
 20
1.081754
 30
0.0
 11
17.174778
 21
1.767749
 31
0.0
  0
LINE
  8
0
 10
15.651782
 20
1.745754
 30
0.0
 11
17.152782
 21
1.745754
 31
0.0
  0
LINE
  8
0
 10
16.645782
 20
0.958754
 30
0.0
 11
15.651782
 21
0.958754
 31
0.0
  0
LINE
  8
0
 10
14.293282
 20
4.661754
 30
0.0
 11
14.864782
 21
4.661754
 31
0.0
  0
LINE
  8
0
 10
14.222282
 20
3.491754
 30
0.0
 11
14.864782
 21
3.491754
 31
0.0
  0
LINE
  8
0
 10
14.222282
 20
4.331754
 30
0.0
 11
14.864782
 21
4.331754
 31
0.0
  0
LINE
  8
0
 10
13.728582
 20
3.636164
 30
0.0
 11
13.728582
 21
4.187344
 31
0.0
  0
LINE
  8
0
 10
13.767952
 20
3.596794
 30
0.0
 11
13.767952
 21
4.226714
 31
0.0
  0
LINE
  8
0
 10
13.767952
 20
3.596794
 30
0.0
 11
14.122282
 21
3.596794
 31
0.0
  0
LINE
  8
0
 10
13.728582
 20
3.636164
 30
0.0
 11
13.767952
 21
3.596794
 31
0.0
  0
LINE
  8
0
 10
14.222282
 20
4.045694
 30
0.0
 11
14.122282
 21
3.882685
 31
0.0
  0
LINE
  8
0
 10
13.767952
 20
4.226714
 30
0.0
 11
13.728582
 21
4.187344
 31
0.0
  0
LINE
  8
0
 10
13.767952
 20
4.226714
 30
0.0
 11
14.122282
 21
4.226714
 31
0.0
  0
LINE
  8
0
 10
14.122282
 20
4.266754
 30
0.0
 11
14.222282
 21
4.266754
 31
0.0
  0
LINE
  8
0
 10
14.122282
 20
3.556754
 30
0.0
 11
14.222282
 21
3.556754
 31
0.0
  0
LINE
  8
0
 10
14.222282
 20
3.556754
 30
0.0
 11
14.222282
 21
4.266754
 31
0.0
  0
LINE
  8
0
 10
14.122282
 20
3.556754
 30
0.0
 11
14.122282
 21
4.266754
 31
0.0
  0
LINE
  8
0
 10
13.767952
 20
4.196714
 30
0.0
 11
14.122282
 21
4.196714
 31
0.0
  0
LINE
  8
0
 10
13.767952
 20
4.166714
 30
0.0
 11
14.122282
 21
4.166714
 31
0.0
  0
LINE
  8
0
 10
13.767952
 20
4.136714
 30
0.0
 11
14.122282
 21
4.136714
 31
0.0
  0
LINE
  8
0
 10
13.767952
 20
4.106714
 30
0.0
 11
14.122282
 21
4.106714
 31
0.0
  0
LINE
  8
0
 10
13.767952
 20
4.076714
 30
0.0
 11
14.122282
 21
4.076714
 31
0.0
  0
LINE
  8
0
 10
13.767952
 20
4.046714
 30
0.0
 11
14.122282
 21
4.046714
 31
0.0
  0
LINE
  8
0
 10
13.767952
 20
4.016714
 30
0.0
 11
14.122282
 21
4.016714
 31
0.0
  0
LINE
  8
0
 10
13.767952
 20
3.986714
 30
0.0
 11
14.122282
 21
3.986714
 31
0.0
  0
LINE
  8
0
 10
13.767952
 20
3.956714
 30
0.0
 11
14.122282
 21
3.956714
 31
0.0
  0
LINE
  8
0
 10
13.767952
 20
3.926714
 30
0.0
 11
14.122282
 21
3.926714
 31
0.0
  0
LINE
  8
0
 10
13.767952
 20
3.896714
 30
0.0
 11
14.122282
 21
3.896714
 31
0.0
  0
LINE
  8
0
 10
13.767952
 20
3.866714
 30
0.0
 11
14.122282
 21
3.866714
 31
0.0
  0
LINE
  8
0
 10
13.767952
 20
3.836714
 30
0.0
 11
14.122282
 21
3.836714
 31
0.0
  0
LINE
  8
0
 10
13.767952
 20
3.806714
 30
0.0
 11
14.122282
 21
3.806714
 31
0.0
  0
LINE
  8
0
 10
13.767952
 20
3.776714
 30
0.0
 11
14.122282
 21
3.776714
 31
0.0
  0
LINE
  8
0
 10
13.767952
 20
3.746714
 30
0.0
 11
14.122282
 21
3.746714
 31
0.0
  0
LINE
  8
0
 10
13.767952
 20
3.716714
 30
0.0
 11
14.122282
 21
3.716714
 31
0.0
  0
LINE
  8
0
 10
13.767952
 20
3.686714
 30
0.0
 11
14.122282
 21
3.686714
 31
0.0
  0
LINE
  8
0
 10
13.767952
 20
3.656714
 30
0.0
 11
14.122282
 21
3.656714
 31
0.0
  0
LINE
  8
0
 10
13.767952
 20
3.626714
 30
0.0
 11
14.122282
 21
3.626714
 31
0.0
  0
LINE
  8
0
 10
13.783282
 20
4.748754
 30
0.0
 11
12.834782
 21
4.748754
 31
0.0
  0
LINE
  8
0
 10
13.783282
 20
5.134754
 30
0.0
 11
12.834782
 21
5.134754
 31
0.0
  0
LINE
  8
0
 10
13.284782
 20
4.748754
 30
0.0
 11
13.284782
 21
5.134754
 31
0.0
  0
LINE
  8
0
 10
13.344782
 20
4.748754
 30
0.0
 11
13.344782
 21
5.134754
 31
0.0
  0
LINE
  8
0
 10
13.314782
 20
4.778754
 30
0.0
 11
13.314782
 21
5.104754
 31
0.0
  0
LINE
  8
0
 10
13.374782
 20
4.778754
 30
0.0
 11
13.374782
 21
5.104754
 31
0.0
  0
LINE
  8
0
 10
13.404782
 20
4.748754
 30
0.0
 11
13.404782
 21
5.134754
 31
0.0
  0
LINE
  8
0
 10
13.434782
 20
4.778754
 30
0.0
 11
13.434782
 21
5.104754
 31
0.0
  0
LINE
  8
0
 10
13.464782
 20
4.748754
 30
0.0
 11
13.464782
 21
5.134754
 31
0.0
  0
LINE
  8
0
 10
13.494782
 20
4.778754
 30
0.0
 11
13.494782
 21
5.104754
 31
0.0
  0
LINE
  8
0
 10
13.524782
 20
4.748754
 30
0.0
 11
13.524782
 21
5.134754
 31
0.0
  0
LINE
  8
0
 10
13.554782
 20
4.778754
 30
0.0
 11
13.554782
 21
5.104754
 31
0.0
  0
LINE
  8
0
 10
13.584782
 20
4.748754
 30
0.0
 11
13.584782
 21
5.134754
 31
0.0
  0
LINE
  8
0
 10
13.614782
 20
4.778754
 30
0.0
 11
13.614782
 21
5.104754
 31
0.0
  0
LINE
  8
0
 10
13.644782
 20
4.748754
 30
0.0
 11
13.644782
 21
5.134754
 31
0.0
  0
LINE
  8
0
 10
13.674782
 20
4.778754
 30
0.0
 11
13.674782
 21
5.104754
 31
0.0
  0
LINE
  8
0
 10
13.704782
 20
4.748754
 30
0.0
 11
13.704782
 21
5.134754
 31
0.0
  0
LINE
  8
0
 10
13.734782
 20
4.778754
 30
0.0
 11
13.734782
 21
5.104754
 31
0.0
  0
LINE
  8
0
 10
13.764782
 20
4.748754
 30
0.0
 11
13.764782
 21
5.134754
 31
0.0
  0
LINE
  8
0
 10
14.304782
 20
4.748754
 30
0.0
 11
14.304782
 21
5.134754
 31
0.0
  0
LINE
  8
0
 10
14.334782
 20
4.778754
 30
0.0
 11
14.334782
 21
5.104754
 31
0.0
  0
LINE
  8
0
 10
14.316082
 20
5.134754
 30
0.0
 11
14.366082
 21
5.084754
 31
0.0
  0
LINE
  8
0
 10
14.366082
 20
4.798754
 30
0.0
 11
14.366082
 21
5.084754
 31
0.0
  0
LINE
  8
0
 10
14.366082
 20
4.798754
 30
0.0
 11
14.316082
 21
4.748754
 31
0.0
  0
LINE
  8
0
 10
14.364782
 20
4.797454
 30
0.0
 11
14.364782
 21
5.086054
 31
0.0
  0
LINE
  8
0
 10
11.811082
 20
4.666164
 30
0.0
 11
11.811082
 21
5.217344
 31
0.0
  0
LINE
  8
0
 10
11.850452
 20
4.626794
 30
0.0
 11
11.850452
 21
5.256714
 31
0.0
  0
LINE
  8
0
 10
11.850452
 20
4.626794
 30
0.0
 11
12.204782
 21
4.626794
 31
0.0
  0
LINE
  8
0
 10
11.811082
 20
4.666164
 30
0.0
 11
11.850452
 21
4.626794
 31
0.0
  0
LINE
  8
0
 10
12.304782
 20
5.075694
 30
0.0
 11
12.204782
 21
4.912685
 31
0.0
  0
LINE
  8
0
 10
11.850452
 20
5.256714
 30
0.0
 11
11.811082
 21
5.217344
 31
0.0
  0
LINE
  8
0
 10
11.850452
 20
5.256714
 30
0.0
 11
12.204782
 21
5.256714
 31
0.0
  0
LINE
  8
0
 10
12.204782
 20
5.296754
 30
0.0
 11
12.304782
 21
5.296754
 31
0.0
  0
LINE
  8
0
 10
12.204782
 20
4.586754
 30
0.0
 11
12.304782
 21
4.586754
 31
0.0
  0
LINE
  8
0
 10
12.304782
 20
4.586754
 30
0.0
 11
12.304782
 21
5.296754
 31
0.0
  0
LINE
  8
0
 10
12.204782
 20
4.586754
 30
0.0
 11
12.204782
 21
5.296754
 31
0.0
  0
LINE
  8
0
 10
11.850452
 20
5.226714
 30
0.0
 11
12.204782
 21
5.226714
 31
0.0
  0
LINE
  8
0
 10
11.850452
 20
5.196714
 30
0.0
 11
12.204782
 21
5.196714
 31
0.0
  0
LINE
  8
0
 10
11.850452
 20
5.166714
 30
0.0
 11
12.204782
 21
5.166714
 31
0.0
  0
LINE
  8
0
 10
11.850452
 20
5.136714
 30
0.0
 11
12.204782
 21
5.136714
 31
0.0
  0
LINE
  8
0
 10
11.850452
 20
5.106714
 30
0.0
 11
12.204782
 21
5.106714
 31
0.0
  0
LINE
  8
0
 10
11.850452
 20
5.076714
 30
0.0
 11
12.204782
 21
5.076714
 31
0.0
  0
LINE
  8
0
 10
11.850452
 20
5.046714
 30
0.0
 11
12.204782
 21
5.046714
 31
0.0
  0
LINE
  8
0
 10
11.850452
 20
5.016714
 30
0.0
 11
12.204782
 21
5.016714
 31
0.0
  0
LINE
  8
0
 10
11.850452
 20
4.986714
 30
0.0
 11
12.204782
 21
4.986714
 31
0.0
  0
LINE
  8
0
 10
11.850452
 20
4.956714
 30
0.0
 11
12.204782
 21
4.956714
 31
0.0
  0
LINE
  8
0
 10
11.850452
 20
4.926714
 30
0.0
 11
12.204782
 21
4.926714
 31
0.0
  0
LINE
  8
0
 10
11.850452
 20
4.896714
 30
0.0
 11
12.204782
 21
4.896714
 31
0.0
  0
LINE
  8
0
 10
11.850452
 20
4.866714
 30
0.0
 11
12.204782
 21
4.866714
 31
0.0
  0
LINE
  8
0
 10
11.850452
 20
4.836714
 30
0.0
 11
12.204782
 21
4.836714
 31
0.0
  0
LINE
  8
0
 10
11.850452
 20
4.806714
 30
0.0
 11
12.204782
 21
4.806714
 31
0.0
  0
LINE
  8
0
 10
11.850452
 20
4.776714
 30
0.0
 11
12.204782
 21
4.776714
 31
0.0
  0
LINE
  8
0
 10
11.850452
 20
4.746714
 30
0.0
 11
12.204782
 21
4.746714
 31
0.0
  0
LINE
  8
0
 10
11.850452
 20
4.716714
 30
0.0
 11
12.204782
 21
4.716714
 31
0.0
  0
LINE
  8
0
 10
11.850452
 20
4.686714
 30
0.0
 11
12.204782
 21
4.686714
 31
0.0
  0
LINE
  8
0
 10
11.850452
 20
4.656714
 30
0.0
 11
12.204782
 21
4.656714
 31
0.0
  0
LINE
  8
0
 10
14.316082
 20
5.134754
 30
0.0
 11
14.293282
 21
5.134754
 31
0.0
  0
LINE
  8
0
 10
14.316082
 20
4.748754
 30
0.0
 11
14.293282
 21
4.748754
 31
0.0
  0
LINE
  8
0
 10
13.514782
 20
3.249754
 30
0.0
 11
13.653282
 21
3.249754
 31
0.0
  0
LINE
  8
0
 10
13.514782
 20
3.391754
 30
0.0
 11
13.653282
 21
3.391754
 31
0.0
  0
LINE
  8
0
 10
13.514782
 20
4.431754
 30
0.0
 11
13.653282
 21
4.431754
 31
0.0
  0
ARC
  8
0
 10
12.146782
 20
3.161754
 30
0.0
 40
0.1
 50
0.0
 51
90.0
  0
LINE
  8
0
 10
12.246782
 20
2.541754
 30
0.0
 11
12.246782
 21
3.161754
 31
0.0
  0
LINE
  8
0
 10
12.834782
 20
4.561754
 30
0.0
 11
13.514782
 21
4.561754
 31
0.0
  0
LINE
  8
0
 10
12.834782
 20
5.296754
 30
0.0
 11
12.304782
 21
5.296754
 31
0.0
  0
LINE
  8
0
 10
12.304782
 20
4.511754
 30
0.0
 11
12.304782
 21
5.258285
 31
0.0
  0
LINE
  8
0
 10
12.834782
 20
4.511754
 30
0.0
 11
12.834782
 21
5.296754
 31
0.0
  0
LINE
  8
0
 10
11.814782
 20
3.261754
 30
0.0
 11
12.146782
 21
3.261754
 31
0.0
  0
LINE
  8
0
 10
11.814782
 20
4.561754
 30
0.0
 11
12.304782
 21
4.561754
 31
0.0
  0
CIRCLE
  8
0
 10
12.149782
 20
3.911754
 30
0.0
 40
0.295
  0
LINE
  8
0
 10
13.653282
 20
4.611754
 30
0.0
 11
13.703282
 21
4.661754
 31
0.0
  0
LINE
  8
0
 10
13.783282
 20
4.611754
 30
0.0
 11
13.783282
 21
5.258285
 31
0.0
  0
LINE
  8
0
 10
14.293282
 20
4.611754
 30
0.0
 11
14.293282
 21
5.258285
 31
0.0
  0
LINE
  8
0
 10
14.222282
 20
3.491754
 30
0.0
 11
14.222282
 21
4.331754
 31
0.0
  0
LINE
  8
0
 10
13.703282
 20
4.661754
 30
0.0
 11
13.783282
 21
4.661754
 31
0.0
  0
LINE
  8
0
 10
13.783282
 20
5.258285
 30
0.0
 11
14.293282
 21
5.258285
 31
0.0
  0
ARC
  8
0
 10
16.264804
 20
3.701754
 30
0.0
 40
0.12
 50
90.0
 51
120.701982
  0
ARC
  8
0
 10
15.062126
 20
5.727134
 30
0.0
 40
2.235547
 50
270.698517
 51
300.701982
  0
LINE
  8
0
 10
14.864782
 20
3.491754
 30
0.0
 11
15.08938
 21
3.491754
 31
0.0
  0
ARC
  8
0
 10
16.264804
 20
4.121754
 30
0.0
 40
0.12
 50
239.298018
 51
270.0
  0
ARC
  8
0
 10
15.062126
 20
2.096373
 30
0.0
 40
2.235547
 50
59.298018
 51
89.301483
  0
LINE
  8
0
 10
14.864782
 20
3.161754
 30
0.0
 11
14.864782
 21
4.661754
 31
0.0
  0
ARC
  8
0
 10
14.838282
 20
3.111754
 30
0.0
 40
0.05
 50
90.0
 51
180.0
  0
LINE
  8
0
 10
14.788282
 20
3.012622
 30
0.0
 11
14.788282
 21
3.111754
 31
0.0
  0
LINE
  8
0
 10
14.838282
 20
3.161754
 30
0.0
 11
14.864782
 21
3.161754
 31
0.0
  0
ARC
  8
0
 10
15.556782
 20
2.738352
 30
0.0
 40
0.095
 50
0.0
 51
70.329754
  0
LINE
  8
0
 10
15.459782
 20
2.909773
 30
0.0
 11
15.459782
 21
2.874481
 31
0.0
  0
ARC
  8
0
 10
21.506169
 20
-11.558064
 30
0.0
 40
17.579614
 50
108.167471
 51
112.196802
  0
ARC
  8
0
 10
21.506169
 20
19.416863
 30
0.0
 40
17.579614
 50
247.803198
 51
249.882709
  0
LINE
  8
0
 10
14.864782
 20
4.718754
 30
0.0
 11
14.864782
 21
3.140045
 31
0.0
  0
ARC
  8
0
 10
16.244169
 20
5.838519
 30
0.0
 40
0.083
 50
214.306679
 51
247.651076
  0
ARC
  8
0
 10
17.575492
 20
3.781754
 30
0.0
 40
0.04
 50
4.200014
 51
90.0
  0
ARC
  8
0
 10
17.575492
 20
4.041754
 30
0.0
 40
0.04
 50
270.0
 51
355.799986
  0
LINE
  8
0
 10
16.027086
 20
3.821754
 30
0.0
 11
17.575492
 21
3.821754
 31
0.0
  0
LINE
  8
0
 10
16.027086
 20
4.001754
 30
0.0
 11
17.575492
 21
4.001754
 31
0.0
  0
LINE
  8
0
 10
14.864782
 20
4.331754
 30
0.0
 11
15.08938
 21
4.331754
 31
0.0
  0
LINE
  8
OBJ
 10
15.887292
 20
6.023638
 30
0.0
 11
15.887292
 21
5.791738
 31
0.0
  0
LINE
  8
OBJ
 10
15.887292
 20
6.023638
 30
0.0
 11
16.010784
 21
6.151738
 31
0.0
  0
LINE
  8
OBJ
 10
16.439037
 20
6.023638
 30
0.0
 11
16.439037
 21
5.791738
 31
0.0
  0
ARC
  8
OBJ
 10
16.270782
 20
6.176394
 30
0.0
 40
0.06
 50
100.213656
 51
180.0
  0
LINE
  8
OBJ
 10
16.210782
 20
6.151738
 30
0.0
 11
16.210782
 21
6.176394
 31
0.0
  0
ARC
  8
OBJ
 10
16.163165
 20
5.790633
 30
0.0
 40
0.361106
 50
40.184879
 51
139.815121
  0
LINE
  8
OBJ
  6
CONTINUOUS
 10
16.010784
 20
6.151738
 30
0.0
 11
16.439037
 21
6.151738
 31
0.0
  0
ARC
  8
0
 10
16.004782
 20
5.243142
 30
0.0
 40
0.1
 50
281.619765
 51
0.0
  0
LINE
  8
0
 10
16.104782
 20
5.761754
 30
0.0
 11
16.104782
 21
5.243142
 31
0.0
  0
LINE
  8
OBJ
 10
17.542527
 20
6.023638
 30
0.0
 11
17.542527
 21
5.791738
 31
0.0
  0
LINE
  8
OBJ
 10
17.770782
 20
6.151738
 30
0.0
 11
17.770782
 21
6.176394
 31
0.0
  0
ARC
  8
OBJ
 10
16.990782
 20
2.180267
 30
0.0
 40
4.120471
 50
79.786344
 51
100.213656
  0
LINE
  8
OBJ
  6
CONTINUOUS
 10
16.439037
 20
6.151738
 30
0.0
 11
17.542527
 21
6.151738
 31
0.0
  0
ARC
  8
OBJ
 10
16.990782
 20
4.899466
 30
0.0
 40
1.252272
 50
63.858144
 51
116.141856
  0
LINE
  8
0
 10
19.195282
 20
6.009254
 30
0.0
 11
19.195282
 21
1.814254
 31
0.0
  0
ARC
  8
OBJ
 10
21.306085
 20
2.364482
 30
0.0
 40
0.33688
 50
322.158498
 51
37.841502
  0
LINE
  8
OBJ
 10
21.642965
 20
2.002466
 30
0.0
 11
21.642965
 21
2.726499
 31
0.0
  0
LINE
  8
0
 10
21.413782
 20
2.773327
 30
0.0
 11
21.413782
 21
1.955638
 31
0.0
  0
LINE
  8
0
 10
21.153782
 20
1.894254
 30
0.0
 11
21.153782
 21
5.929254
 31
0.0
  0
LINE
  8
0
 10
21.413782
 20
2.936754
 30
0.0
 11
21.413782
 21
1.967606
 31
0.0
  0
LINE
  8
0
 10
21.057032
 20
5.545733
 30
0.0
 11
21.057032
 21
2.277774
 31
0.0
  0
LINE
  8
0
 10
20.848782
 20
6.009254
 30
0.0
 11
20.848782
 21
1.814254
 31
0.0
  0
LINE
  8
0
 10
18.875782
 20
1.745754
 30
0.0
 11
20.377164
 21
1.745754
 31
0.0
  0
CIRCLE
  8
0
 10
19.982782
 20
1.431754
 30
0.0
 40
0.167
  0
ARC
  8
0
 10
19.549782
 20
1.051754
 30
0.0
 40
0.03
 50
0.0
 51
90.0
  0
LINE
  8
0
 10
19.539782
 20
1.081754
 30
0.0
 11
19.549782
 21
1.081754
 31
0.0
  0
LINE
  8
0
 10
19.579782
 20
1.051754
 30
0.0
 11
19.579782
 21
0.958754
 31
0.0
  0
LINE
  8
0
 10
19.539782
 20
1.081754
 30
0.0
 11
18.853787
 21
1.767749
 31
0.0
  0
LINE
  8
0
 10
19.982782
 20
1.356165
 30
0.0
 11
19.982782
 21
0.577666
 31
0.0
  0
LINE
  8
0
 10
19.382782
 20
1.238754
 30
0.0
 11
19.382782
 21
0.958754
 31
0.0
  0
ARC
  8
0
 10
20.471782
 20
1.737252
 30
0.0
 40
0.095
 50
86.644913
 51
180.0
  0
LINE
  8
0
 10
20.376782
 20
0.958754
 30
0.0
 11
19.382782
 21
0.958754
 31
0.0
  0
LINE
  8
0
 10
20.376782
 20
1.737252
 30
0.0
 11
20.376782
 21
0.958754
 31
0.0
  0
ARC
  8
0
 10
20.909282
 20
1.621754
 30
0.0
 40
0.12
 50
0.0
 51
90.0
  0
LINE
  8
0
 10
21.029282
 20
1.621754
 30
0.0
 11
21.029282
 21
0.361754
 31
0.0
  0
LINE
  8
OBJ
  6
CONTINUOUS
 10
21.413782
 20
2.157814
 30
0.0
 11
21.572123
 21
2.157814
 31
0.0
  0
LINE
  8
OBJ
 10
21.642965
 20
2.002466
 30
0.0
 11
21.599323
 21
1.970225
 31
0.0
  0
LINE
  8
OBJ
  6
CONTINUOUS
 10
21.413782
 20
1.955638
 30
0.0
 11
21.572123
 21
1.955638
 31
0.0
  0
ARC
  8
OBJ
 10
21.53542
 20
2.056726
 30
0.0
 40
0.107545
 50
289.954678
 51
70.045322
  0
ARC
  8
0
 10
21.383782
 20
1.967606
 30
0.0
 40
0.03
 50
270.0
 51
0.0
  0
ARC
  8
0
 10
21.163782
 20
1.927606
 30
0.0
 40
0.01
 50
90.0
 51
180.0
  0
LINE
  8
0
 10
21.163782
 20
1.937606
 30
0.0
 11
21.383782
 21
1.937606
 31
0.0
  0
LINE
  8
0
 10
20.848782
 20
1.814254
 30
0.0
 11
21.073782
 21
1.814254
 31
0.0
  0
LINE
  8
OBJ
 10
21.398798
 20
2.299212
 30
0.0
 11
21.398798
 21
2.079295
 31
0.0
  0
ARC
  8
OBJ
 10
21.219561
 20
2.189254
 30
0.0
 40
0.179237
 50
322.158498
 51
37.841502
  0
LINE
  8
OBJ
 10
21.20159
 20
2.40678
 30
0.0
 11
21.20159
 21
1.971727
 31
0.0
  0
LINE
  8
0
 10
21.153782
 20
2.38945
 30
0.0
 11
21.153782
 21
1.989058
 31
0.0
  0
LINE
  8
OBJ
  6
CONTINUOUS
 10
21.20159
 20
2.40678
 30
0.0
 11
21.361107
 21
2.40678
 31
0.0
  0
LINE
  8
OBJ
  6
CONTINUOUS
 10
21.20159
 20
2.299212
 30
0.0
 11
21.361107
 21
2.299212
 31
0.0
  0
LINE
  8
OBJ
 10
21.398798
 20
2.381865
 30
0.0
 11
21.375579
 21
2.399019
 31
0.0
  0
LINE
  8
OBJ
 10
21.398798
 20
2.381865
 30
0.0
 11
21.398798
 21
2.299212
 31
0.0
  0
ARC
  8
OBJ
 10
21.341579
 20
2.352996
 30
0.0
 40
0.057219
 50
289.954678
 51
70.045322
  0
LINE
  8
OBJ
  6
CENTER2
 10
21.153782
 20
2.38745
 30
0.0
 11
21.20159
 21
2.38745
 31
0.0
  0
LINE
  8
0
 10
20.963782
 20
1.814254
 30
0.0
 11
20.959782
 21
1.814254
 31
0.0
  0
ARC
  8
0
 10
21.073782
 20
1.894254
 30
0.0
 40
0.08
 50
270.0
 51
0.0
  0
LINE
  8
OBJ
  6
CONTINUOUS
 10
21.20159
 20
2.079295
 30
0.0
 11
21.361107
 21
2.079295
 31
0.0
  0
LINE
  8
OBJ
  6
CONTINUOUS
 10
21.20159
 20
1.971727
 30
0.0
 11
21.361107
 21
1.971727
 31
0.0
  0
LINE
  8
OBJ
 10
21.398798
 20
2.079295
 30
0.0
 11
21.398798
 21
1.996642
 31
0.0
  0
ARC
  8
OBJ
 10
21.341579
 20
2.025511
 30
0.0
 40
0.057219
 50
289.954678
 51
70.045322
  0
LINE
  8
OBJ
 10
21.398798
 20
1.996642
 30
0.0
 11
21.375579
 21
1.979488
 31
0.0
  0
LINE
  8
OBJ
  6
CENTER2
 10
21.153782
 20
1.989058
 30
0.0
 11
21.20159
 21
1.989058
 31
0.0
  0
LINE
  8
OBJ
 10
21.153782
 20
2.237646
 30
0.0
 11
21.20159
 21
2.285454
 31
0.0
  0
ARC
  8
0
 10
21.117032
 20
2.277774
 30
0.0
 40
0.06
 50
180.0
 51
258.828647
  0
ARC
  8
0
 10
21.093782
 20
2.160048
 30
0.0
 40
0.06
 50
0.0
 51
78.828647
  0
ARC
  8
0
 10
21.506169
 20
-11.558064
 30
0.0
 40
17.579614
 50
92.143065
 51
101.535185
  0
CIRCLE
  8
0
 10
19.195282
 20
3.911754
 30
0.0
 40
0.129178
  0
CIRCLE
  8
0
  6
DASHED4
 10
19.195282
 20
3.911754
 30
0.0
 40
0.157
  0
ARC
  8
0
 10
19.195282
 20
3.911754
 30
0.0
 40
0.291306
 50
108.825342
 51
71.174658
  0
LINE
  8
0
 10
19.101282
 20
4.111954
 30
0.0
 11
19.289282
 21
4.111954
 31
0.0
  0
LINE
  8
0
 10
19.289282
 20
4.222654
 30
0.0
 11
19.289282
 21
4.111954
 31
0.0
  0
LINE
  8
0
 10
19.101282
 20
4.222654
 30
0.0
 11
19.101282
 21
4.111954
 31
0.0
  0
CIRCLE
  8
0
 10
19.195282
 20
3.911754
 30
0.0
 40
0.3248
  0
CIRCLE
  8
0
 10
19.195282
 20
3.911754
 30
0.0
 40
0.3935
  0
CIRCLE
  8
0
 10
19.195282
 20
3.911754
 30
0.0
 40
0.49
  0
CIRCLE
  8
0
 10
19.195282
 20
3.911754
 30
0.0
 40
0.654
  0
CIRCLE
  8
0
 10
19.195282
 20
3.911754
 30
0.0
 40
0.901
  0
ARC
  8
0
 10
17.971782
 20
5.759559
 30
0.0
 40
0.095
 50
180.0
 51
281.535185
  0
CIRCLE
  8
0
 10
20.086237
 20
4.802708
 30
0.0
 40
0.225167
  0
INSERT
  8
0
  2
CVRSCR
 10
20.086237
 20
4.802708
 30
0.0
 41
-1.0
  0
INSERT
  8
0
  2
CVRSCR
 10
20.086237
 20
3.020799
 30
0.0
 41
-1.0
 50
270.0
  0
CIRCLE
  8
0
 10
20.086237
 20
3.020799
 30
0.0
 40
0.225167
  0
LINE
  8
OBJ
 10
18.094272
 20
6.023638
 30
0.0
 11
18.094272
 21
5.791738
 31
0.0
  0
LINE
  8
OBJ
 10
18.094272
 20
6.023638
 30
0.0
 11
17.970781
 21
6.151738
 31
0.0
  0
LINE
  8
0
 10
17.876782
 20
5.759559
 30
0.0
 11
17.876782
 21
5.761754
 31
0.0
  0
CIRCLE
  8
0
 10
18.304328
 20
3.020799
 30
0.0
 40
0.225167
  0
CIRCLE
  8
0
 10
18.304328
 20
4.802708
 30
0.0
 40
0.225167
  0
LINE
  8
OBJ
 10
21.642965
 20
2.726499
 30
0.0
 11
21.599323
 21
2.75874
 31
0.0
  0
ARC
  8
OBJ
 10
21.53542
 20
2.672239
 30
0.0
 40
0.107545
 50
289.954678
 51
70.045322
  0
LINE
  8
OBJ
  6
CONTINUOUS
 10
21.413782
 20
2.773327
 30
0.0
 11
21.572123
 21
2.773327
 31
0.0
  0
LINE
  8
OBJ
  6
CONTINUOUS
 10
21.413782
 20
2.571151
 30
0.0
 11
21.572123
 21
2.571151
 31
0.0
  0
ARC
  8
0
 10
21.423782
 20
2.936754
 30
0.0
 40
0.01
 50
90.0
 51
180.0
  0
LINE
  8
0
 10
21.573782
 20
4.592754
 30
0.0
 11
21.556137
 21
4.592754
 31
0.0
  0
ARC
  8
0
 10
9.791613
 20
3.221902
 30
0.0
 40
11.844124
 50
358.959164
 51
11.479697
  0
ARC
  8
OBJ
 10
21.573782
 20
3.006754
 30
0.0
 40
0.06
 50
270.0
 51
0.0
  0
LINE
  8
0
 10
21.423782
 20
2.946754
 30
0.0
 11
21.573782
 21
2.946754
 31
0.0
  0
ARC
  8
0
 10
21.093782
 20
5.663459
 30
0.0
 40
0.06
 50
281.171353
 51
0.0
  0
ARC
  8
0
 10
21.117032
 20
5.545733
 30
0.0
 40
0.06
 50
101.171353
 51
180.0
  0
LINE
  8
OBJ
 10
21.153782
 20
5.585861
 30
0.0
 11
21.20159
 21
5.538053
 31
0.0
  0
LINE
  8
OBJ
  6
CENTER2
 10
21.153782
 20
5.83445
 30
0.0
 11
21.20159
 21
5.83445
 31
0.0
  0
LINE
  8
OBJ
 10
21.398798
 20
5.826865
 30
0.0
 11
21.375579
 21
5.844019
 31
0.0
  0
ARC
  8
OBJ
 10
21.341579
 20
5.797996
 30
0.0
 40
0.057219
 50
289.954678
 51
70.045322
  0
LINE
  8
OBJ
 10
21.398798
 20
5.744212
 30
0.0
 11
21.398798
 21
5.826865
 31
0.0
  0
LINE
  8
OBJ
  6
CONTINUOUS
 10
21.20159
 20
5.85178
 30
0.0
 11
21.361107
 21
5.85178
 31
0.0
  0
LINE
  8
OBJ
  6
CONTINUOUS
 10
21.20159
 20
5.744212
 30
0.0
 11
21.361107
 21
5.744212
 31
0.0
  0
ARC
  8
0
 10
21.073782
 20
5.929254
 30
0.0
 40
0.08
 50
0.0
 51
90.0
  0
LINE
  8
0
 10
20.963782
 20
6.009254
 30
0.0
 11
20.959782
 21
6.009254
 31
0.0
  0
LINE
  8
OBJ
  6
CENTER2
 10
21.153782
 20
5.436058
 30
0.0
 11
21.20159
 21
5.436058
 31
0.0
  0
ARC
  8
OBJ
 10
21.341579
 20
5.470511
 30
0.0
 40
0.057219
 50
289.954678
 51
70.045322
  0
LINE
  8
OBJ
 10
21.398798
 20
5.441642
 30
0.0
 11
21.398798
 21
5.524295
 31
0.0
  0
LINE
  8
OBJ
 10
21.398798
 20
5.441642
 30
0.0
 11
21.375579
 21
5.424488
 31
0.0
  0
LINE
  8
OBJ
  6
CONTINUOUS
 10
21.20159
 20
5.524295
 30
0.0
 11
21.361107
 21
5.524295
 31
0.0
  0
LINE
  8
OBJ
  6
CONTINUOUS
 10
21.20159
 20
5.416727
 30
0.0
 11
21.361107
 21
5.416727
 31
0.0
  0
LINE
  8
0
 10
21.153782
 20
5.434058
 30
0.0
 11
21.153782
 21
5.83445
 31
0.0
  0
LINE
  8
OBJ
 10
21.20159
 20
5.416727
 30
0.0
 11
21.20159
 21
5.85178
 31
0.0
  0
ARC
  8
OBJ
 10
21.219561
 20
5.634254
 30
0.0
 40
0.179237
 50
322.158498
 51
37.841502
  0
LINE
  8
OBJ
 10
21.398798
 20
5.524295
 30
0.0
 11
21.398798
 21
5.744212
 31
0.0
  0
LINE
  8
0
 10
20.848782
 20
6.009254
 30
0.0
 11
21.073782
 21
6.009254
 31
0.0
  0
LINE
  8
OBJ
 10
21.633782
 20
4.532754
 30
0.0
 11
21.633782
 21
3.290754
 31
0.0
  0
ARC
  8
OBJ
 10
21.573782
 20
4.532754
 30
0.0
 40
0.06
 50
360.0
 51
90.0
  0
LINE
  8
OBJ
 10
21.833782
 20
4.259754
 30
0.0
 11
21.833782
 21
3.563754
 31
0.0
  0
POINT
  8
DEFPOINTS
  6
BYBLOCK
 62
     0
 10
21.833782
 20
3.911754
 30
0.0
  0
LINE
  8
OBJ
  6
CONTINUOUS
 10
21.633782
 20
4.339754
 30
0.0
 11
21.753782
 21
4.339754
 31
0.0
  0
ARC
  8
OBJ
 10
21.753782
 20
4.259754
 30
0.0
 40
0.08
 50
0.0
 51
90.0
  0
ARC
  8
OBJ
 10
21.753782
 20
3.563754
 30
0.0
 40
0.08
 50
270.0
 51
0.0
  0
LINE
  8
OBJ
  6
CONTINUOUS
 10
21.633782
 20
3.483754
 30
0.0
 11
21.753782
 21
3.483754
 31
0.0
  0
LINE
  8
0
 10
14.864782
 20
15.376698
 30
0.0
 11
14.864782
 21
10.207298
 31
0.0
  0
LINE
  8
0
 10
13.703282
 20
14.555998
 30
0.0
 11
13.703282
 21
13.768498
 31
0.0
  0
LINE
  8
0
 10
13.514782
 20
13.768498
 30
0.0
 11
13.514782
 21
14.555998
 31
0.0
  0
LINE
  8
0
 10
13.653282
 20
13.768498
 30
0.0
 11
13.653282
 21
15.252998
 31
0.0
  0
ARC
  8
0
 10
17.313779
 20
13.555048
 30
0.0
 40
4.270792
 50
358.899169
 51
17.152279
  0
LINE
  8
0
 62
     7
 10
14.864782
 20
10.184998
 30
0.0
 11
14.864782
 21
15.398998
 31
0.0
  0
LINE
  8
0
 10
21.067032
 20
10.656518
 30
0.0
 11
21.067032
 21
14.927477
 31
0.0
  0
LINE
  8
0
 10
21.163782
 20
15.251998
 30
0.0
 11
21.163782
 21
10.331998
 31
0.0
  0
LINE
  8
0
 10
20.848782
 20
15.331998
 30
0.0
 11
20.848782
 21
10.251998
 31
0.0
  0
LINE
  8
OBJ
 10
18.115782
 20
12.791998
 30
0.0
 11
17.553282
 21
13.766276
 31
0.0
  0
CIRCLE
  8
OBJ
 10
16.990782
 20
12.791998
 30
0.0
 40
0.864576
  0
LINE
  8
0
 10
17.610282
 20
10.232998
 30
0.0
 11
20.780282
 21
10.232998
 31
0.0
  0
LINE
  8
0
 10
17.670282
 20
10.016998
 30
0.0
 11
20.720282
 21
10.016998
 31
0.0
  0
LINE
  8
0
 10
14.864782
 20
10.862998
 30
0.0
 11
20.848782
 21
10.251998
 31
0.0
  0
LINE
  8
OBJ
 10
17.553282
 20
11.817719
 30
0.0
 11
18.115782
 21
12.791998
 31
0.0
  0
LINE
  8
0
 10
17.610282
 20
10.076998
 30
0.0
 11
17.610282
 21
10.232998
 31
0.0
  0
ARC
  8
0
 10
15.063804
 20
12.20955
 30
0.0
 40
2.024714
 50
270.723759
 51
303.336914
  0
ARC
  8
0
 10
17.670282
 20
10.076998
 30
0.0
 40
0.06
 50
180.0
 51
270.0
  0
LINE
  8
0
 10
14.293282
 20
12.226498
 30
0.0
 11
14.864782
 21
12.226498
 31
0.0
  0
LINE
  8
0
 10
14.333004
 20
11.097298
 30
0.0
 11
14.864782
 21
11.097298
 31
0.0
  0
LINE
  8
0
 10
14.222282
 20
10.207298
 30
0.0
 11
14.864782
 21
10.207298
 31
0.0
  0
LINE
  8
0
 10
14.293282
 20
13.357498
 30
0.0
 11
14.864782
 21
13.357498
 31
0.0
  0
LINE
  8
0
 10
13.514782
 20
11.815498
 30
0.0
 11
13.514782
 21
11.027998
 31
0.0
  0
LINE
  8
0
 10
12.834782
 20
12.363498
 30
0.0
 11
12.884782
 21
12.413498
 31
0.0
  0
LINE
  8
0
 10
12.304782
 20
12.363498
 30
0.0
 11
12.254782
 21
12.413498
 31
0.0
  0
LINE
  8
0
 10
12.304782
 20
11.653498
 30
0.0
 11
12.254782
 21
11.603498
 31
0.0
  0
LINE
  8
0
 10
12.834782
 20
11.653498
 30
0.0
 11
12.884782
 21
11.603498
 31
0.0
  0
LINE
  8
0
 10
12.304782
 20
13.930498
 30
0.0
 11
12.254782
 21
13.980498
 31
0.0
  0
LINE
  8
0
 10
12.834782
 20
13.930498
 30
0.0
 11
12.884782
 21
13.980498
 31
0.0
  0
LINE
  8
0
 10
12.304782
 20
13.220498
 30
0.0
 11
12.254782
 21
13.170498
 31
0.0
  0
LINE
  8
0
 10
12.834782
 20
13.220498
 30
0.0
 11
12.884782
 21
13.170498
 31
0.0
  0
LINE
  8
0
 10
14.316082
 20
12.201498
 30
0.0
 11
14.293282
 21
12.201498
 31
0.0
  0
LINE
  8
0
 10
14.293282
 20
12.32503
 30
0.0
 11
14.293282
 21
12.39574
 31
0.0
  0
LINE
  8
0
 10
14.364782
 20
12.152798
 30
0.0
 11
14.364782
 21
11.864198
 31
0.0
  0
LINE
  8
0
 10
14.366082
 20
12.151498
 30
0.0
 11
14.366082
 21
11.865498
 31
0.0
  0
LINE
  8
0
 10
14.316082
 20
11.815498
 30
0.0
 11
14.366082
 21
11.865498
 31
0.0
  0
LINE
  8
0
 10
14.316082
 20
11.815498
 30
0.0
 11
14.293282
 21
11.815498
 31
0.0
  0
LINE
  8
0
 10
14.293282
 20
11.621255
 30
0.0
 11
14.293282
 21
11.691966
 31
0.0
  0
LINE
  8
0
 10
14.366082
 20
12.151498
 30
0.0
 11
14.316082
 21
12.201498
 31
0.0
  0
LINE
  8
0
 10
14.334782
 20
12.171498
 30
0.0
 11
14.334782
 21
11.845498
 31
0.0
  0
LINE
  8
0
 10
14.304782
 20
12.201498
 30
0.0
 11
14.304782
 21
11.815498
 31
0.0
  0
LINE
  8
0
 10
14.293282
 20
12.32503
 30
0.0
 11
14.293282
 21
11.691966
 31
0.0
  0
LINE
  8
0
 10
14.222282
 20
11.027998
 30
0.0
 11
14.262293
 21
11.068008
 31
0.0
  0
ARC
  8
0
 10
14.333004
 20
10.997298
 30
0.0
 40
0.1
 50
90.0
 51
135.0
  0
LINE
  8
0
 10
14.122282
 20
10.942298
 30
0.0
 11
14.222282
 21
10.942298
 31
0.0
  0
CIRCLE
  8
0
 10
14.255782
 20
10.280998
 30
0.0
 40
0.00895
  0
LINE
  8
0
 10
14.122282
 20
10.232298
 30
0.0
 11
14.222282
 21
10.232298
 31
0.0
  0
LINE
  8
0
 10
14.222282
 20
11.027998
 30
0.0
 11
14.222282
 21
10.207298
 31
0.0
  0
LINE
  8
0
 10
14.222282
 20
10.453357
 30
0.0
 11
14.122282
 21
10.616367
 31
0.0
  0
LINE
  8
0
 10
14.122282
 20
10.942298
 30
0.0
 11
14.122282
 21
10.232298
 31
0.0
  0
LINE
  8
0
 10
14.222282
 20
10.942298
 30
0.0
 11
14.222282
 21
10.232298
 31
0.0
  0
LINE
  8
0
 10
13.514782
 20
12.220998
 30
0.0
 11
13.653282
 21
12.220998
 31
0.0
  0
LINE
  8
0
 10
13.514782
 20
12.231998
 30
0.0
 11
13.653282
 21
12.231998
 31
0.0
  0
LINE
  8
0
 10
13.653282
 20
12.226498
 30
0.0
 11
13.783282
 21
12.226498
 31
0.0
  0
LINE
  8
0
 10
13.783282
 20
12.32503
 30
0.0
 11
13.783282
 21
12.39574
 31
0.0
  0
LINE
  8
0
 10
13.653282
 20
12.791998
 30
0.0
 11
13.653282
 21
12.201498
 31
0.0
  0
LINE
  8
0
 10
13.703282
 20
12.201498
 30
0.0
 11
13.703282
 21
12.791998
 31
0.0
  0
LINE
  8
0
 10
13.783282
 20
11.621255
 30
0.0
 11
13.783282
 21
11.691966
 31
0.0
  0
LINE
  8
0
 10
13.764782
 20
12.201498
 30
0.0
 11
13.764782
 21
11.815498
 31
0.0
  0
LINE
  8
0
 10
13.734782
 20
12.171498
 30
0.0
 11
13.734782
 21
11.845498
 31
0.0
  0
LINE
  8
0
 10
13.704782
 20
12.201498
 30
0.0
 11
13.704782
 21
11.815498
 31
0.0
  0
LINE
  8
0
 10
13.674782
 20
12.171498
 30
0.0
 11
13.674782
 21
11.845498
 31
0.0
  0
LINE
  8
0
 10
13.644782
 20
12.201498
 30
0.0
 11
13.644782
 21
11.815498
 31
0.0
  0
LINE
  8
0
 10
13.614782
 20
12.171498
 30
0.0
 11
13.614782
 21
11.845498
 31
0.0
  0
LINE
  8
0
 10
13.584782
 20
12.201498
 30
0.0
 11
13.584782
 21
11.815498
 31
0.0
  0
LINE
  8
0
 10
13.554782
 20
12.171498
 30
0.0
 11
13.554782
 21
11.845498
 31
0.0
  0
LINE
  8
0
 10
13.524782
 20
12.201498
 30
0.0
 11
13.524782
 21
11.815498
 31
0.0
  0
LINE
  8
0
 10
13.494782
 20
12.171498
 30
0.0
 11
13.494782
 21
11.845498
 31
0.0
  0
LINE
  8
0
 10
13.464782
 20
12.201498
 30
0.0
 11
13.464782
 21
11.815498
 31
0.0
  0
LINE
  8
0
 10
13.434782
 20
12.171498
 30
0.0
 11
13.434782
 21
11.845498
 31
0.0
  0
LINE
  8
0
 10
13.404782
 20
12.201498
 30
0.0
 11
13.404782
 21
11.815498
 31
0.0
  0
LINE
  8
0
 10
13.374782
 20
12.171498
 30
0.0
 11
13.374782
 21
11.845498
 31
0.0
  0
LINE
  8
0
 10
13.314782
 20
12.171498
 30
0.0
 11
13.314782
 21
11.845498
 31
0.0
  0
LINE
  8
0
 10
13.344782
 20
12.201498
 30
0.0
 11
13.344782
 21
11.815498
 31
0.0
  0
LINE
  8
0
 10
13.284782
 20
12.201498
 30
0.0
 11
13.284782
 21
11.815498
 31
0.0
  0
LINE
  8
0
 10
13.783282
 20
12.32503
 30
0.0
 11
13.783282
 21
11.691966
 31
0.0
  0
LINE
  8
0
 10
11.850452
 20
12.293538
 30
0.0
 11
12.204782
 21
12.293538
 31
0.0
  0
LINE
  8
0
 10
11.850452
 20
12.263538
 30
0.0
 11
12.204782
 21
12.263538
 31
0.0
  0
LINE
  8
0
 10
11.850452
 20
12.233538
 30
0.0
 11
12.204782
 21
12.233538
 31
0.0
  0
LINE
  8
0
 10
11.850452
 20
12.203538
 30
0.0
 11
12.204782
 21
12.203538
 31
0.0
  0
LINE
  8
0
 10
11.850452
 20
12.173538
 30
0.0
 11
12.204782
 21
12.173538
 31
0.0
  0
LINE
  8
0
 10
12.204782
 20
12.363498
 30
0.0
 11
12.304782
 21
12.363498
 31
0.0
  0
LINE
  8
0
 10
11.850452
 20
12.323458
 30
0.0
 11
12.204782
 21
12.323458
 31
0.0
  0
LINE
  8
0
 10
12.834782
 20
12.363498
 30
0.0
 11
12.304782
 21
12.363498
 31
0.0
  0
LINE
  8
0
 10
11.850452
 20
12.143538
 30
0.0
 11
12.204782
 21
12.143538
 31
0.0
  0
LINE
  8
0
 10
11.850452
 20
12.113538
 30
0.0
 11
12.204782
 21
12.113538
 31
0.0
  0
LINE
  8
0
 10
11.850452
 20
12.083538
 30
0.0
 11
12.204782
 21
12.083538
 31
0.0
  0
LINE
  8
0
 10
11.850452
 20
12.053538
 30
0.0
 11
12.204782
 21
12.053538
 31
0.0
  0
LINE
  8
0
 10
11.850452
 20
12.023538
 30
0.0
 11
12.204782
 21
12.023538
 31
0.0
  0
LINE
  8
0
 10
11.850452
 20
11.993538
 30
0.0
 11
12.204782
 21
11.993538
 31
0.0
  0
LINE
  8
0
 10
11.850452
 20
11.963538
 30
0.0
 11
12.204782
 21
11.963538
 31
0.0
  0
LINE
  8
0
 10
11.850452
 20
11.933538
 30
0.0
 11
12.204782
 21
11.933538
 31
0.0
  0
LINE
  8
0
 10
11.850452
 20
11.903538
 30
0.0
 11
12.204782
 21
11.903538
 31
0.0
  0
LINE
  8
0
 10
11.850452
 20
11.873538
 30
0.0
 11
12.204782
 21
11.873538
 31
0.0
  0
LINE
  8
0
 10
11.850452
 20
11.843538
 30
0.0
 11
12.204782
 21
11.843538
 31
0.0
  0
LINE
  8
0
 10
11.850452
 20
11.813538
 30
0.0
 11
12.204782
 21
11.813538
 31
0.0
  0
LINE
  8
0
 10
11.850452
 20
11.783538
 30
0.0
 11
12.204782
 21
11.783538
 31
0.0
  0
LINE
  8
0
 10
12.304782
 20
11.874557
 30
0.0
 11
12.204782
 21
12.037567
 31
0.0
  0
LINE
  8
0
 10
11.850452
 20
11.753538
 30
0.0
 11
12.204782
 21
11.753538
 31
0.0
  0
LINE
  8
0
 10
11.850452
 20
11.723538
 30
0.0
 11
12.204782
 21
11.723538
 31
0.0
  0
LINE
  8
0
 10
12.204782
 20
11.653498
 30
0.0
 11
12.304782
 21
11.653498
 31
0.0
  0
LINE
  8
0
 10
11.850452
 20
11.693538
 30
0.0
 11
12.204782
 21
11.693538
 31
0.0
  0
LINE
  8
0
 10
12.834782
 20
11.653498
 30
0.0
 11
12.304782
 21
11.653498
 31
0.0
  0
LINE
  8
0
 10
12.204782
 20
12.363498
 30
0.0
 11
12.204782
 21
11.653498
 31
0.0
  0
LINE
  8
0
 10
12.304782
 20
12.363498
 30
0.0
 11
12.304782
 21
11.653498
 31
0.0
  0
LINE
  8
0
 10
11.850452
 20
12.323458
 30
0.0
 11
11.850452
 21
11.693538
 31
0.0
  0
LINE
  8
0
 10
12.304782
 20
12.32503
 30
0.0
 11
12.304782
 21
11.691966
 31
0.0
  0
LINE
  8
0
 10
12.834782
 20
12.363498
 30
0.0
 11
12.834782
 21
11.653498
 31
0.0
  0
LINE
  8
0
 10
13.783282
 20
11.815498
 30
0.0
 11
12.834782
 21
11.815498
 31
0.0
  0
LINE
  8
0
 10
13.783282
 20
12.201498
 30
0.0
 11
12.834782
 21
12.201498
 31
0.0
  0
LINE
  8
0
 10
13.514782
 20
12.226498
 30
0.0
 11
12.834782
 21
12.226498
 31
0.0
  0
LINE
  8
0
 10
13.703282
 20
11.027998
 30
0.0
 11
13.653282
 21
11.077998
 31
0.0
  0
LINE
  8
0
 10
13.514782
 20
11.100998
 30
0.0
 11
13.653282
 21
11.100998
 31
0.0
  0
LINE
  8
0
 10
13.728582
 20
10.862888
 30
0.0
 11
13.767952
 21
10.902258
 31
0.0
  0
LINE
  8
0
 10
13.703282
 20
10.280998
 30
0.0
 11
13.653282
 21
10.330998
 31
0.0
  0
LINE
  8
0
 10
13.767952
 20
10.272338
 30
0.0
 11
13.728582
 21
10.311708
 31
0.0
  0
LINE
  8
0
 10
13.759292
 20
10.280998
 30
0.0
 11
13.703282
 21
10.280998
 31
0.0
  0
LINE
  8
0
 10
13.653282
 20
10.330998
 30
0.0
 11
13.728582
 21
10.330998
 31
0.0
  0
LINE
  8
0
 10
13.767952
 20
10.902258
 30
0.0
 11
13.767952
 21
10.272338
 31
0.0
  0
LINE
  8
0
 10
13.728582
 20
10.862888
 30
0.0
 11
13.728582
 21
10.311708
 31
0.0
  0
LINE
  8
0
 10
12.734782
 20
11.027998
 30
0.0
 11
12.734782
 21
10.821998
 31
0.0
  0
ARC
  8
0
 10
12.832329
 20
12.241783
 30
0.0
 40
1.217699
 50
245.531307
 51
265.40526
  0
LINE
  8
0
 10
12.734782
 20
11.027998
 30
0.0
 11
13.514782
 21
11.027998
 31
0.0
  0
LINE
  8
0
 10
13.653282
 20
11.815498
 30
0.0
 11
13.653282
 21
10.330998
 31
0.0
  0
LINE
  8
0
 10
13.703282
 20
11.027998
 30
0.0
 11
13.703282
 21
11.815498
 31
0.0
  0
LINE
  8
0
 10
13.514782
 20
13.382498
 30
0.0
 11
13.514782
 21
12.201498
 31
0.0
  0
LINE
  8
0
 10
11.811082
 20
12.284088
 30
0.0
 11
11.811082
 21
11.732908
 31
0.0
  0
LINE
  8
0
 10
11.850452
 20
11.693538
 30
0.0
 11
11.811082
 21
11.732908
 31
0.0
  0
LINE
  8
0
 10
11.811082
 20
12.284088
 30
0.0
 11
11.850452
 21
12.323458
 31
0.0
  0
LINE
  8
0
 10
13.783282
 20
12.32503
 30
0.0
 11
14.293282
 21
12.32503
 31
0.0
  0
LINE
  8
0
 10
13.783282
 20
11.691966
 30
0.0
 11
14.293282
 21
11.691966
 31
0.0
  0
LINE
  8
0
 10
13.703282
 20
11.027998
 30
0.0
 11
14.222282
 21
11.027998
 31
0.0
  0
LINE
  8
0
 10
13.767952
 20
10.602338
 30
0.0
 11
14.122282
 21
10.602338
 31
0.0
  0
LINE
  8
0
 10
13.767952
 20
10.572338
 30
0.0
 11
14.122282
 21
10.572338
 31
0.0
  0
LINE
  8
0
 10
13.767952
 20
10.542338
 30
0.0
 11
14.122282
 21
10.542338
 31
0.0
  0
LINE
  8
0
 10
13.767952
 20
10.512338
 30
0.0
 11
14.122282
 21
10.512338
 31
0.0
  0
LINE
  8
0
 10
13.767952
 20
10.482338
 30
0.0
 11
14.122282
 21
10.482338
 31
0.0
  0
LINE
  8
0
 10
13.767952
 20
10.452338
 30
0.0
 11
14.122282
 21
10.452338
 31
0.0
  0
LINE
  8
0
 10
13.767952
 20
10.422338
 30
0.0
 11
14.122282
 21
10.422338
 31
0.0
  0
LINE
  8
0
 10
13.767952
 20
10.392338
 30
0.0
 11
14.122282
 21
10.392338
 31
0.0
  0
LINE
  8
0
 10
13.767952
 20
10.362338
 30
0.0
 11
14.122282
 21
10.362338
 31
0.0
  0
LINE
  8
0
 10
13.767952
 20
10.332338
 30
0.0
 11
14.122282
 21
10.332338
 31
0.0
  0
LINE
  8
0
 10
13.767952
 20
10.302338
 30
0.0
 11
14.122282
 21
10.302338
 31
0.0
  0
LINE
  8
0
 10
13.767952
 20
10.272338
 30
0.0
 11
14.122282
 21
10.272338
 31
0.0
  0
LINE
  8
0
 10
13.767952
 20
10.722338
 30
0.0
 11
14.122282
 21
10.722338
 31
0.0
  0
LINE
  8
0
 10
13.767952
 20
10.692338
 30
0.0
 11
14.122282
 21
10.692338
 31
0.0
  0
LINE
  8
0
 10
13.767952
 20
10.662338
 30
0.0
 11
14.122282
 21
10.662338
 31
0.0
  0
LINE
  8
0
 10
13.767952
 20
10.632338
 30
0.0
 11
14.122282
 21
10.632338
 31
0.0
  0
LINE
  8
0
 10
13.767952
 20
10.872338
 30
0.0
 11
14.122282
 21
10.872338
 31
0.0
  0
LINE
  8
0
 10
13.767952
 20
10.842338
 30
0.0
 11
14.122282
 21
10.842338
 31
0.0
  0
LINE
  8
0
 10
13.767952
 20
10.812338
 30
0.0
 11
14.122282
 21
10.812338
 31
0.0
  0
LINE
  8
0
 10
13.767952
 20
10.782338
 30
0.0
 11
14.122282
 21
10.782338
 31
0.0
  0
LINE
  8
0
 10
13.767952
 20
10.752338
 30
0.0
 11
14.122282
 21
10.752338
 31
0.0
  0
LINE
  8
0
 10
13.767952
 20
10.902258
 30
0.0
 11
14.122282
 21
10.902258
 31
0.0
  0
LINE
  8
0
 10
13.514782
 20
13.357498
 30
0.0
 11
12.834782
 21
13.357498
 31
0.0
  0
LINE
  8
0
 10
13.703282
 20
13.382498
 30
0.0
 11
13.703282
 21
12.791998
 31
0.0
  0
LINE
  8
0
 10
13.653282
 20
13.357498
 30
0.0
 11
13.783282
 21
13.357498
 31
0.0
  0
LINE
  8
0
 10
13.783282
 20
13.258966
 30
0.0
 11
13.783282
 21
13.188255
 31
0.0
  0
LINE
  8
0
 10
14.293282
 20
13.96274
 30
0.0
 11
14.293282
 21
13.89203
 31
0.0
  0
LINE
  8
0
 10
13.783282
 20
13.96274
 30
0.0
 11
13.783282
 21
13.89203
 31
0.0
  0
LINE
  8
0
 10
14.293282
 20
13.258966
 30
0.0
 11
14.293282
 21
13.188255
 31
0.0
  0
LINE
  8
0
 10
13.514782
 20
13.351998
 30
0.0
 11
13.653282
 21
13.351998
 31
0.0
  0
LINE
  8
0
 10
13.514782
 20
13.362998
 30
0.0
 11
13.653282
 21
13.362998
 31
0.0
  0
LINE
  8
0
 10
12.834782
 20
13.930498
 30
0.0
 11
12.304782
 21
13.930498
 31
0.0
  0
LINE
  8
0
 10
12.834782
 20
13.220498
 30
0.0
 11
12.304782
 21
13.220498
 31
0.0
  0
LINE
  8
0
 10
13.783282
 20
13.382498
 30
0.0
 11
12.834782
 21
13.382498
 31
0.0
  0
LINE
  8
0
 10
13.783282
 20
13.768498
 30
0.0
 11
12.834782
 21
13.768498
 31
0.0
  0
LINE
  8
0
 10
13.284782
 20
13.382498
 30
0.0
 11
13.284782
 21
13.768498
 31
0.0
  0
LINE
  8
0
 10
13.344782
 20
13.382498
 30
0.0
 11
13.344782
 21
13.768498
 31
0.0
  0
LINE
  8
0
 10
13.314782
 20
13.412498
 30
0.0
 11
13.314782
 21
13.738498
 31
0.0
  0
LINE
  8
0
 10
13.374782
 20
13.412498
 30
0.0
 11
13.374782
 21
13.738498
 31
0.0
  0
LINE
  8
0
 10
13.404782
 20
13.382498
 30
0.0
 11
13.404782
 21
13.768498
 31
0.0
  0
LINE
  8
0
 10
13.434782
 20
13.412498
 30
0.0
 11
13.434782
 21
13.738498
 31
0.0
  0
LINE
  8
0
 10
13.464782
 20
13.382498
 30
0.0
 11
13.464782
 21
13.768498
 31
0.0
  0
LINE
  8
0
 10
13.494782
 20
13.412498
 30
0.0
 11
13.494782
 21
13.738498
 31
0.0
  0
LINE
  8
0
 10
13.524782
 20
13.382498
 30
0.0
 11
13.524782
 21
13.768498
 31
0.0
  0
LINE
  8
0
 10
13.554782
 20
13.412498
 30
0.0
 11
13.554782
 21
13.738498
 31
0.0
  0
LINE
  8
0
 10
13.584782
 20
13.382498
 30
0.0
 11
13.584782
 21
13.768498
 31
0.0
  0
LINE
  8
0
 10
13.614782
 20
13.412498
 30
0.0
 11
13.614782
 21
13.738498
 31
0.0
  0
LINE
  8
0
 10
13.644782
 20
13.382498
 30
0.0
 11
13.644782
 21
13.768498
 31
0.0
  0
LINE
  8
0
 10
13.674782
 20
13.412498
 30
0.0
 11
13.674782
 21
13.738498
 31
0.0
  0
LINE
  8
0
 10
13.704782
 20
13.382498
 30
0.0
 11
13.704782
 21
13.768498
 31
0.0
  0
LINE
  8
0
 10
13.734782
 20
13.412498
 30
0.0
 11
13.734782
 21
13.738498
 31
0.0
  0
LINE
  8
0
 10
13.764782
 20
13.382498
 30
0.0
 11
13.764782
 21
13.768498
 31
0.0
  0
LINE
  8
0
 10
14.304782
 20
13.382498
 30
0.0
 11
14.304782
 21
13.768498
 31
0.0
  0
LINE
  8
0
 10
14.334782
 20
13.412498
 30
0.0
 11
14.334782
 21
13.738498
 31
0.0
  0
LINE
  8
0
 10
14.316082
 20
13.768498
 30
0.0
 11
14.366082
 21
13.718498
 31
0.0
  0
LINE
  8
0
 10
14.366082
 20
13.432498
 30
0.0
 11
14.366082
 21
13.718498
 31
0.0
  0
LINE
  8
0
 10
14.366082
 20
13.432498
 30
0.0
 11
14.316082
 21
13.382498
 31
0.0
  0
LINE
  8
0
 10
14.364782
 20
13.431198
 30
0.0
 11
14.364782
 21
13.719798
 31
0.0
  0
LINE
  8
0
 10
11.811082
 20
13.299908
 30
0.0
 11
11.811082
 21
13.851088
 31
0.0
  0
LINE
  8
0
 10
11.850452
 20
13.260538
 30
0.0
 11
11.850452
 21
13.890458
 31
0.0
  0
LINE
  8
0
 10
11.850452
 20
13.260538
 30
0.0
 11
12.204782
 21
13.260538
 31
0.0
  0
LINE
  8
0
 10
11.811082
 20
13.299908
 30
0.0
 11
11.850452
 21
13.260538
 31
0.0
  0
LINE
  8
0
 10
12.304782
 20
13.709438
 30
0.0
 11
12.204782
 21
13.546429
 31
0.0
  0
LINE
  8
0
 10
11.850452
 20
13.890458
 30
0.0
 11
11.811082
 21
13.851088
 31
0.0
  0
LINE
  8
0
 10
11.850452
 20
13.890458
 30
0.0
 11
12.204782
 21
13.890458
 31
0.0
  0
LINE
  8
0
 10
12.204782
 20
13.930498
 30
0.0
 11
12.304782
 21
13.930498
 31
0.0
  0
LINE
  8
0
 10
12.204782
 20
13.220498
 30
0.0
 11
12.304782
 21
13.220498
 31
0.0
  0
LINE
  8
0
 10
12.304782
 20
13.220498
 30
0.0
 11
12.304782
 21
13.930498
 31
0.0
  0
LINE
  8
0
 10
12.204782
 20
13.220498
 30
0.0
 11
12.204782
 21
13.930498
 31
0.0
  0
LINE
  8
0
 10
11.850452
 20
13.860458
 30
0.0
 11
12.204782
 21
13.860458
 31
0.0
  0
LINE
  8
0
 10
11.850452
 20
13.830458
 30
0.0
 11
12.204782
 21
13.830458
 31
0.0
  0
LINE
  8
0
 10
11.850452
 20
13.800458
 30
0.0
 11
12.204782
 21
13.800458
 31
0.0
  0
LINE
  8
0
 10
11.850452
 20
13.770458
 30
0.0
 11
12.204782
 21
13.770458
 31
0.0
  0
LINE
  8
0
 10
11.850452
 20
13.740458
 30
0.0
 11
12.204782
 21
13.740458
 31
0.0
  0
LINE
  8
0
 10
11.850452
 20
13.710458
 30
0.0
 11
12.204782
 21
13.710458
 31
0.0
  0
LINE
  8
0
 10
11.850452
 20
13.680458
 30
0.0
 11
12.204782
 21
13.680458
 31
0.0
  0
LINE
  8
0
 10
11.850452
 20
13.650458
 30
0.0
 11
12.204782
 21
13.650458
 31
0.0
  0
LINE
  8
0
 10
11.850452
 20
13.620458
 30
0.0
 11
12.204782
 21
13.620458
 31
0.0
  0
LINE
  8
0
 10
11.850452
 20
13.590458
 30
0.0
 11
12.204782
 21
13.590458
 31
0.0
  0
LINE
  8
0
 10
11.850452
 20
13.560458
 30
0.0
 11
12.204782
 21
13.560458
 31
0.0
  0
LINE
  8
0
 10
11.850452
 20
13.530458
 30
0.0
 11
12.204782
 21
13.530458
 31
0.0
  0
LINE
  8
0
 10
11.850452
 20
13.500458
 30
0.0
 11
12.204782
 21
13.500458
 31
0.0
  0
LINE
  8
0
 10
11.850452
 20
13.470458
 30
0.0
 11
12.204782
 21
13.470458
 31
0.0
  0
LINE
  8
0
 10
11.850452
 20
13.440458
 30
0.0
 11
12.204782
 21
13.440458
 31
0.0
  0
LINE
  8
0
 10
11.850452
 20
13.410458
 30
0.0
 11
12.204782
 21
13.410458
 31
0.0
  0
LINE
  8
0
 10
11.850452
 20
13.380458
 30
0.0
 11
12.204782
 21
13.380458
 31
0.0
  0
LINE
  8
0
 10
11.850452
 20
13.350458
 30
0.0
 11
12.204782
 21
13.350458
 31
0.0
  0
LINE
  8
0
 10
11.850452
 20
13.320458
 30
0.0
 11
12.204782
 21
13.320458
 31
0.0
  0
LINE
  8
0
 10
11.850452
 20
13.290458
 30
0.0
 11
12.204782
 21
13.290458
 31
0.0
  0
LINE
  8
0
 10
14.316082
 20
13.768498
 30
0.0
 11
14.293282
 21
13.768498
 31
0.0
  0
LINE
  8
0
 10
14.316082
 20
13.382498
 30
0.0
 11
14.293282
 21
13.382498
 31
0.0
  0
LINE
  8
0
 10
12.834782
 20
13.220498
 30
0.0
 11
12.834782
 21
13.930498
 31
0.0
  0
LINE
  8
0
 10
13.783282
 20
13.258966
 30
0.0
 11
13.783282
 21
13.89203
 31
0.0
  0
LINE
  8
0
 10
14.293282
 20
13.258966
 30
0.0
 11
14.293282
 21
13.89203
 31
0.0
  0
LINE
  8
0
 10
13.783282
 20
13.258966
 30
0.0
 11
14.293282
 21
13.258966
 31
0.0
  0
LINE
  8
0
 10
13.783282
 20
13.89203
 30
0.0
 11
14.293282
 21
13.89203
 31
0.0
  0
LINE
  8
0
 10
12.304782
 20
13.258966
 30
0.0
 11
12.304782
 21
13.89203
 31
0.0
  0
LINE
  8
0
 10
13.653282
 20
12.791998
 30
0.0
 11
13.653282
 21
13.382498
 31
0.0
  0
ARC
  8
0
 10
15.534282
 20
11.177998
 30
0.0
 40
0.176
 50
90.0
 51
270.0
  0
ARC
  8
0
 10
16.557282
 20
11.177998
 30
0.0
 40
0.176
 50
270.0
 51
90.0
  0
LINE
  8
0
 10
15.534282
 20
11.353998
 30
0.0
 11
16.557282
 21
11.353998
 31
0.0
  0
LINE
  8
0
 10
15.534282
 20
11.001998
 30
0.0
 11
16.557282
 21
11.001998
 31
0.0
  0
CIRCLE
  8
OBJ
 10
16.990782
 20
12.791998
 30
0.0
 40
0.055
  0
LINE
  8
0
 10
16.124577
 20
13.638398
 30
0.0
 11
15.966988
 21
13.638398
 31
0.0
  0
LINE
  8
0
 10
16.045782
 20
13.717193
 30
0.0
 11
16.045782
 21
13.559603
 31
0.0
  0
LINE
  8
0
 10
16.124577
 20
11.945598
 30
0.0
 11
15.966988
 21
11.945598
 31
0.0
  0
LINE
  8
OBJ
 10
16.428282
 20
13.766276
 30
0.0
 11
15.865782
 21
12.791998
 31
0.0
  0
LINE
  8
OBJ
 10
17.553282
 20
13.766276
 30
0.0
 11
16.428282
 21
13.766276
 31
0.0
  0
ARC
  8
0
 10
17.485282
 20
10.469918
 30
0.0
 40
0.125
 50
0.0
 51
86.852343
  0
LINE
  8
0
 10
17.610282
 20
10.469918
 30
0.0
 11
17.610282
 21
10.232998
 31
0.0
  0
LINE
  8
OBJ
 62
     7
 10
15.08938
 20
10.184998
 30
0.0
 11
14.864782
 21
10.184998
 31
0.0
  0
ARC
  8
0
 10
16.143535
 20
10.568123
 30
0.0
 40
0.06
 50
303.336914
 51
0.0
  0
LINE
  8
0
 10
16.203535
 20
10.726304
 30
0.0
 11
16.203535
 21
10.568123
 31
0.0
  0
LINE
  8
0
 10
17.610282
 20
10.351458
 30
0.0
 11
15.868142
 21
10.351458
 31
0.0
  0
LINE
  8
OBJ
 10
16.428282
 20
11.817719
 30
0.0
 11
17.553282
 21
11.817719
 31
0.0
  0
LINE
  8
0
 10
16.045782
 20
12.024393
 30
0.0
 11
16.045782
 21
11.866803
 31
0.0
  0
LINE
  8
OBJ
 10
15.865782
 20
12.791998
 30
0.0
 11
16.428282
 21
11.817719
 31
0.0
  0
LINE
  8
0
 10
20.780282
 20
10.076998
 30
0.0
 11
20.780282
 21
10.232998
 31
0.0
  0
LINE
  8
0
 10
19.289282
 20
8.431998
 30
0.0
 11
19.520082
 21
8.431998
 31
0.0
  0
LINE
  8
0
 10
19.490082
 20
8.401998
 30
0.0
 11
19.520082
 21
8.431998
 31
0.0
  0
LINE
  8
0
 10
18.870482
 20
8.431998
 30
0.0
 11
18.900482
 21
8.401998
 31
0.0
  0
LINE
  8
0
 10
18.870482
 20
8.431998
 30
0.0
 11
19.101282
 21
8.431998
 31
0.0
  0
LINE
  8
OBJ
 10
19.490082
 20
8.401998
 30
0.0
 11
18.900482
 21
8.401998
 31
0.0
  0
LINE
  8
0
 10
18.870482
 20
8.431998
 30
0.0
 11
18.870482
 21
9.691998
 31
0.0
  0
LINE
  8
0
 10
19.289282
 20
8.401998
 30
0.0
 11
19.289282
 21
9.63632
 31
0.0
  0
LINE
  8
0
 10
19.101282
 20
8.401998
 30
0.0
 11
19.101282
 21
9.63632
 31
0.0
  0
LINE
  8
0
 10
19.520082
 20
8.431998
 30
0.0
 11
19.520082
 21
9.691998
 31
0.0
  0
ARC
  8
0
 10
19.195282
 20
9.362362
 30
0.0
 40
0.289635
 50
71.061927
 51
108.938073
  0
LINE
  8
OBJ
 10
19.101282
 20
9.346998
 30
0.0
 11
19.289282
 21
9.346998
 31
0.0
  0
ARC
  8
0
 10
20.720282
 20
10.076998
 30
0.0
 40
0.06
 50
270.0
 51
0.0
  0
LINE
  8
OBJ
  6
CENTER2
 10
20.286433
 20
10.016998
 30
0.0
 11
20.286433
 21
9.96919
 31
0.0
  0
LINE
  8
OBJ
 10
20.13463
 20
10.016998
 30
0.0
 11
20.182438
 21
9.96919
 31
0.0
  0
LINE
  8
OBJ
  6
CENTER2
 10
19.886041
 20
10.016998
 30
0.0
 11
19.886041
 21
9.96919
 31
0.0
  0
LINE
  8
OBJ
 10
20.278848
 20
9.771982
 30
0.0
 11
20.296002
 21
9.795202
 31
0.0
  0
ARC
  8
OBJ
 10
20.249979
 20
9.829201
 30
0.0
 40
0.057219
 50
199.954678
 51
340.045322
  0
LINE
  8
OBJ
 10
20.303763
 20
9.96919
 30
0.0
 11
19.868711
 21
9.96919
 31
0.0
  0
LINE
  8
OBJ
  6
CONTINUOUS
 10
20.303763
 20
9.96919
 30
0.0
 11
20.303763
 21
9.809673
 31
0.0
  0
LINE
  8
OBJ
  6
CONTINUOUS
 10
19.976279
 20
9.96919
 30
0.0
 11
19.976279
 21
9.809673
 31
0.0
  0
LINE
  8
OBJ
  6
CONTINUOUS
 10
19.868711
 20
9.96919
 30
0.0
 11
19.868711
 21
9.809673
 31
0.0
  0
LINE
  8
OBJ
  6
CONTINUOUS
 10
20.196195
 20
9.96919
 30
0.0
 11
20.196195
 21
9.809673
 31
0.0
  0
LINE
  8
OBJ
 10
20.196195
 20
9.771982
 30
0.0
 11
19.976279
 21
9.771982
 31
0.0
  0
ARC
  8
OBJ
 10
20.086237
 20
9.951219
 30
0.0
 40
0.179237
 50
232.158498
 51
307.841502
  0
LINE
  8
OBJ
 10
20.278848
 20
9.771982
 30
0.0
 11
20.196195
 21
9.771982
 31
0.0
  0
ARC
  8
OBJ
 10
19.922495
 20
9.829201
 30
0.0
 40
0.057219
 50
199.954678
 51
340.045322
  0
LINE
  8
OBJ
 10
19.976279
 20
9.771982
 30
0.0
 11
19.893626
 21
9.771982
 31
0.0
  0
LINE
  8
OBJ
 10
19.893626
 20
9.771982
 30
0.0
 11
19.876472
 21
9.795202
 31
0.0
  0
LINE
  8
0
 10
19.588282
 20
9.781998
 30
0.0
 11
19.588282
 21
9.691998
 31
0.0
  0
LINE
  8
0
 10
18.802282
 20
9.781998
 30
0.0
 11
18.802282
 21
9.691998
 31
0.0
  0
LINE
  8
OBJ
 10
18.496939
 20
9.771982
 30
0.0
 11
18.514093
 21
9.795202
 31
0.0
  0
LINE
  8
OBJ
 10
18.414286
 20
9.771982
 30
0.0
 11
18.496939
 21
9.771982
 31
0.0
  0
ARC
  8
OBJ
 10
18.46807
 20
9.829201
 30
0.0
 40
0.057219
 50
199.954678
 51
340.045322
  0
LINE
  8
OBJ
 10
18.111717
 20
9.771982
 30
0.0
 11
18.19437
 21
9.771982
 31
0.0
  0
ARC
  8
OBJ
 10
18.304328
 20
9.951219
 30
0.0
 40
0.179237
 50
232.158498
 51
307.841502
  0
LINE
  8
OBJ
 10
18.19437
 20
9.771982
 30
0.0
 11
18.414286
 21
9.771982
 31
0.0
  0
LINE
  8
OBJ
  6
CONTINUOUS
 10
18.19437
 20
9.96919
 30
0.0
 11
18.19437
 21
9.809673
 31
0.0
  0
LINE
  8
OBJ
  6
CONTINUOUS
 10
18.521854
 20
9.96919
 30
0.0
 11
18.521854
 21
9.809673
 31
0.0
  0
LINE
  8
OBJ
  6
CONTINUOUS
 10
18.414286
 20
9.96919
 30
0.0
 11
18.414286
 21
9.809673
 31
0.0
  0
LINE
  8
OBJ
  6
CONTINUOUS
 10
18.086802
 20
9.96919
 30
0.0
 11
18.086802
 21
9.809673
 31
0.0
  0
LINE
  8
OBJ
 10
18.086802
 20
9.96919
 30
0.0
 11
18.521854
 21
9.96919
 31
0.0
  0
ARC
  8
OBJ
 10
18.140586
 20
9.829201
 30
0.0
 40
0.057219
 50
199.954678
 51
340.045322
  0
LINE
  8
OBJ
 10
18.111717
 20
9.771982
 30
0.0
 11
18.094563
 21
9.795202
 31
0.0
  0
LINE
  8
OBJ
  6
CENTER2
 10
18.504524
 20
10.016998
 30
0.0
 11
18.504524
 21
9.96919
 31
0.0
  0
LINE
  8
OBJ
 10
18.255935
 20
10.016998
 30
0.0
 11
18.208127
 21
9.96919
 31
0.0
  0
LINE
  8
OBJ
  6
CENTER2
 10
18.104132
 20
10.016998
 30
0.0
 11
18.104132
 21
9.96919
 31
0.0
  0
LINE
  8
0
 10
19.588282
 20
9.691998
 30
0.0
 11
18.802282
 21
9.691998
 31
0.0
  0
LINE
  8
0
 10
19.886226
 20
9.781998
 30
0.0
 11
18.504339
 21
9.781998
 31
0.0
  0
ARC
  8
0
 10
19.471282
 20
11.177998
 30
0.0
 40
0.176
 50
90.0
 51
270.0
  0
ARC
  8
0
 10
20.494282
 20
11.177998
 30
0.0
 40
0.176
 50
270.0
 51
90.0
  0
LINE
  8
0
 10
20.494282
 20
11.353998
 30
0.0
 11
19.471282
 21
11.353998
 31
0.0
  0
LINE
  8
0
 10
20.494282
 20
11.001998
 30
0.0
 11
19.471282
 21
11.001998
 31
0.0
  0
LINE
  8
0
 10
19.982782
 20
13.717193
 30
0.0
 11
19.982782
 21
13.559603
 31
0.0
  0
LINE
  8
0
 10
19.903988
 20
13.638398
 30
0.0
 11
20.061577
 21
13.638398
 31
0.0
  0
LINE
  8
0
 10
19.903988
 20
11.945598
 30
0.0
 11
20.061577
 21
11.945598
 31
0.0
  0
ARC
  8
0
 10
20.819696
 20
10.205601
 30
0.0
 40
0.048
 50
92.350084
 51
145.196125
  0
LINE
  8
0
 10
19.982782
 20
12.024393
 30
0.0
 11
19.982782
 21
11.866803
 31
0.0
  0
ARC
  8
OBJ
 10
20.577873
 20
12.4014
 30
0.0
 40
1.017112
 50
338.848885
 51
343.410301
  0
ARC
  8
OBJ
 10
21.493782
 20
12.047041
 30
0.0
 40
0.035043
 50
270.0
 51
338.848885
  0
ARC
  8
OBJ
 10
21.493782
 20
12.047041
 30
0.0
 40
0.035043
 50
201.151115
 51
270.0
  0
LINE
  8
OBJ
  6
CONTINUOUS
 10
21.434918
 20
12.110998
 30
0.0
 11
21.583782
 21
12.110998
 31
0.0
  0
LINE
  8
OBJ
  6
CONTINUOUS
 10
21.643782
 20
12.363998
 30
0.0
 11
21.763782
 21
12.363998
 31
0.0
  0
ARC
  8
OBJ
 10
21.583782
 20
12.170998
 30
0.0
 40
0.06
 50
270.0
 51
0.0
  0
ARC
  8
OBJ
 10
22.409692
 20
12.4014
 30
0.0
 40
1.017112
 50
189.104601
 51
201.151115
  0
ARC
  8
OBJ
 10
23.866389
 20
12.634845
 30
0.0
 40
2.492397
 50
183.797744
 51
189.104601
  0
ARC
  8
OBJ
 10
21.763782
 20
12.443998
 30
0.0
 40
0.08
 50
270.0
 51
0.0
  0
ARC
  8
OBJ
 10
23.866389
 20
12.949151
 30
0.0
 40
2.492397
 50
170.895399
 51
176.202256
  0
ARC
  8
OBJ
 10
21.763782
 20
13.139998
 30
0.0
 40
0.08
 50
0.0
 51
90.0
  0
LINE
  8
OBJ
  6
CONTINUOUS
 10
21.643782
 20
13.219998
 30
0.0
 11
21.763782
 21
13.219998
 31
0.0
  0
POINT
  8
DEFPOINTS
  6
BYBLOCK
 62
     0
 10
21.843782
 20
12.791998
 30
0.0
  0
ARC
  8
OBJ
 10
26.233852
 20
12.791998
 30
0.0
 40
4.865069
 50
176.202256
 51
180.0
  0
ARC
  8
OBJ
 10
26.233852
 20
12.791998
 30
0.0
 40
4.865069
 50
180.0
 51
183.797744
  0
LINE
  8
OBJ
 10
21.843782
 20
13.139998
 30
0.0
 11
21.843782
 21
12.443998
 31
0.0
  0
ARC
  8
OBJ
 10
21.493782
 20
13.536955
 30
0.0
 40
0.035043
 50
90.0
 51
158.848885
  0
ARC
  8
OBJ
 10
21.493782
 20
13.536955
 30
0.0
 40
0.035043
 50
21.151115
 51
90.0
  0
ARC
  8
OBJ
 10
20.577873
 20
13.182596
 30
0.0
 40
1.017112
 50
16.589699
 51
21.151115
  0
LINE
  8
OBJ
  6
CONTINUOUS
 10
21.434918
 20
13.472998
 30
0.0
 11
21.583782
 21
13.472998
 31
0.0
  0
ARC
  8
OBJ
 10
21.583782
 20
13.412998
 30
0.0
 40
0.06
 50
360.0
 51
90.0
  0
LINE
  8
OBJ
 10
21.643782
 20
13.412998
 30
0.0
 11
21.643782
 21
12.170998
 31
0.0
  0
ARC
  8
OBJ
 10
22.409692
 20
13.182596
 30
0.0
 40
1.017112
 50
158.848885
 51
170.895399
  0
LINE
  8
OBJ
 10
21.408798
 20
10.375386
 30
0.0
 11
21.385579
 21
10.358233
 31
0.0
  0
ARC
  8
OBJ
 10
21.351579
 20
10.404255
 30
0.0
 40
0.057219
 50
289.954678
 51
70.045322
  0
LINE
  8
OBJ
 10
21.408798
 20
10.458039
 30
0.0
 11
21.408798
 21
10.375386
 31
0.0
  0
ARC
  8
OBJ
 10
21.351579
 20
10.73174
 30
0.0
 40
0.057219
 50
289.954678
 51
70.045322
  0
LINE
  8
OBJ
 10
21.408798
 20
10.760609
 30
0.0
 11
21.408798
 21
10.677956
 31
0.0
  0
LINE
  8
OBJ
 10
21.408798
 20
10.760609
 30
0.0
 11
21.385579
 21
10.777763
 31
0.0
  0
ARC
  8
OBJ
 10
21.229561
 20
10.567998
 30
0.0
 40
0.179237
 50
322.158498
 51
37.841502
  0
LINE
  8
OBJ
 10
21.408798
 20
10.677956
 30
0.0
 11
21.408798
 21
10.458039
 31
0.0
  0
ARC
  8
0
 10
21.083782
 20
10.331998
 30
0.0
 40
0.08
 50
270.0
 51
0.0
  0
LINE
  8
0
 10
20.848782
 20
10.251998
 30
0.0
 11
21.083782
 21
10.251998
 31
0.0
  0
LINE
  8
0
 10
20.973782
 20
10.251998
 30
0.0
 11
20.969782
 21
10.251998
 31
0.0
  0
LINE
  8
0
 10
20.973782
 20
10.251998
 30
0.0
 11
20.969782
 21
10.251998
 31
0.0
  0
ARC
  8
0
 10
21.103782
 20
10.538792
 30
0.0
 40
0.06
 50
0.0
 51
78.828647
  0
ARC
  8
0
 10
21.127032
 20
10.656518
 30
0.0
 40
0.06
 50
180.0
 51
258.828647
  0
LINE
  8
OBJ
 10
21.163782
 20
10.61639
 30
0.0
 11
21.21159
 21
10.664198
 31
0.0
  0
LINE
  8
OBJ
  6
CENTER2
 10
21.163782
 20
10.367802
 30
0.0
 11
21.21159
 21
10.367802
 31
0.0
  0
LINE
  8
OBJ
  6
CENTER2
 10
21.163782
 20
10.766194
 30
0.0
 11
21.21159
 21
10.766194
 31
0.0
  0
LINE
  8
0
 10
21.163782
 20
10.768194
 30
0.0
 11
21.163782
 21
10.367802
 31
0.0
  0
LINE
  8
OBJ
 10
21.21159
 20
10.785524
 30
0.0
 11
21.21159
 21
10.350471
 31
0.0
  0
LINE
  8
OBJ
  6
CONTINUOUS
 10
21.21159
 20
10.350471
 30
0.0
 11
21.371107
 21
10.350471
 31
0.0
  0
LINE
  8
OBJ
  6
CONTINUOUS
 10
21.21159
 20
10.458039
 30
0.0
 11
21.371107
 21
10.458039
 31
0.0
  0
LINE
  8
OBJ
  6
CONTINUOUS
 10
21.21159
 20
10.677956
 30
0.0
 11
21.371107
 21
10.677956
 31
0.0
  0
LINE
  8
OBJ
  6
CONTINUOUS
 10
21.21159
 20
10.785524
 30
0.0
 11
21.371107
 21
10.785524
 31
0.0
  0
ARC
  8
0
 10
17.313779
 20
12.028947
 30
0.0
 40
4.270792
 50
342.866494
 51
1.100831
  0
LINE
  8
0
 10
17.670282
 20
15.566998
 30
0.0
 11
20.720282
 21
15.566998
 31
0.0
  0
LINE
  8
0
 10
17.610282
 20
15.350998
 30
0.0
 11
20.780282
 21
15.350998
 31
0.0
  0
LINE
  8
0
 10
14.864782
 20
14.720998
 30
0.0
 11
20.848782
 21
15.331998
 31
0.0
  0
LINE
  8
0
 10
14.333004
 20
14.486698
 30
0.0
 11
14.864782
 21
14.486698
 31
0.0
  0
LINE
  8
0
 10
14.222282
 20
15.376698
 30
0.0
 11
14.864782
 21
15.376698
 31
0.0
  0
ARC
  8
0
 10
12.832329
 20
13.342212
 30
0.0
 40
1.217699
 50
94.59474
 51
114.468693
  0
LINE
  8
0
 10
12.734782
 20
14.555998
 30
0.0
 11
12.734782
 21
14.761998
 31
0.0
  0
ARC
  8
0
 10
14.333004
 20
14.586698
 30
0.0
 40
0.1
 50
225.0
 51
270.0
  0
LINE
  8
0
 10
14.222282
 20
14.555998
 30
0.0
 11
14.262293
 21
14.515987
 31
0.0
  0
LINE
  8
0
 10
14.122282
 20
14.641698
 30
0.0
 11
14.222282
 21
14.641698
 31
0.0
  0
LINE
  8
0
 10
14.122282
 20
15.351698
 30
0.0
 11
14.222282
 21
15.351698
 31
0.0
  0
LINE
  8
0
 10
14.222282
 20
15.130638
 30
0.0
 11
14.122282
 21
14.967629
 31
0.0
  0
LINE
  8
0
 10
14.122282
 20
14.641698
 30
0.0
 11
14.122282
 21
15.351698
 31
0.0
  0
LINE
  8
0
 10
14.222282
 20
14.641698
 30
0.0
 11
14.222282
 21
15.351698
 31
0.0
  0
LINE
  8
0
 10
13.728582
 20
14.721108
 30
0.0
 11
13.767952
 21
14.681738
 31
0.0
  0
LINE
  8
0
 10
13.767952
 20
15.311658
 30
0.0
 11
13.728582
 21
15.272288
 31
0.0
  0
LINE
  8
0
 10
13.767952
 20
14.681738
 30
0.0
 11
13.767952
 21
15.311658
 31
0.0
  0
LINE
  8
0
 10
13.728582
 20
14.721108
 30
0.0
 11
13.728582
 21
15.272288
 31
0.0
  0
LINE
  8
0
 10
13.767952
 20
14.861658
 30
0.0
 11
14.122282
 21
14.861658
 31
0.0
  0
LINE
  8
0
 10
13.767952
 20
14.891658
 30
0.0
 11
14.122282
 21
14.891658
 31
0.0
  0
LINE
  8
0
 10
13.767952
 20
14.921658
 30
0.0
 11
14.122282
 21
14.921658
 31
0.0
  0
LINE
  8
0
 10
13.767952
 20
14.951658
 30
0.0
 11
14.122282
 21
14.951658
 31
0.0
  0
LINE
  8
0
 10
13.767952
 20
14.981658
 30
0.0
 11
14.122282
 21
14.981658
 31
0.0
  0
LINE
  8
0
 10
13.767952
 20
15.011658
 30
0.0
 11
14.122282
 21
15.011658
 31
0.0
  0
LINE
  8
0
 10
13.767952
 20
15.041658
 30
0.0
 11
14.122282
 21
15.041658
 31
0.0
  0
LINE
  8
0
 10
13.767952
 20
15.071658
 30
0.0
 11
14.122282
 21
15.071658
 31
0.0
  0
LINE
  8
0
 10
13.767952
 20
15.101658
 30
0.0
 11
14.122282
 21
15.101658
 31
0.0
  0
LINE
  8
0
 10
13.767952
 20
15.131658
 30
0.0
 11
14.122282
 21
15.131658
 31
0.0
  0
LINE
  8
0
 10
13.767952
 20
14.711658
 30
0.0
 11
14.122282
 21
14.711658
 31
0.0
  0
LINE
  8
0
 10
13.767952
 20
14.741658
 30
0.0
 11
14.122282
 21
14.741658
 31
0.0
  0
LINE
  8
0
 10
13.767952
 20
14.771658
 30
0.0
 11
14.122282
 21
14.771658
 31
0.0
  0
LINE
  8
0
 10
13.767952
 20
14.801658
 30
0.0
 11
14.122282
 21
14.801658
 31
0.0
  0
LINE
  8
0
 10
13.767952
 20
14.831658
 30
0.0
 11
14.122282
 21
14.831658
 31
0.0
  0
LINE
  8
0
 10
13.767952
 20
14.681738
 30
0.0
 11
14.122282
 21
14.681738
 31
0.0
  0
LINE
  8
0
 10
13.767952
 20
15.161658
 30
0.0
 11
14.122282
 21
15.161658
 31
0.0
  0
LINE
  8
0
 10
13.767952
 20
15.191658
 30
0.0
 11
14.122282
 21
15.191658
 31
0.0
  0
LINE
  8
0
 10
13.767952
 20
15.221658
 30
0.0
 11
14.122282
 21
15.221658
 31
0.0
  0
LINE
  8
0
 10
13.767952
 20
15.251658
 30
0.0
 11
14.122282
 21
15.251658
 31
0.0
  0
LINE
  8
0
 10
13.767952
 20
15.281658
 30
0.0
 11
14.122282
 21
15.281658
 31
0.0
  0
LINE
  8
0
 10
13.767952
 20
15.311658
 30
0.0
 11
14.122282
 21
15.311658
 31
0.0
  0
LINE
  8
0
 10
13.703282
 20
14.555998
 30
0.0
 11
14.222282
 21
14.555998
 31
0.0
  0
LINE
  8
0
 10
13.514782
 20
14.482998
 30
0.0
 11
13.653282
 21
14.482998
 31
0.0
  0
LINE
  8
0
 10
13.703282
 20
14.555998
 30
0.0
 11
13.653282
 21
14.505998
 31
0.0
  0
LINE
  8
0
 10
12.734782
 20
14.555998
 30
0.0
 11
13.514782
 21
14.555998
 31
0.0
  0
CIRCLE
  8
0
 10
14.255782
 20
15.302998
 30
0.0
 40
0.00895
  0
LINE
  8
0
 10
14.222282
 20
14.555998
 30
0.0
 11
14.222282
 21
15.376698
 31
0.0
  0
LINE
  8
0
 10
13.703282
 20
15.302998
 30
0.0
 11
13.653282
 21
15.252998
 31
0.0
  0
LINE
  8
0
 10
13.759292
 20
15.302998
 30
0.0
 11
13.703282
 21
15.302998
 31
0.0
  0
LINE
  8
0
 10
13.653282
 20
15.252998
 30
0.0
 11
13.728582
 21
15.252998
 31
0.0
  0
LINE
  8
0
 10
15.534282
 20
14.229998
 30
0.0
 11
16.557282
 21
14.229998
 31
0.0
  0
LINE
  8
0
 10
15.534282
 20
14.581998
 30
0.0
 11
16.557282
 21
14.581998
 31
0.0
  0
ARC
  8
0
 10
16.557282
 20
14.405998
 30
0.0
 40
0.176
 50
270.0
 51
90.0
  0
ARC
  8
0
 10
15.534282
 20
14.405998
 30
0.0
 40
0.176
 50
90.0
 51
270.0
  0
LINE
  8
0
 10
17.610282
 20
15.506998
 30
0.0
 11
17.610282
 21
15.350998
 31
0.0
  0
ARC
  8
0
 10
17.670282
 20
15.506998
 30
0.0
 40
0.06
 50
90.0
 51
180.0
  0
ARC
  8
0
 10
17.485282
 20
15.114078
 30
0.0
 40
0.125
 50
273.147657
 51
0.0
  0
LINE
  8
0
 10
17.610282
 20
15.114078
 30
0.0
 11
17.610282
 21
15.350998
 31
0.0
  0
LINE
  8
OBJ
 62
     7
 10
15.08938
 20
15.398998
 30
0.0
 11
14.864782
 21
15.398998
 31
0.0
  0
ARC
  8
0
 10
16.143535
 20
15.015872
 30
0.0
 40
0.06
 50
0.0
 51
56.663086
  0
ARC
  8
0
 10
15.063804
 20
13.374445
 30
0.0
 40
2.024714
 50
56.663086
 51
89.276241
  0
LINE
  8
0
 10
16.203535
 20
14.857692
 30
0.0
 11
16.203535
 21
15.015872
 31
0.0
  0
LINE
  8
0
 10
17.610282
 20
15.232538
 30
0.0
 11
15.868142
 21
15.232538
 31
0.0
  0
LINE
  8
0
 10
20.494282
 20
14.229998
 30
0.0
 11
19.471282
 21
14.229998
 31
0.0
  0
LINE
  8
0
 10
20.494282
 20
14.581998
 30
0.0
 11
19.471282
 21
14.581998
 31
0.0
  0
ARC
  8
0
 10
20.494282
 20
14.405998
 30
0.0
 40
0.176
 50
270.0
 51
90.0
  0
ARC
  8
0
 10
19.471282
 20
14.405998
 30
0.0
 40
0.176
 50
90.0
 51
270.0
  0
LINE
  8
0
 10
19.520082
 20
17.151998
 30
0.0
 11
19.520082
 21
15.891998
 31
0.0
  0
LINE
  8
0
 10
19.101282
 20
17.181998
 30
0.0
 11
19.101282
 21
15.947676
 31
0.0
  0
LINE
  8
0
 10
19.289282
 20
17.181998
 30
0.0
 11
19.289282
 21
15.947676
 31
0.0
  0
LINE
  8
0
 10
19.588282
 20
15.801998
 30
0.0
 11
19.588282
 21
15.891998
 31
0.0
  0
ARC
  8
0
 10
20.720282
 20
15.506998
 30
0.0
 40
0.06
 50
0.0
 51
90.0
  0
LINE
  8
0
 10
20.780282
 20
15.506998
 30
0.0
 11
20.780282
 21
15.350998
 31
0.0
  0
LINE
  8
OBJ
  6
CENTER2
 10
20.286433
 20
15.566998
 30
0.0
 11
20.286433
 21
15.614806
 31
0.0
  0
LINE
  8
OBJ
 10
20.13463
 20
15.566998
 30
0.0
 11
20.182438
 21
15.614806
 31
0.0
  0
LINE
  8
OBJ
  6
CENTER2
 10
19.886041
 20
15.566998
 30
0.0
 11
19.886041
 21
15.614806
 31
0.0
  0
LINE
  8
OBJ
 10
20.278848
 20
15.812014
 30
0.0
 11
20.296002
 21
15.788794
 31
0.0
  0
ARC
  8
OBJ
 10
20.249979
 20
15.754794
 30
0.0
 40
0.057219
 50
19.954678
 51
160.045322
  0
LINE
  8
OBJ
 10
20.303763
 20
15.614806
 30
0.0
 11
19.868711
 21
15.614806
 31
0.0
  0
LINE
  8
OBJ
  6
CONTINUOUS
 10
20.303763
 20
15.614806
 30
0.0
 11
20.303763
 21
15.774322
 31
0.0
  0
LINE
  8
OBJ
  6
CONTINUOUS
 10
19.976279
 20
15.614806
 30
0.0
 11
19.976279
 21
15.774322
 31
0.0
  0
LINE
  8
OBJ
  6
CONTINUOUS
 10
19.868711
 20
15.614806
 30
0.0
 11
19.868711
 21
15.774322
 31
0.0
  0
LINE
  8
OBJ
  6
CONTINUOUS
 10
20.196195
 20
15.614806
 30
0.0
 11
20.196195
 21
15.774322
 31
0.0
  0
LINE
  8
OBJ
 10
20.196195
 20
15.812014
 30
0.0
 11
19.976279
 21
15.812014
 31
0.0
  0
ARC
  8
OBJ
 10
20.086237
 20
15.632776
 30
0.0
 40
0.179237
 50
52.158498
 51
127.841502
  0
LINE
  8
OBJ
 10
20.278848
 20
15.812014
 30
0.0
 11
20.196195
 21
15.812014
 31
0.0
  0
ARC
  8
OBJ
 10
19.922495
 20
15.754794
 30
0.0
 40
0.057219
 50
19.954678
 51
160.045322
  0
LINE
  8
OBJ
 10
19.976279
 20
15.812014
 30
0.0
 11
19.893626
 21
15.812014
 31
0.0
  0
LINE
  8
OBJ
 10
19.893626
 20
15.812014
 30
0.0
 11
19.876472
 21
15.788794
 31
0.0
  0
ARC
  8
0
 10
20.820766
 20
15.376786
 30
0.0
 40
0.048
 50
212.497684
 51
266.78323
  0
ARC
  8
0
 10
19.195282
 20
16.221633
 30
0.0
 40
0.289635
 50
251.061927
 51
288.938073
  0
LINE
  8
OBJ
 10
19.101282
 20
16.236998
 30
0.0
 11
19.289282
 21
16.236998
 31
0.0
  0
LINE
  8
0
 10
19.490082
 20
17.181998
 30
0.0
 11
19.520082
 21
17.151998
 31
0.0
  0
LINE
  8
0
 10
19.289282
 20
17.151998
 30
0.0
 11
19.520082
 21
17.151998
 31
0.0
  0
LINE
  8
0
 10
18.870482
 20
17.151998
 30
0.0
 11
18.870482
 21
15.891998
 31
0.0
  0
LINE
  8
0
 10
18.802282
 20
15.801998
 30
0.0
 11
18.802282
 21
15.891998
 31
0.0
  0
LINE
  8
OBJ
 10
18.496939
 20
15.812014
 30
0.0
 11
18.514093
 21
15.788794
 31
0.0
  0
LINE
  8
OBJ
 10
18.414286
 20
15.812014
 30
0.0
 11
18.496939
 21
15.812014
 31
0.0
  0
ARC
  8
OBJ
 10
18.46807
 20
15.754794
 30
0.0
 40
0.057219
 50
19.954678
 51
160.045322
  0
LINE
  8
OBJ
 10
18.111717
 20
15.812014
 30
0.0
 11
18.19437
 21
15.812014
 31
0.0
  0
ARC
  8
OBJ
 10
18.304328
 20
15.632776
 30
0.0
 40
0.179237
 50
52.158498
 51
127.841502
  0
LINE
  8
OBJ
 10
18.19437
 20
15.812014
 30
0.0
 11
18.414286
 21
15.812014
 31
0.0
  0
LINE
  8
OBJ
  6
CONTINUOUS
 10
18.19437
 20
15.614806
 30
0.0
 11
18.19437
 21
15.774322
 31
0.0
  0
LINE
  8
OBJ
  6
CONTINUOUS
 10
18.521854
 20
15.614806
 30
0.0
 11
18.521854
 21
15.774322
 31
0.0
  0
LINE
  8
OBJ
  6
CONTINUOUS
 10
18.414286
 20
15.614806
 30
0.0
 11
18.414286
 21
15.774322
 31
0.0
  0
LINE
  8
OBJ
  6
CONTINUOUS
 10
18.086802
 20
15.614806
 30
0.0
 11
18.086802
 21
15.774322
 31
0.0
  0
LINE
  8
OBJ
 10
18.086802
 20
15.614806
 30
0.0
 11
18.521854
 21
15.614806
 31
0.0
  0
ARC
  8
OBJ
 10
18.140586
 20
15.754794
 30
0.0
 40
0.057219
 50
19.954678
 51
160.045322
  0
LINE
  8
OBJ
 10
18.111717
 20
15.812014
 30
0.0
 11
18.094563
 21
15.788794
 31
0.0
  0
LINE
  8
OBJ
  6
CENTER2
 10
18.504524
 20
15.566998
 30
0.0
 11
18.504524
 21
15.614806
 31
0.0
  0
LINE
  8
OBJ
 10
18.255935
 20
15.566998
 30
0.0
 11
18.208127
 21
15.614806
 31
0.0
  0
LINE
  8
OBJ
  6
CENTER2
 10
18.104132
 20
15.566998
 30
0.0
 11
18.104132
 21
15.614806
 31
0.0
  0
LINE
  8
0
 10
18.870482
 20
17.151998
 30
0.0
 11
18.900482
 21
17.181998
 31
0.0
  0
LINE
  8
0
 10
19.588282
 20
15.891998
 30
0.0
 11
18.802282
 21
15.891998
 31
0.0
  0
LINE
  8
0
 10
19.886226
 20
15.801998
 30
0.0
 11
18.504339
 21
15.801998
 31
0.0
  0
LINE
  8
OBJ
 10
19.490082
 20
17.181998
 30
0.0
 11
18.900482
 21
17.181998
 31
0.0
  0
LINE
  8
0
 10
18.870482
 20
17.151998
 30
0.0
 11
19.101282
 21
17.151998
 31
0.0
  0
LINE
  8
OBJ
 10
21.408798
 20
15.208609
 30
0.0
 11
21.385579
 21
15.225763
 31
0.0
  0
ARC
  8
OBJ
 10
21.351579
 20
15.17974
 30
0.0
 40
0.057219
 50
289.954678
 51
70.045322
  0
LINE
  8
OBJ
 10
21.408798
 20
15.125956
 30
0.0
 11
21.408798
 21
15.208609
 31
0.0
  0
ARC
  8
OBJ
 10
21.351579
 20
14.852255
 30
0.0
 40
0.057219
 50
289.954678
 51
70.045322
  0
LINE
  8
OBJ
 10
21.408798
 20
14.823386
 30
0.0
 11
21.408798
 21
14.906039
 31
0.0
  0
LINE
  8
OBJ
 10
21.408798
 20
14.823386
 30
0.0
 11
21.385579
 21
14.806233
 31
0.0
  0
ARC
  8
OBJ
 10
21.229561
 20
15.015998
 30
0.0
 40
0.179237
 50
322.158498
 51
37.841502
  0
LINE
  8
OBJ
 10
21.408798
 20
14.906039
 30
0.0
 11
21.408798
 21
15.125956
 31
0.0
  0
ARC
  8
0
 10
21.127032
 20
14.927477
 30
0.0
 40
0.06
 50
101.171353
 51
180.0
  0
ARC
  8
0
 10
21.103782
 20
15.045203
 30
0.0
 40
0.06
 50
281.171353
 51
0.0
  0
LINE
  8
OBJ
 10
21.163782
 20
14.967605
 30
0.0
 11
21.21159
 21
14.919797
 31
0.0
  0
LINE
  8
OBJ
  6
CENTER2
 10
21.163782
 20
15.216194
 30
0.0
 11
21.21159
 21
15.216194
 31
0.0
  0
LINE
  8
0
 10
20.973782
 20
15.331998
 30
0.0
 11
20.969782
 21
15.331998
 31
0.0
  0
ARC
  8
0
 10
21.083782
 20
15.251998
 30
0.0
 40
0.08
 50
0.0
 51
90.0
  0
LINE
  8
0
 10
20.973782
 20
15.331998
 30
0.0
 11
20.969782
 21
15.331998
 31
0.0
  0
LINE
  8
0
 10
20.848782
 20
15.331998
 30
0.0
 11
21.083782
 21
15.331998
 31
0.0
  0
LINE
  8
OBJ
  6
CENTER2
 10
21.163782
 20
14.815802
 30
0.0
 11
21.21159
 21
14.815802
 31
0.0
  0
LINE
  8
0
 10
21.163782
 20
14.815802
 30
0.0
 11
21.163782
 21
15.216194
 31
0.0
  0
LINE
  8
OBJ
 10
21.21159
 20
14.798471
 30
0.0
 11
21.21159
 21
15.233524
 31
0.0
  0
LINE
  8
OBJ
  6
CONTINUOUS
 10
21.21159
 20
15.125956
 30
0.0
 11
21.371107
 21
15.125956
 31
0.0
  0
LINE
  8
OBJ
  6
CONTINUOUS
 10
21.21159
 20
14.906039
 30
0.0
 11
21.371107
 21
14.906039
 31
0.0
  0
LINE
  8
OBJ
  6
CONTINUOUS
 10
21.21159
 20
14.798471
 30
0.0
 11
21.371107
 21
14.798471
 31
0.0
  0
LINE
  8
OBJ
  6
CONTINUOUS
 10
21.21159
 20
15.233524
 30
0.0
 11
21.371107
 21
15.233524
 31
0.0
  0
ARC
  8
0
 62
     7
 10
5.604246
 20
5.930318
 30
0.0
 40
0.738819
 50
292.206758
 51
305.382823
  0
ARC
  8
0
 62
     7
 10
5.97674
 20
5.405835
 30
0.0
 40
0.095519
 50
305.382823
 51
329.810984
  0
ARC
  8
0
 62
     7
 10
4.395779
 20
5.405835
 30
0.0
 40
0.095519
 50
207.546175
 51
234.617177
  0
ARC
  8
0
 62
     7
 10
4.768273
 20
5.930318
 30
0.0
 40
0.738819
 50
234.617177
 51
247.793242
  0
ARC
  8
0
 62
     7
 10
4.768273
 20
5.930318
 30
0.0
 40
0.738819
 50
251.62385
 51
253.607203
  0
ARC
  8
0
 62
     7
 10
5.019479
 20
6.78424
 30
0.0
 40
1.628924
 50
253.607203
 51
263.052582
  0
ARC
  8
0
 62
     7
 10
5.186259
 20
8.152939
 30
0.0
 40
3.007747
 50
263.052582
 51
270.0
  0
ARC
  8
0
 62
     7
 10
5.186259
 20
8.152939
 30
0.0
 40
3.007747
 50
270.0
 51
276.947418
  0
ARC
  8
0
 62
     7
 10
5.353039
 20
6.78424
 30
0.0
 40
1.628924
 50
276.947418
 51
286.392797
  0
ARC
  8
0
 62
     7
 10
5.604246
 20
5.930318
 30
0.0
 40
0.738819
 50
286.392797
 51
288.37615
  0
ARC
  8
0
 10
16.027086
 20
3.721964
 30
0.0
 40
0.279789
 50
90.0
 51
103.199771
  0
ARC
  8
0
 10
16.005087
 20
3.815759
 30
0.0
 40
0.18345
 50
103.199771
 51
119.52021
  0
ARC
  8
0
 10
15.971625
 20
3.874853
 30
0.0
 40
0.115539
 50
119.52021
 51
143.813865
  0
ARC
  8
0
 10
15.921182
 20
3.911754
 30
0.0
 40
0.053039
 50
143.813865
 51
180.0
  0
ARC
  8
0
 10
15.921182
 20
3.911754
 30
0.0
 40
0.053039
 50
180.0
 51
216.186135
  0
ARC
  8
0
 10
15.971625
 20
3.948654
 30
0.0
 40
0.115539
 50
216.186135
 51
240.47979
  0
ARC
  8
0
 10
16.005087
 20
4.007748
 30
0.0
 40
0.18345
 50
240.47979
 51
256.800229
  0
ARC
  8
0
 10
16.027086
 20
4.101543
 30
0.0
 40
0.279789
 50
256.800229
 51
270.0
  0
POLYLINE
  8
0
 66
     1
 10
0.0
 20
0.0
 30
0.0
 70
     1
  0
VERTEX
  8
0
 10
18.304328
 20
2.801424
 30
0.0
  0
VERTEX
  8
0
 10
18.114344
 20
2.911112
 30
0.0
  0
VERTEX
  8
0
 10
18.114344
 20
3.130486
 30
0.0
  0
VERTEX
  8
0
 10
18.304328
 20
3.240174
 30
0.0
  0
VERTEX
  8
0
 10
18.494312
 20
3.130486
 30
0.0
  0
VERTEX
  8
0
 10
18.494312
 20
2.911112
 30
0.0
  0
SEQEND
  8
0
  0
CIRCLE
  8
0
 10
18.304328
 20
3.020799
 30
0.0
 40
0.186787
  0
CIRCLE
  8
OBJ
 10
18.304328
 20
3.020799
 30
0.0
 40
0.16065
  0
ARC
  8
0
 10
18.304328
 20
3.020799
 30
0.0
 40
0.193285
 50
169.395522
 51
190.604478
  0
LINE
  8
OBJ
 10
18.268628
 20
3.127899
 30
0.0
 11
18.268628
 21
3.056499
 31
0.0
  0
LINE
  8
OBJ
 10
18.340028
 20
3.127899
 30
0.0
 11
18.340028
 21
3.056499
 31
0.0
  0
LINE
  8
OBJ
 10
18.340028
 20
3.127899
 30
0.0
 11
18.268628
 21
3.127899
 31
0.0
  0
LINE
  8
OBJ
 10
18.268628
 20
3.056499
 30
0.0
 11
18.197228
 21
3.056499
 31
0.0
  0
LINE
  8
OBJ
 10
18.268628
 20
2.985099
 30
0.0
 11
18.197228
 21
2.985099
 31
0.0
  0
LINE
  8
0
 10
18.340028
 20
3.056499
 30
0.0
 11
18.268628
 21
2.985099
 31
0.0
  0
LINE
  8
0
 10
18.268628
 20
3.056499
 30
0.0
 11
18.340028
 21
2.985099
 31
0.0
  0
LINE
  8
OBJ
 10
18.268628
 20
2.985099
 30
0.0
 11
18.268628
 21
2.913699
 31
0.0
  0
LINE
  8
OBJ
 10
18.268628
 20
2.913699
 30
0.0
 11
18.340028
 21
2.913699
 31
0.0
  0
LINE
  8
OBJ
 10
18.340028
 20
2.985099
 30
0.0
 11
18.340028
 21
2.913699
 31
0.0
  0
LINE
  8
OBJ
 10
18.411428
 20
2.985099
 30
0.0
 11
18.340028
 21
2.985099
 31
0.0
  0
LINE
  8
OBJ
 10
18.411428
 20
2.985099
 30
0.0
 11
18.411428
 21
3.056499
 31
0.0
  0
LINE
  8
OBJ
 10
18.411428
 20
3.056499
 30
0.0
 11
18.340028
 21
3.056499
 31
0.0
  0
LINE
  8
OBJ
 10
18.197228
 20
3.056499
 30
0.0
 11
18.197228
 21
2.985099
 31
0.0
  0
ARC
  8
0
 10
18.304328
 20
3.020799
 30
0.0
 40
0.193285
 50
229.395522
 51
250.604478
  0
ARC
  8
0
 10
18.304328
 20
3.020799
 30
0.0
 40
0.193285
 50
289.395522
 51
310.604478
  0
ARC
  8
0
 10
18.304328
 20
3.020799
 30
0.0
 40
0.193285
 50
349.395522
 51
10.604478
  0
ARC
  8
0
 10
18.304328
 20
3.020799
 30
0.0
 40
0.193285
 50
49.395522
 51
70.604478
  0
ARC
  8
0
 10
18.304328
 20
3.020799
 30
0.0
 40
0.193285
 50
109.395522
 51
130.604478
  0
POLYLINE
  8
0
 66
     1
 10
0.0
 20
0.0
 30
0.0
 70
     1
  0
VERTEX
  8
0
 10
18.084953
 20
4.802708
 30
0.0
  0
VERTEX
  8
0
 10
18.19464
 20
4.992692
 30
0.0
  0
VERTEX
  8
0
 10
18.414015
 20
4.992692
 30
0.0
  0
VERTEX
  8
0
 10
18.523703
 20
4.802708
 30
0.0
  0
VERTEX
  8
0
 10
18.414015
 20
4.612724
 30
0.0
  0
VERTEX
  8
0
 10
18.19464
 20
4.612724
 30
0.0
  0
SEQEND
  8
0
  0
CIRCLE
  8
0
 10
18.304328
 20
4.802708
 30
0.0
 40
0.186787
  0
CIRCLE
  8
OBJ
 10
18.304328
 20
4.802708
 30
0.0
 40
0.16065
  0
ARC
  8
0
 10
18.304328
 20
4.802708
 30
0.0
 40
0.193285
 50
79.395522
 51
100.604478
  0
LINE
  8
OBJ
 10
18.411428
 20
4.838408
 30
0.0
 11
18.340028
 21
4.838408
 31
0.0
  0
LINE
  8
OBJ
 10
18.411428
 20
4.767008
 30
0.0
 11
18.340028
 21
4.767008
 31
0.0
  0
LINE
  8
OBJ
 10
18.411428
 20
4.767008
 30
0.0
 11
18.411428
 21
4.838408
 31
0.0
  0
LINE
  8
OBJ
 10
18.340028
 20
4.838408
 30
0.0
 11
18.340028
 21
4.909808
 31
0.0
  0
LINE
  8
OBJ
 10
18.268628
 20
4.838408
 30
0.0
 11
18.268628
 21
4.909808
 31
0.0
  0
LINE
  8
0
 10
18.340028
 20
4.767008
 30
0.0
 11
18.268628
 21
4.838408
 31
0.0
  0
LINE
  8
0
 10
18.340028
 20
4.838408
 30
0.0
 11
18.268628
 21
4.767008
 31
0.0
  0
LINE
  8
OBJ
 10
18.268628
 20
4.838408
 30
0.0
 11
18.197228
 21
4.838408
 31
0.0
  0
LINE
  8
OBJ
 10
18.197228
 20
4.838408
 30
0.0
 11
18.197228
 21
4.767008
 31
0.0
  0
LINE
  8
OBJ
 10
18.268628
 20
4.767008
 30
0.0
 11
18.197228
 21
4.767008
 31
0.0
  0
LINE
  8
OBJ
 10
18.268628
 20
4.695608
 30
0.0
 11
18.268628
 21
4.767008
 31
0.0
  0
LINE
  8
OBJ
 10
18.268628
 20
4.695608
 30
0.0
 11
18.340028
 21
4.695608
 31
0.0
  0
LINE
  8
OBJ
 10
18.340028
 20
4.695608
 30
0.0
 11
18.340028
 21
4.767008
 31
0.0
  0
LINE
  8
OBJ
 10
18.340028
 20
4.909808
 30
0.0
 11
18.268628
 21
4.909808
 31
0.0
  0
ARC
  8
0
 10
18.304328
 20
4.802708
 30
0.0
 40
0.193285
 50
139.395522
 51
160.604478
  0
ARC
  8
0
 10
18.304328
 20
4.802708
 30
0.0
 40
0.193285
 50
199.395522
 51
220.604478
  0
ARC
  8
0
 10
18.304328
 20
4.802708
 30
0.0
 40
0.193285
 50
259.395522
 51
280.604478
  0
ARC
  8
0
 10
18.304328
 20
4.802708
 30
0.0
 40
0.193285
 50
319.395522
 51
340.604478
  0
ARC
  8
0
 10
18.304328
 20
4.802708
 30
0.0
 40
0.193285
 50
19.395522
 51
40.604478
  0
ENDSEC
  0
EOF
